  0
SECTION
  2
HEADER
  9
$ACADVER
  1
AC1006
  9
$EXTMIN
 10
3.171520
 20
0.453640
  9
$EXTMAX
 10
8.015480
 20
5.078040
  9
$LTSCALE
 40
0.044000
  9
$PDMODE
 70
    35
  9
$PDSIZE
 40
0.035200
  0
ENDSEC
  0
SECTION
  2
TABLES
  0
TABLE
  2
LTYPE
 70
     9
  0
LTYPE
  2
CONTINUOUS
 70
    64
  3
Solid line
 72
    65
 73
     0
 40
0.000000
  0
LTYPE
  2
DASHED
 70
    64
  3
__ __ __ __ __ __ __ __ __ __ __ __ __ __ __
 72
    65
 73
     2
 40
0.000330
 49
0.000220
 49
-0.000110
  0
LTYPE
  2
HIDDEN
 70
    64
  3
 _ _ _ _ _ _ _ _ _ _ _ _ _ _ _ _ _ _ _ _ _ _
 72
    65
 73
     2
 40
0.000165
 49
0.000110
 49
-0.000055
  0
LTYPE
  2
CENTER
 70
    64
  3
____ _ ____ _ ____ _ ____ _ ____ _ ____ _ ____
 72
    65
 73
     4
 40
0.000880
 49
0.000550
 49
-0.000110
 49
0.000110
 49
-0.000110
  0
LTYPE
  2
PHANTOM
 70
    64
  3
_____ _ _ _____ _ _ _____ _ _ _____ _ _ ____
 72
    65
 73
     6
 40
0.001100
 49
0.000550
 49
-0.000110
 49
0.000110
 49
-0.000110
 49
0.000110
 49
-0.000110
  0
LTYPE
  2
DOT
 70
    64
  3
...............................................
 72
    65
 73
     2
 40
0.000110
 49
0.000000
 49
-0.000110
  0
LTYPE
  2
DASHDOT
 70
    64
  3
__ . __ . __ . __ . __ . __ . __ . __ . __ . __
 72
    65
 73
     4
 40
0.000440
 49
0.000220
 49
-0.000110
 49
0.000000
 49
-0.000110
  0
LTYPE
  2
BORDER
 70
    64
  3
__ __ . __ __ . __ __ . __ __ . __ __ . __ __
 72
    65
 73
     6
 40
0.000770
 49
0.000220
 49
-0.000110
 49
0.000220
 49
-0.000110
 49
0.000000
 49
-0.000110
  0
LTYPE
  2
DIVIDE
 70
    64
  3
__ . . __ . . __ . . __ . . __ . . __ . . __
 72
    65
 73
     6
 40
0.000550
 49
0.000220
 49
-0.000110
 49
0.000000
 49
-0.000110
 49
0.000000
 49
-0.000110
  0
LTYPE
  2
DOTDOT
 70
    64
  3
 . .  . .  . .  . .  . .  . . 
 72
    65
 73
     5
 40
0.000242
 49
-0.000110
 49
0.000000
 49
-0.000110
 49
0.000000
 49
-0.000110
  0
ENDTAB
  0
TABLE
  2
STYLE
 70
     2
  0
STYLE
 70
     0
  2
SN0
 40
0.000000
 41
0.000440
 50
0.000000
 71
     0
 42
0.000000
  3
ROMAND
  0
STYLE
 70
    68
  2
SV0
 40
0.000000
 41
0.000440
 50
0.000000
 71
     0
 42
0.000000
  3
ROMAND
  0
ENDTAB
  0
TABLE
  2
LAYER
 70
     3
  0
LAYER
  2
FOREGROUND
 70
    64
 62
     7
  6
CONTINUOUS
  0
LAYER
  2
BACKGROUND
 70
    65
 62
    -7
  6
CONTINUOUS
  0
LAYER
  2
0
 70
    64
 62
     7
  6
CONTINUOUS
  0
ENDTAB
  0
ENDSEC
  0
SECTION
  2
ENTITIES
  0
POLYLINE
  8
FOREGROUND
  6
CONTINUOUS
 66
     1
 40
0.000000
 41
0.000000
  0
VERTEX
  8
FOREGROUND
  6
CONTINUOUS
 10
0.000000
 20
5.531680
  0
VERTEX
  8
FOREGROUND
  6
CONTINUOUS
 10
8.499920
 20
5.531680
  0
VERTEX
  8
FOREGROUND
  6
CONTINUOUS
 10
8.499920
 20
-5.468320
  0
VERTEX
  8
FOREGROUND
  6
CONTINUOUS
 10
0.000000
 20
-5.468320
  0
VERTEX
  8
FOREGROUND
  6
CONTINUOUS
 10
0.000000
 20
5.531680
  0
SEQEND
  8
0
  0
POLYLINE
  8
FOREGROUND
  6
CONTINUOUS
 66
     1
 40
0.000000
 41
0.000000
  0
VERTEX
  8
FOREGROUND
  6
CONTINUOUS
 10
0.000000
 20
5.531680
  0
VERTEX
  8
FOREGROUND
  6
CONTINUOUS
 10
8.499920
 20
5.531680
  0
VERTEX
  8
FOREGROUND
  6
CONTINUOUS
 10
8.499920
 20
-5.468320
  0
VERTEX
  8
FOREGROUND
  6
CONTINUOUS
 10
0.000000
 20
-5.468320
  0
VERTEX
  8
FOREGROUND
  6
CONTINUOUS
 10
0.000000
 20
5.531680
  0
SEQEND
  8
0
  0
POLYLINE
  8
0
  6
CONTINUOUS
 66
     1
 40
0.014080
 41
0.014080
  0
VERTEX
  8
0
  6
CONTINUOUS
 10
6.227320
 20
4.745400
  0
VERTEX
  8
0
  6
CONTINUOUS
 10
6.258560
 20
4.782360
  0
VERTEX
  8
0
  6
CONTINUOUS
 10
6.288480
 20
4.810520
  0
VERTEX
  8
0
  6
CONTINUOUS
 10
6.317960
 20
4.831640
  0
VERTEX
  8
0
  6
CONTINUOUS
 10
6.346560
 20
4.846160
  0
VERTEX
  8
0
  6
CONTINUOUS
 10
6.365040
 20
4.852760
  0
VERTEX
  8
0
  6
CONTINUOUS
 10
6.383960
 20
4.856720
  0
VERTEX
  8
0
  6
CONTINUOUS
 10
6.402440
 20
4.858920
  0
VERTEX
  8
0
  6
CONTINUOUS
 10
6.439840
 20
4.857600
  0
VERTEX
  8
0
  6
CONTINUOUS
 10
6.477240
 20
4.851000
  0
VERTEX
  8
0
  6
CONTINUOUS
 10
6.599120
 20
4.818440
  0
VERTEX
  8
0
  6
CONTINUOUS
 10
6.644000
 20
4.810080
  0
VERTEX
  8
0
  6
CONTINUOUS
 10
6.692400
 20
4.806120
  0
VERTEX
  8
0
  6
CONTINUOUS
 10
6.717480
 20
4.806560
  0
VERTEX
  8
0
  6
CONTINUOUS
 10
6.744320
 20
4.808760
  0
VERTEX
  8
0
  6
CONTINUOUS
 10
6.785680
 20
4.816240
  0
VERTEX
  8
0
  6
CONTINUOUS
 10
6.830120
 20
4.829000
  0
VERTEX
  8
0
  6
CONTINUOUS
 10
6.876760
 20
4.848360
  0
VERTEX
  8
0
  6
CONTINUOUS
 10
6.926920
 20
4.875200
  0
VERTEX
  8
0
  6
CONTINUOUS
 10
6.962120
 20
4.897200
  0
VERTEX
  8
0
  6
CONTINUOUS
 10
6.964760
 20
4.897200
  0
VERTEX
  8
0
  6
CONTINUOUS
 10
7.159680
 20
4.687760
  0
VERTEX
  8
0
  6
CONTINUOUS
 10
6.516840
 20
4.050640
  0
VERTEX
  8
0
  6
CONTINUOUS
 10
3.798080
 20
4.050640
  0
VERTEX
  8
0
  6
CONTINUOUS
 10
3.176800
 20
4.651680
  0
VERTEX
  8
0
  6
CONTINUOUS
 10
3.438160
 20
4.905120
  0
VERTEX
  8
0
  6
CONTINUOUS
 10
3.510320
 20
4.840000
  0
VERTEX
  8
0
  6
CONTINUOUS
 10
3.584240
 20
4.778840
  0
VERTEX
  8
0
  6
CONTINUOUS
 10
3.660800
 20
4.722080
  0
VERTEX
  8
0
  6
CONTINUOUS
 10
3.739120
 20
4.669720
  0
VERTEX
  8
0
  6
CONTINUOUS
 10
3.819200
 20
4.621320
  0
VERTEX
  8
0
  6
CONTINUOUS
 10
3.900600
 20
4.577320
  0
VERTEX
  8
0
  6
CONTINUOUS
 10
4.026000
 20
4.519240
  0
VERTEX
  8
0
  6
CONTINUOUS
 10
4.111360
 20
4.485800
  0
VERTEX
  8
0
  6
CONTINUOUS
 10
4.197600
 20
4.456320
  0
VERTEX
  8
0
  6
CONTINUOUS
 10
4.285160
 20
4.431240
  0
VERTEX
  8
0
  6
CONTINUOUS
 10
4.373160
 20
4.410120
  0
VERTEX
  8
0
  6
CONTINUOUS
 10
4.462480
 20
4.392960
  0
VERTEX
  8
0
  6
CONTINUOUS
 10
4.551800
 20
4.379760
  0
VERTEX
  8
0
  6
CONTINUOUS
 10
4.641560
 20
4.370520
  0
VERTEX
  8
0
  6
CONTINUOUS
 10
4.732200
 20
4.365680
  0
VERTEX
  8
0
  6
CONTINUOUS
 10
4.822400
 20
4.364360
  0
VERTEX
  8
0
  6
CONTINUOUS
 10
4.912600
 20
4.367440
  0
VERTEX
  8
0
  6
CONTINUOUS
 10
5.003240
 20
4.374040
  0
VERTEX
  8
0
  6
CONTINUOUS
 10
5.093000
 20
4.384600
  0
VERTEX
  8
0
  6
CONTINUOUS
 10
5.182760
 20
4.399120
  0
VERTEX
  8
0
  6
CONTINUOUS
 10
5.271640
 20
4.417600
  0
VERTEX
  8
0
  6
CONTINUOUS
 10
5.359640
 20
4.439600
  0
VERTEX
  8
0
  6
CONTINUOUS
 10
5.447200
 20
4.465560
  0
VERTEX
  8
0
  6
CONTINUOUS
 10
5.533440
 20
4.495480
  0
VERTEX
  8
0
  6
CONTINUOUS
 10
5.618800
 20
4.528920
  0
VERTEX
  8
0
  6
CONTINUOUS
 10
5.702840
 20
4.565880
  0
VERTEX
  8
0
  6
CONTINUOUS
 10
5.785560
 20
4.606800
  0
VERTEX
  8
0
  6
CONTINUOUS
 10
5.866520
 20
4.651240
  0
VERTEX
  8
0
  6
CONTINUOUS
 10
5.945720
 20
4.699640
  0
VERTEX
  8
0
  6
CONTINUOUS
 10
6.023160
 20
4.751560
  0
VERTEX
  8
0
  6
CONTINUOUS
 10
6.098400
 20
4.807000
  0
VERTEX
  8
0
  6
CONTINUOUS
 10
6.135360
 20
4.836040
  0
VERTEX
  8
0
  6
CONTINUOUS
 10
6.227320
 20
4.745400
  0
SEQEND
  8
0
  0
SOLID
  8
0
 62
    15
 10
6.880720
 20
3.333000
 11
7.514760
 21
2.966480
 12
6.694160
 22
3.299120
 13
7.328640
 23
2.933040
  0
POLYLINE
  8
0
  6
CONTINUOUS
 66
     1
 40
0.000000
 41
0.000000
  0
VERTEX
  8
0
  6
CONTINUOUS
 10
6.880720
 20
3.333000
  0
VERTEX
  8
0
  6
CONTINUOUS
 10
7.514760
 20
2.966480
  0
VERTEX
  8
0
  6
CONTINUOUS
 10
7.328640
 20
2.933040
  0
VERTEX
  8
0
  6
CONTINUOUS
 10
6.694160
 20
3.299120
  0
VERTEX
  8
0
  6
CONTINUOUS
 10
6.880720
 20
3.333000
  0
SEQEND
  8
0
  0
SOLID
  8
0
 62
    15
 10
5.008520
 20
1.408880
 11
5.643000
 21
1.042360
 12
5.004560
 22
1.357400
 13
5.638600
 23
0.991320
  0
POLYLINE
  8
0
  6
CONTINUOUS
 66
     1
 40
0.000000
 41
0.000000
  0
VERTEX
  8
0
  6
CONTINUOUS
 10
5.008520
 20
1.408880
  0
VERTEX
  8
0
  6
CONTINUOUS
 10
5.643000
 20
1.042360
  0
VERTEX
  8
0
  6
CONTINUOUS
 10
5.638600
 20
0.991320
  0
VERTEX
  8
0
  6
CONTINUOUS
 10
5.004560
 20
1.357400
  0
VERTEX
  8
0
  6
CONTINUOUS
 10
5.008520
 20
1.408880
  0
SEQEND
  8
0
  0
SOLID
  8
0
 62
    15
 10
5.004560
 20
1.357400
 11
5.638600
 21
0.991320
 12
4.973760
 22
1.281720
 13
5.607800
 23
0.915200
  0
POLYLINE
  8
0
  6
CONTINUOUS
 66
     1
 40
0.000000
 41
0.000000
  0
VERTEX
  8
0
  6
CONTINUOUS
 10
5.004560
 20
1.357400
  0
VERTEX
  8
0
  6
CONTINUOUS
 10
5.638600
 20
0.991320
  0
VERTEX
  8
0
  6
CONTINUOUS
 10
5.607800
 20
0.915200
  0
VERTEX
  8
0
  6
CONTINUOUS
 10
4.973760
 20
1.281720
  0
VERTEX
  8
0
  6
CONTINUOUS
 10
5.004560
 20
1.357400
  0
SEQEND
  8
0
  0
SOLID
  8
0
 62
    15
 10
4.973760
 20
1.281720
 11
5.607800
 21
0.915200
 12
4.920080
 22
1.229800
 13
5.554120
 23
0.863720
  0
POLYLINE
  8
0
  6
CONTINUOUS
 66
     1
 40
0.000000
 41
0.000000
  0
VERTEX
  8
0
  6
CONTINUOUS
 10
4.973760
 20
1.281720
  0
VERTEX
  8
0
  6
CONTINUOUS
 10
5.607800
 20
0.915200
  0
VERTEX
  8
0
  6
CONTINUOUS
 10
5.554120
 20
0.863720
  0
VERTEX
  8
0
  6
CONTINUOUS
 10
4.920080
 20
1.229800
  0
VERTEX
  8
0
  6
CONTINUOUS
 10
4.973760
 20
1.281720
  0
SEQEND
  8
0
  0
SOLID
  8
0
 62
    15
 10
4.920080
 20
1.229800
 11
5.554120
 21
0.863720
 12
4.777080
 22
1.142680
 13
5.411120
 23
0.776160
  0
POLYLINE
  8
0
  6
CONTINUOUS
 66
     1
 40
0.000000
 41
0.000000
  0
VERTEX
  8
0
  6
CONTINUOUS
 10
4.920080
 20
1.229800
  0
VERTEX
  8
0
  6
CONTINUOUS
 10
5.554120
 20
0.863720
  0
VERTEX
  8
0
  6
CONTINUOUS
 10
5.411120
 20
0.776160
  0
VERTEX
  8
0
  6
CONTINUOUS
 10
4.777080
 20
1.142680
  0
VERTEX
  8
0
  6
CONTINUOUS
 10
4.920080
 20
1.229800
  0
SEQEND
  8
0
  0
SOLID
  8
0
 62
    15
 10
4.777080
 20
1.142680
 11
5.411120
 21
0.776160
 12
4.704040
 22
1.078880
 13
5.338520
 23
0.712360
  0
POLYLINE
  8
0
  6
CONTINUOUS
 66
     1
 40
0.000000
 41
0.000000
  0
VERTEX
  8
0
  6
CONTINUOUS
 10
4.777080
 20
1.142680
  0
VERTEX
  8
0
  6
CONTINUOUS
 10
5.411120
 20
0.776160
  0
VERTEX
  8
0
  6
CONTINUOUS
 10
5.338520
 20
0.712360
  0
VERTEX
  8
0
  6
CONTINUOUS
 10
4.704040
 20
1.078880
  0
VERTEX
  8
0
  6
CONTINUOUS
 10
4.777080
 20
1.142680
  0
SEQEND
  8
0
  0
SOLID
  8
0
 62
    15
 10
4.704040
 20
1.078880
 11
5.338520
 21
0.712360
 12
4.641560
 22
0.982960
 13
5.275600
 23
0.616440
  0
POLYLINE
  8
0
  6
CONTINUOUS
 66
     1
 40
0.000000
 41
0.000000
  0
VERTEX
  8
0
  6
CONTINUOUS
 10
4.704040
 20
1.078880
  0
VERTEX
  8
0
  6
CONTINUOUS
 10
5.338520
 20
0.712360
  0
VERTEX
  8
0
  6
CONTINUOUS
 10
5.275600
 20
0.616440
  0
VERTEX
  8
0
  6
CONTINUOUS
 10
4.641560
 20
0.982960
  0
VERTEX
  8
0
  6
CONTINUOUS
 10
4.704040
 20
1.078880
  0
SEQEND
  8
0
  0
SOLID
  8
0
 62
    15
 10
4.641560
 20
0.982960
 11
5.275600
 21
0.616440
 12
4.616480
 22
0.918720
 13
5.250960
 23
0.552200
  0
POLYLINE
  8
0
  6
CONTINUOUS
 66
     1
 40
0.000000
 41
0.000000
  0
VERTEX
  8
0
  6
CONTINUOUS
 10
4.641560
 20
0.982960
  0
VERTEX
  8
0
  6
CONTINUOUS
 10
5.275600
 20
0.616440
  0
VERTEX
  8
0
  6
CONTINUOUS
 10
5.250960
 20
0.552200
  0
VERTEX
  8
0
  6
CONTINUOUS
 10
4.616480
 20
0.918720
  0
VERTEX
  8
0
  6
CONTINUOUS
 10
4.641560
 20
0.982960
  0
SEQEND
  8
0
  0
SOLID
  8
0
 62
    15
 10
4.616480
 20
0.918720
 11
5.250960
 21
0.552200
 12
4.597560
 22
0.840840
 13
5.231600
 23
0.474760
  0
POLYLINE
  8
0
  6
CONTINUOUS
 66
     1
 40
0.000000
 41
0.000000
  0
VERTEX
  8
0
  6
CONTINUOUS
 10
4.616480
 20
0.918720
  0
VERTEX
  8
0
  6
CONTINUOUS
 10
5.250960
 20
0.552200
  0
VERTEX
  8
0
  6
CONTINUOUS
 10
5.231600
 20
0.474760
  0
VERTEX
  8
0
  6
CONTINUOUS
 10
4.597560
 20
0.840840
  0
VERTEX
  8
0
  6
CONTINUOUS
 10
4.616480
 20
0.918720
  0
SEQEND
  8
0
  0
SOLID
  8
0
 62
    15
 10
4.597560
 20
0.840840
 11
5.231600
 21
0.474760
 12
4.595800
 22
0.839080
 13
5.229840
 23
0.472560
  0
POLYLINE
  8
0
  6
CONTINUOUS
 66
     1
 40
0.000000
 41
0.000000
  0
VERTEX
  8
0
  6
CONTINUOUS
 10
4.597560
 20
0.840840
  0
VERTEX
  8
0
  6
CONTINUOUS
 10
5.231600
 20
0.474760
  0
VERTEX
  8
0
  6
CONTINUOUS
 10
5.229840
 20
0.472560
  0
VERTEX
  8
0
  6
CONTINUOUS
 10
4.595800
 20
0.839080
  0
VERTEX
  8
0
  6
CONTINUOUS
 10
4.597560
 20
0.840840
  0
SEQEND
  8
0
  0
SOLID
  8
0
 62
    15
 10
4.595800
 20
0.839080
 11
5.229840
 21
0.472560
 12
4.309800
 22
0.847000
 13
4.943840
 23
0.480480
  0
POLYLINE
  8
0
  6
CONTINUOUS
 66
     1
 40
0.000000
 41
0.000000
  0
VERTEX
  8
0
  6
CONTINUOUS
 10
4.595800
 20
0.839080
  0
VERTEX
  8
0
  6
CONTINUOUS
 10
5.229840
 20
0.472560
  0
VERTEX
  8
0
  6
CONTINUOUS
 10
4.943840
 20
0.480480
  0
VERTEX
  8
0
  6
CONTINUOUS
 10
4.309800
 20
0.847000
  0
VERTEX
  8
0
  6
CONTINUOUS
 10
4.595800
 20
0.839080
  0
SEQEND
  8
0
  0
POLYLINE
  8
0
  6
CONTINUOUS
 66
     1
 40
0.000000
 41
0.000000
  0
VERTEX
  8
0
  6
CONTINUOUS
 10
4.309800
 20
0.847000
  0
VERTEX
  8
0
  6
CONTINUOUS
 10
4.943840
 20
0.480480
  0
VERTEX
  8
0
  6
CONTINUOUS
 10
4.309800
 20
0.847000
  0
SEQEND
  8
0
  0
POLYLINE
  8
0
  6
CONTINUOUS
 66
     1
 40
0.000000
 41
0.000000
  0
VERTEX
  8
0
  6
CONTINUOUS
 10
7.075640
 20
3.712720
  0
VERTEX
  8
0
  6
CONTINUOUS
 10
7.709680
 20
3.346200
  0
VERTEX
  8
0
  6
CONTINUOUS
 10
7.075640
 20
3.712720
  0
SEQEND
  8
0
  0
SOLID
  8
0
 62
    15
 10
7.075640
 20
3.712720
 11
7.709680
 21
3.346200
 12
7.074320
 22
3.351480
 13
7.708360
 23
2.985400
  0
POLYLINE
  8
0
  6
CONTINUOUS
 66
     1
 40
0.000000
 41
0.000000
  0
VERTEX
  8
0
  6
CONTINUOUS
 10
7.075640
 20
3.712720
  0
VERTEX
  8
0
  6
CONTINUOUS
 10
7.709680
 20
3.346200
  0
VERTEX
  8
0
  6
CONTINUOUS
 10
7.708360
 20
2.985400
  0
VERTEX
  8
0
  6
CONTINUOUS
 10
7.074320
 20
3.351480
  0
VERTEX
  8
0
  6
CONTINUOUS
 10
7.075640
 20
3.712720
  0
SEQEND
  8
0
  0
SOLID
  8
0
 62
    15
 10
7.074320
 20
3.351480
 11
7.708360
 21
2.985400
 12
7.073440
 22
3.348840
 13
7.707480
 23
2.982320
  0
POLYLINE
  8
0
  6
CONTINUOUS
 66
     1
 40
0.000000
 41
0.000000
  0
VERTEX
  8
0
  6
CONTINUOUS
 10
7.074320
 20
3.351480
  0
VERTEX
  8
0
  6
CONTINUOUS
 10
7.708360
 20
2.985400
  0
VERTEX
  8
0
  6
CONTINUOUS
 10
7.707480
 20
2.982320
  0
VERTEX
  8
0
  6
CONTINUOUS
 10
7.073440
 20
3.348840
  0
VERTEX
  8
0
  6
CONTINUOUS
 10
7.074320
 20
3.351480
  0
SEQEND
  8
0
  0
SOLID
  8
0
 62
    15
 10
7.073440
 20
3.348840
 11
7.707480
 21
2.982320
 12
6.880720
 22
3.333000
 13
7.514760
 23
2.966480
  0
POLYLINE
  8
0
  6
CONTINUOUS
 66
     1
 40
0.000000
 41
0.000000
  0
VERTEX
  8
0
  6
CONTINUOUS
 10
7.073440
 20
3.348840
  0
VERTEX
  8
0
  6
CONTINUOUS
 10
7.707480
 20
2.982320
  0
VERTEX
  8
0
  6
CONTINUOUS
 10
7.514760
 20
2.966480
  0
VERTEX
  8
0
  6
CONTINUOUS
 10
6.880720
 20
3.333000
  0
VERTEX
  8
0
  6
CONTINUOUS
 10
7.073440
 20
3.348840
  0
SEQEND
  8
0
  0
SOLID
  8
0
 62
    15
 10
5.004120
 20
1.471360
 11
5.638160
 21
1.105280
 12
5.008520
 22
1.408880
 13
5.643000
 23
1.042360
  0
POLYLINE
  8
0
  6
CONTINUOUS
 66
     1
 40
0.000000
 41
0.000000
  0
VERTEX
  8
0
  6
CONTINUOUS
 10
5.004120
 20
1.471360
  0
VERTEX
  8
0
  6
CONTINUOUS
 10
5.638160
 20
1.105280
  0
VERTEX
  8
0
  6
CONTINUOUS
 10
5.643000
 20
1.042360
  0
VERTEX
  8
0
  6
CONTINUOUS
 10
5.008520
 20
1.408880
  0
VERTEX
  8
0
  6
CONTINUOUS
 10
5.004120
 20
1.471360
  0
SEQEND
  8
0
  0
SOLID
  8
0
 62
    15
 10
6.694160
 20
3.299120
 11
7.328640
 21
2.933040
 12
6.515080
 22
3.248520
 13
7.149120
 23
2.882000
  0
POLYLINE
  8
0
  6
CONTINUOUS
 66
     1
 40
0.000000
 41
0.000000
  0
VERTEX
  8
0
  6
CONTINUOUS
 10
6.694160
 20
3.299120
  0
VERTEX
  8
0
  6
CONTINUOUS
 10
7.328640
 20
2.933040
  0
VERTEX
  8
0
  6
CONTINUOUS
 10
7.149120
 20
2.882000
  0
VERTEX
  8
0
  6
CONTINUOUS
 10
6.515080
 20
3.248520
  0
VERTEX
  8
0
  6
CONTINUOUS
 10
6.694160
 20
3.299120
  0
SEQEND
  8
0
  0
SOLID
  8
0
 62
    15
 10
6.515080
 20
3.248520
 11
7.149120
 21
2.882000
 12
6.343920
 22
3.181640
 13
6.977960
 23
2.815120
  0
POLYLINE
  8
0
  6
CONTINUOUS
 66
     1
 40
0.000000
 41
0.000000
  0
VERTEX
  8
0
  6
CONTINUOUS
 10
6.515080
 20
3.248520
  0
VERTEX
  8
0
  6
CONTINUOUS
 10
7.149120
 20
2.882000
  0
VERTEX
  8
0
  6
CONTINUOUS
 10
6.977960
 20
2.815120
  0
VERTEX
  8
0
  6
CONTINUOUS
 10
6.343920
 20
3.181640
  0
VERTEX
  8
0
  6
CONTINUOUS
 10
6.515080
 20
3.248520
  0
SEQEND
  8
0
  0
SOLID
  8
0
 62
    15
 10
6.343920
 20
3.181640
 11
6.977960
 21
2.815120
 12
6.180680
 22
3.099800
 13
6.814720
 23
2.733280
  0
POLYLINE
  8
0
  6
CONTINUOUS
 66
     1
 40
0.000000
 41
0.000000
  0
VERTEX
  8
0
  6
CONTINUOUS
 10
6.343920
 20
3.181640
  0
VERTEX
  8
0
  6
CONTINUOUS
 10
6.977960
 20
2.815120
  0
VERTEX
  8
0
  6
CONTINUOUS
 10
6.814720
 20
2.733280
  0
VERTEX
  8
0
  6
CONTINUOUS
 10
6.180680
 20
3.099800
  0
VERTEX
  8
0
  6
CONTINUOUS
 10
6.343920
 20
3.181640
  0
SEQEND
  8
0
  0
SOLID
  8
0
 62
    15
 10
6.180680
 20
3.099800
 11
6.814720
 21
2.733280
 12
6.026680
 22
3.003440
 13
6.661160
 23
2.637360
  0
POLYLINE
  8
0
  6
CONTINUOUS
 66
     1
 40
0.000000
 41
0.000000
  0
VERTEX
  8
0
  6
CONTINUOUS
 10
6.180680
 20
3.099800
  0
VERTEX
  8
0
  6
CONTINUOUS
 10
6.814720
 20
2.733280
  0
VERTEX
  8
0
  6
CONTINUOUS
 10
6.661160
 20
2.637360
  0
VERTEX
  8
0
  6
CONTINUOUS
 10
6.026680
 20
3.003440
  0
VERTEX
  8
0
  6
CONTINUOUS
 10
6.180680
 20
3.099800
  0
SEQEND
  8
0
  0
SOLID
  8
0
 62
    15
 10
6.026680
 20
3.003440
 11
6.661160
 21
2.637360
 12
5.882800
 22
2.894320
 13
6.516840
 23
2.527800
  0
POLYLINE
  8
0
  6
CONTINUOUS
 66
     1
 40
0.000000
 41
0.000000
  0
VERTEX
  8
0
  6
CONTINUOUS
 10
6.026680
 20
3.003440
  0
VERTEX
  8
0
  6
CONTINUOUS
 10
6.661160
 20
2.637360
  0
VERTEX
  8
0
  6
CONTINUOUS
 10
6.516840
 20
2.527800
  0
VERTEX
  8
0
  6
CONTINUOUS
 10
5.882800
 20
2.894320
  0
VERTEX
  8
0
  6
CONTINUOUS
 10
6.026680
 20
3.003440
  0
SEQEND
  8
0
  0
SOLID
  8
0
 62
    15
 10
5.882800
 20
2.894320
 11
6.516840
 21
2.527800
 12
5.749040
 22
2.772440
 13
6.383080
 23
2.406360
  0
POLYLINE
  8
0
  6
CONTINUOUS
 66
     1
 40
0.000000
 41
0.000000
  0
VERTEX
  8
0
  6
CONTINUOUS
 10
5.882800
 20
2.894320
  0
VERTEX
  8
0
  6
CONTINUOUS
 10
6.516840
 20
2.527800
  0
VERTEX
  8
0
  6
CONTINUOUS
 10
6.383080
 20
2.406360
  0
VERTEX
  8
0
  6
CONTINUOUS
 10
5.749040
 20
2.772440
  0
VERTEX
  8
0
  6
CONTINUOUS
 10
5.882800
 20
2.894320
  0
SEQEND
  8
0
  0
SOLID
  8
0
 62
    15
 10
5.749040
 20
2.772440
 11
6.383080
 21
2.406360
 12
5.626280
 22
2.640000
 13
6.260320
 23
2.273480
  0
POLYLINE
  8
0
  6
CONTINUOUS
 66
     1
 40
0.000000
 41
0.000000
  0
VERTEX
  8
0
  6
CONTINUOUS
 10
5.749040
 20
2.772440
  0
VERTEX
  8
0
  6
CONTINUOUS
 10
6.383080
 20
2.406360
  0
VERTEX
  8
0
  6
CONTINUOUS
 10
6.260320
 20
2.273480
  0
VERTEX
  8
0
  6
CONTINUOUS
 10
5.626280
 20
2.640000
  0
VERTEX
  8
0
  6
CONTINUOUS
 10
5.749040
 20
2.772440
  0
SEQEND
  8
0
  0
SOLID
  8
0
 62
    15
 10
5.626280
 20
2.640000
 11
6.260320
 21
2.273480
 12
5.515400
 22
2.496560
 13
6.149440
 23
2.130040
  0
POLYLINE
  8
0
  6
CONTINUOUS
 66
     1
 40
0.000000
 41
0.000000
  0
VERTEX
  8
0
  6
CONTINUOUS
 10
5.626280
 20
2.640000
  0
VERTEX
  8
0
  6
CONTINUOUS
 10
6.260320
 20
2.273480
  0
VERTEX
  8
0
  6
CONTINUOUS
 10
6.149440
 20
2.130040
  0
VERTEX
  8
0
  6
CONTINUOUS
 10
5.515400
 20
2.496560
  0
VERTEX
  8
0
  6
CONTINUOUS
 10
5.626280
 20
2.640000
  0
SEQEND
  8
0
  0
SOLID
  8
0
 62
    15
 10
5.515400
 20
2.496560
 11
6.149440
 21
2.130040
 12
5.416840
 22
2.343880
 13
6.050880
 23
1.977800
  0
POLYLINE
  8
0
  6
CONTINUOUS
 66
     1
 40
0.000000
 41
0.000000
  0
VERTEX
  8
0
  6
CONTINUOUS
 10
5.515400
 20
2.496560
  0
VERTEX
  8
0
  6
CONTINUOUS
 10
6.149440
 20
2.130040
  0
VERTEX
  8
0
  6
CONTINUOUS
 10
6.050880
 20
1.977800
  0
VERTEX
  8
0
  6
CONTINUOUS
 10
5.416840
 20
2.343880
  0
VERTEX
  8
0
  6
CONTINUOUS
 10
5.515400
 20
2.496560
  0
SEQEND
  8
0
  0
SOLID
  8
0
 62
    15
 10
5.416840
 20
2.343880
 11
6.050880
 21
1.977800
 12
5.331040
 22
2.182840
 13
5.965520
 23
1.816760
  0
POLYLINE
  8
0
  6
CONTINUOUS
 66
     1
 40
0.000000
 41
0.000000
  0
VERTEX
  8
0
  6
CONTINUOUS
 10
5.416840
 20
2.343880
  0
VERTEX
  8
0
  6
CONTINUOUS
 10
6.050880
 20
1.977800
  0
VERTEX
  8
0
  6
CONTINUOUS
 10
5.965520
 20
1.816760
  0
VERTEX
  8
0
  6
CONTINUOUS
 10
5.331040
 20
2.182840
  0
VERTEX
  8
0
  6
CONTINUOUS
 10
5.416840
 20
2.343880
  0
SEQEND
  8
0
  0
SOLID
  8
0
 62
    15
 10
5.331040
 20
2.182840
 11
5.965520
 21
1.816760
 12
5.259320
 22
2.014320
 13
5.893360
 23
1.648240
  0
POLYLINE
  8
0
  6
CONTINUOUS
 66
     1
 40
0.000000
 41
0.000000
  0
VERTEX
  8
0
  6
CONTINUOUS
 10
5.331040
 20
2.182840
  0
VERTEX
  8
0
  6
CONTINUOUS
 10
5.965520
 20
1.816760
  0
VERTEX
  8
0
  6
CONTINUOUS
 10
5.893360
 20
1.648240
  0
VERTEX
  8
0
  6
CONTINUOUS
 10
5.259320
 20
2.014320
  0
VERTEX
  8
0
  6
CONTINUOUS
 10
5.331040
 20
2.182840
  0
SEQEND
  8
0
  0
SOLID
  8
0
 62
    15
 10
5.259320
 20
2.014320
 11
5.893360
 21
1.648240
 12
5.202120
 22
1.839200
 13
5.836160
 23
1.473120
  0
POLYLINE
  8
0
  6
CONTINUOUS
 66
     1
 40
0.000000
 41
0.000000
  0
VERTEX
  8
0
  6
CONTINUOUS
 10
5.259320
 20
2.014320
  0
VERTEX
  8
0
  6
CONTINUOUS
 10
5.893360
 20
1.648240
  0
VERTEX
  8
0
  6
CONTINUOUS
 10
5.836160
 20
1.473120
  0
VERTEX
  8
0
  6
CONTINUOUS
 10
5.202120
 20
1.839200
  0
VERTEX
  8
0
  6
CONTINUOUS
 10
5.259320
 20
2.014320
  0
SEQEND
  8
0
  0
SOLID
  8
0
 62
    15
 10
5.202120
 20
1.839200
 11
5.836160
 21
1.473120
 12
5.159880
 22
1.658800
 13
5.793920
 23
1.292280
  0
POLYLINE
  8
0
  6
CONTINUOUS
 66
     1
 40
0.000000
 41
0.000000
  0
VERTEX
  8
0
  6
CONTINUOUS
 10
5.202120
 20
1.839200
  0
VERTEX
  8
0
  6
CONTINUOUS
 10
5.836160
 20
1.473120
  0
VERTEX
  8
0
  6
CONTINUOUS
 10
5.793920
 20
1.292280
  0
VERTEX
  8
0
  6
CONTINUOUS
 10
5.159880
 20
1.658800
  0
VERTEX
  8
0
  6
CONTINUOUS
 10
5.202120
 20
1.839200
  0
SEQEND
  8
0
  0
SOLID
  8
0
 62
    15
 10
5.159880
 20
1.658800
 11
5.793920
 21
1.292280
 12
5.133040
 22
1.473560
 13
5.767520
 23
1.107040
  0
POLYLINE
  8
0
  6
CONTINUOUS
 66
     1
 40
0.000000
 41
0.000000
  0
VERTEX
  8
0
  6
CONTINUOUS
 10
5.159880
 20
1.658800
  0
VERTEX
  8
0
  6
CONTINUOUS
 10
5.793920
 20
1.292280
  0
VERTEX
  8
0
  6
CONTINUOUS
 10
5.767520
 20
1.107040
  0
VERTEX
  8
0
  6
CONTINUOUS
 10
5.133040
 20
1.473560
  0
VERTEX
  8
0
  6
CONTINUOUS
 10
5.159880
 20
1.658800
  0
SEQEND
  8
0
  0
SOLID
  8
0
 62
    15
 10
5.133040
 20
1.473560
 11
5.767520
 21
1.107040
 12
5.004120
 22
1.471360
 13
5.638160
 23
1.105280
  0
POLYLINE
  8
0
  6
CONTINUOUS
 66
     1
 40
0.000000
 41
0.000000
  0
VERTEX
  8
0
  6
CONTINUOUS
 10
5.133040
 20
1.473560
  0
VERTEX
  8
0
  6
CONTINUOUS
 10
5.767520
 20
1.107040
  0
VERTEX
  8
0
  6
CONTINUOUS
 10
5.638160
 20
1.105280
  0
VERTEX
  8
0
  6
CONTINUOUS
 10
5.004120
 20
1.471360
  0
VERTEX
  8
0
  6
CONTINUOUS
 10
5.133040
 20
1.473560
  0
SEQEND
  8
0
  0
POLYLINE
  8
0
  6
CONTINUOUS
 66
     1
 40
0.000000
 41
0.000000
  0
VERTEX
  8
0
  6
CONTINUOUS
 10
5.004120
 20
1.471360
  0
VERTEX
  8
0
  6
CONTINUOUS
 10
5.008520
 20
1.408880
  0
VERTEX
  8
0
  6
CONTINUOUS
 10
5.004560
 20
1.357400
  0
VERTEX
  8
0
  6
CONTINUOUS
 10
4.973760
 20
1.281720
  0
VERTEX
  8
0
  6
CONTINUOUS
 10
4.920080
 20
1.229800
  0
VERTEX
  8
0
  6
CONTINUOUS
 10
4.777080
 20
1.142680
  0
VERTEX
  8
0
  6
CONTINUOUS
 10
4.704040
 20
1.078880
  0
VERTEX
  8
0
  6
CONTINUOUS
 10
4.641560
 20
0.982960
  0
VERTEX
  8
0
  6
CONTINUOUS
 10
4.616480
 20
0.918720
  0
VERTEX
  8
0
  6
CONTINUOUS
 10
4.597560
 20
0.840840
  0
VERTEX
  8
0
  6
CONTINUOUS
 10
4.595800
 20
0.839080
  0
VERTEX
  8
0
  6
CONTINUOUS
 10
4.309800
 20
0.847000
  0
VERTEX
  8
0
  6
CONTINUOUS
 10
4.305840
 20
1.752080
  0
VERTEX
  8
0
  6
CONTINUOUS
 10
4.307600
 20
1.753840
  0
VERTEX
  8
0
  6
CONTINUOUS
 10
6.211040
 20
3.691160
  0
VERTEX
  8
0
  6
CONTINUOUS
 10
6.213240
 20
3.691160
  0
VERTEX
  8
0
  6
CONTINUOUS
 10
7.075640
 20
3.712720
  0
VERTEX
  8
0
  6
CONTINUOUS
 10
7.074320
 20
3.351480
  0
VERTEX
  8
0
  6
CONTINUOUS
 10
7.073440
 20
3.348840
  0
VERTEX
  8
0
  6
CONTINUOUS
 10
6.880720
 20
3.333000
  0
VERTEX
  8
0
  6
CONTINUOUS
 10
6.694160
 20
3.299120
  0
VERTEX
  8
0
  6
CONTINUOUS
 10
6.515080
 20
3.248520
  0
VERTEX
  8
0
  6
CONTINUOUS
 10
6.343920
 20
3.181640
  0
VERTEX
  8
0
  6
CONTINUOUS
 10
6.180680
 20
3.099800
  0
VERTEX
  8
0
  6
CONTINUOUS
 10
6.026680
 20
3.003440
  0
VERTEX
  8
0
  6
CONTINUOUS
 10
5.882800
 20
2.894320
  0
VERTEX
  8
0
  6
CONTINUOUS
 10
5.749040
 20
2.772440
  0
VERTEX
  8
0
  6
CONTINUOUS
 10
5.626280
 20
2.640000
  0
VERTEX
  8
0
  6
CONTINUOUS
 10
5.515400
 20
2.496560
  0
VERTEX
  8
0
  6
CONTINUOUS
 10
5.416840
 20
2.343880
  0
VERTEX
  8
0
  6
CONTINUOUS
 10
5.331040
 20
2.182840
  0
VERTEX
  8
0
  6
CONTINUOUS
 10
5.259320
 20
2.014320
  0
VERTEX
  8
0
  6
CONTINUOUS
 10
5.202120
 20
1.839200
  0
VERTEX
  8
0
  6
CONTINUOUS
 10
5.159880
 20
1.658800
  0
VERTEX
  8
0
  6
CONTINUOUS
 10
5.133040
 20
1.473560
  0
VERTEX
  8
0
  6
CONTINUOUS
 10
5.004120
 20
1.471360
  0
SEQEND
  8
0
  0
TEXT
  8
0
 10
6.005120
 20
0.689040
 40
0.138098
  1
BA  240
 41
1.000000
  7
SN0
 71
     0
 72
     5
 11
6.595599
 21
0.689040
  0
TEXT
  8
0
 10
5.756960
 20
0.497640
 40
0.138098
  1
13/16" x 3-7/8"
 41
1.000000
  7
SN0
 71
     0
 72
     5
 11
6.843218
 21
0.497640
  0
TEXT
  8
0
 10
7.571080
 20
4.926680
 40
0.138098
  1
crown
 41
1.000000
  7
SN0
 71
     0
 72
     5
 11
8.014060
 21
4.926680
  0
TEXT
  8
0
 10
7.654240
 20
4.735280
 40
0.138098
  1
240
 41
1.000000
  7
SN0
 71
     0
 72
     5
 11
7.931315
 21
4.735280
  0
ENDSEC
  0
EOF
