  0
SECTION
  2
HEADER
  9
$ACADVER
  1
AC1006
  9
$EXTMIN
 10
4.327840
 20
0.347160
  9
$EXTMAX
 10
8.109200
 20
3.182080
  9
$LTSCALE
 40
0.044000
  9
$PDMODE
 70
    35
  9
$PDSIZE
 40
0.035200
  0
ENDSEC
  0
SECTION
  2
TABLES
  0
TABLE
  2
LTYPE
 70
     9
  0
LTYPE
  2
CONTINUOUS
 70
    64
  3
Solid line
 72
    65
 73
     0
 40
0.000000
  0
LTYPE
  2
DASHED
 70
    64
  3
__ __ __ __ __ __ __ __ __ __ __ __ __ __ __
 72
    65
 73
     2
 40
0.000330
 49
0.000220
 49
-0.000110
  0
LTYPE
  2
HIDDEN
 70
    64
  3
 _ _ _ _ _ _ _ _ _ _ _ _ _ _ _ _ _ _ _ _ _ _
 72
    65
 73
     2
 40
0.000165
 49
0.000110
 49
-0.000055
  0
LTYPE
  2
CENTER
 70
    64
  3
____ _ ____ _ ____ _ ____ _ ____ _ ____ _ ____
 72
    65
 73
     4
 40
0.000880
 49
0.000550
 49
-0.000110
 49
0.000110
 49
-0.000110
  0
LTYPE
  2
PHANTOM
 70
    64
  3
_____ _ _ _____ _ _ _____ _ _ _____ _ _ ____
 72
    65
 73
     6
 40
0.001100
 49
0.000550
 49
-0.000110
 49
0.000110
 49
-0.000110
 49
0.000110
 49
-0.000110
  0
LTYPE
  2
DOT
 70
    64
  3
...............................................
 72
    65
 73
     2
 40
0.000110
 49
0.000000
 49
-0.000110
  0
LTYPE
  2
DASHDOT
 70
    64
  3
__ . __ . __ . __ . __ . __ . __ . __ . __ . __
 72
    65
 73
     4
 40
0.000440
 49
0.000220
 49
-0.000110
 49
0.000000
 49
-0.000110
  0
LTYPE
  2
BORDER
 70
    64
  3
__ __ . __ __ . __ __ . __ __ . __ __ . __ __
 72
    65
 73
     6
 40
0.000770
 49
0.000220
 49
-0.000110
 49
0.000220
 49
-0.000110
 49
0.000000
 49
-0.000110
  0
LTYPE
  2
DIVIDE
 70
    64
  3
__ . . __ . . __ . . __ . . __ . . __ . . __
 72
    65
 73
     6
 40
0.000550
 49
0.000220
 49
-0.000110
 49
0.000000
 49
-0.000110
 49
0.000000
 49
-0.000110
  0
LTYPE
  2
DOTDOT
 70
    64
  3
 . .  . .  . .  . .  . .  . . 
 72
    65
 73
     5
 40
0.000242
 49
-0.000110
 49
0.000000
 49
-0.000110
 49
0.000000
 49
-0.000110
  0
ENDTAB
  0
TABLE
  2
STYLE
 70
     2
  0
STYLE
 70
     0
  2
SN0
 40
0.000000
 41
0.000440
 50
0.000000
 71
     0
 42
0.000000
  3
ROMAND
  0
STYLE
 70
    68
  2
SV0
 40
0.000000
 41
0.000440
 50
0.000000
 71
     0
 42
0.000000
  3
ROMAND
  0
ENDTAB
  0
TABLE
  2
LAYER
 70
     3
  0
LAYER
  2
FOREGROUND
 70
    64
 62
     7
  6
CONTINUOUS
  0
LAYER
  2
BACKGROUND
 70
    65
 62
    -7
  6
CONTINUOUS
  0
LAYER
  2
0
 70
    64
 62
     7
  6
CONTINUOUS
  0
ENDTAB
  0
ENDSEC
  0
SECTION
  2
ENTITIES
  0
POLYLINE
  8
FOREGROUND
  6
CONTINUOUS
 66
     1
 40
0.000000
 41
0.000000
  0
VERTEX
  8
FOREGROUND
  6
CONTINUOUS
 10
0.000000
 20
3.529240
  0
VERTEX
  8
FOREGROUND
  6
CONTINUOUS
 10
8.499920
 20
3.529240
  0
VERTEX
  8
FOREGROUND
  6
CONTINUOUS
 10
8.499920
 20
-7.470760
  0
VERTEX
  8
FOREGROUND
  6
CONTINUOUS
 10
0.000000
 20
-7.470760
  0
VERTEX
  8
FOREGROUND
  6
CONTINUOUS
 10
0.000000
 20
3.529240
  0
SEQEND
  8
0
  0
POLYLINE
  8
FOREGROUND
  6
CONTINUOUS
 66
     1
 40
0.000000
 41
0.000000
  0
VERTEX
  8
FOREGROUND
  6
CONTINUOUS
 10
0.000000
 20
3.529240
  0
VERTEX
  8
FOREGROUND
  6
CONTINUOUS
 10
8.499920
 20
3.529240
  0
VERTEX
  8
FOREGROUND
  6
CONTINUOUS
 10
8.499920
 20
-7.470760
  0
VERTEX
  8
FOREGROUND
  6
CONTINUOUS
 10
0.000000
 20
-7.470760
  0
VERTEX
  8
FOREGROUND
  6
CONTINUOUS
 10
0.000000
 20
3.529240
  0
SEQEND
  8
0
  0
POLYLINE
  8
0
  6
CONTINUOUS
 66
     1
 40
0.014080
 41
0.014080
  0
VERTEX
  8
0
  6
CONTINUOUS
 10
4.335320
 20
2.368080
  0
VERTEX
  8
0
  6
CONTINUOUS
 10
4.335320
 20
2.926880
  0
VERTEX
  8
0
  6
CONTINUOUS
 10
4.383280
 20
2.974840
  0
VERTEX
  8
0
  6
CONTINUOUS
 10
4.383280
 20
2.973520
  0
VERTEX
  8
0
  6
CONTINUOUS
 10
6.822200
 20
2.973520
  0
VERTEX
  8
0
  6
CONTINUOUS
 10
6.868400
 20
2.969120
  0
VERTEX
  8
0
  6
CONTINUOUS
 10
6.906240
 20
2.960760
  0
VERTEX
  8
0
  6
CONTINUOUS
 10
6.941880
 20
2.947120
  0
VERTEX
  8
0
  6
CONTINUOUS
 10
6.974880
 20
2.928640
  0
VERTEX
  8
0
  6
CONTINUOUS
 10
6.994680
 20
2.914120
  0
VERTEX
  8
0
  6
CONTINUOUS
 10
7.013600
 20
2.897400
  0
VERTEX
  8
0
  6
CONTINUOUS
 10
7.030320
 20
2.879360
  0
VERTEX
  8
0
  6
CONTINUOUS
 10
7.045280
 20
2.859560
  0
VERTEX
  8
0
  6
CONTINUOUS
 10
7.064200
 20
2.827000
  0
VERTEX
  8
0
  6
CONTINUOUS
 10
7.074320
 20
2.804120
  0
VERTEX
  8
0
  6
CONTINUOUS
 10
7.084880
 20
2.767160
  0
VERTEX
  8
0
  6
CONTINUOUS
 10
7.088840
 20
2.741200
  0
VERTEX
  8
0
  6
CONTINUOUS
 10
7.090160
 20
2.710840
  0
VERTEX
  8
0
  6
CONTINUOUS
 10
7.090160
 20
2.555960
  0
VERTEX
  8
0
  6
CONTINUOUS
 10
7.088840
 20
2.555960
  0
VERTEX
  8
0
  6
CONTINUOUS
 10
7.087520
 20
2.529560
  0
VERTEX
  8
0
  6
CONTINUOUS
 10
7.080480
 20
2.490840
  0
VERTEX
  8
0
  6
CONTINUOUS
 10
7.068160
 20
2.455200
  0
VERTEX
  8
0
  6
CONTINUOUS
 10
7.057160
 20
2.432320
  0
VERTEX
  8
0
  6
CONTINUOUS
 10
7.043960
 20
2.411200
  0
VERTEX
  8
0
  6
CONTINUOUS
 10
7.029000
 20
2.391400
  0
VERTEX
  8
0
  6
CONTINUOUS
 10
7.012280
 20
2.373360
  0
VERTEX
  8
0
  6
CONTINUOUS
 10
6.993360
 20
2.356640
  0
VERTEX
  8
0
  6
CONTINUOUS
 10
6.973560
 20
2.342120
  0
VERTEX
  8
0
  6
CONTINUOUS
 10
6.940560
 20
2.323640
  0
VERTEX
  8
0
  6
CONTINUOUS
 10
6.904920
 20
2.310000
  0
VERTEX
  8
0
  6
CONTINUOUS
 10
6.867080
 20
2.301640
  0
VERTEX
  8
0
  6
CONTINUOUS
 10
6.840680
 20
2.299000
  0
VERTEX
  8
0
  6
CONTINUOUS
 10
4.387240
 20
2.298560
  0
VERTEX
  8
0
  6
CONTINUOUS
 10
4.335320
 20
2.350480
  0
VERTEX
  8
0
  6
CONTINUOUS
 10
4.335320
 20
2.356200
  0
VERTEX
  8
0
  6
CONTINUOUS
 10
4.335320
 20
2.354880
  0
VERTEX
  8
0
  6
CONTINUOUS
 10
4.335320
 20
2.397560
  0
VERTEX
  8
0
  6
CONTINUOUS
 10
4.335320
 20
2.368080
  0
SEQEND
  8
0
  0
SOLID
  8
0
 62
    15
 10
7.095880
 20
1.332760
 11
7.740920
 21
1.712040
 12
7.111280
 22
1.284360
 13
7.756320
 23
1.663200
  0
POLYLINE
  8
0
  6
CONTINUOUS
 66
     1
 40
0.000000
 41
0.000000
  0
VERTEX
  8
0
  6
CONTINUOUS
 10
7.095880
 20
1.332760
  0
VERTEX
  8
0
  6
CONTINUOUS
 10
7.740920
 20
1.712040
  0
VERTEX
  8
0
  6
CONTINUOUS
 10
7.756320
 20
1.663200
  0
VERTEX
  8
0
  6
CONTINUOUS
 10
7.111280
 20
1.284360
  0
VERTEX
  8
0
  6
CONTINUOUS
 10
7.095880
 20
1.332760
  0
SEQEND
  8
0
  0
SOLID
  8
0
 62
    15
 10
4.410120
 20
1.490280
 11
5.054720
 21
1.869560
 12
6.848600
 22
1.490280
 13
7.493640
 23
1.869560
  0
POLYLINE
  8
0
  6
CONTINUOUS
 66
     1
 40
0.000000
 41
0.000000
  0
VERTEX
  8
0
  6
CONTINUOUS
 10
4.410120
 20
1.490280
  0
VERTEX
  8
0
  6
CONTINUOUS
 10
5.054720
 20
1.869560
  0
VERTEX
  8
0
  6
CONTINUOUS
 10
7.493640
 20
1.869560
  0
VERTEX
  8
0
  6
CONTINUOUS
 10
6.848600
 20
1.490280
  0
VERTEX
  8
0
  6
CONTINUOUS
 10
4.410120
 20
1.490280
  0
SEQEND
  8
0
  0
SOLID
  8
0
 62
    15
 10
6.848600
 20
1.490280
 11
7.493640
 21
1.869560
 12
6.855200
 22
1.488960
 13
7.500240
 23
1.868240
  0
POLYLINE
  8
0
  6
CONTINUOUS
 66
     1
 40
0.000000
 41
0.000000
  0
VERTEX
  8
0
  6
CONTINUOUS
 10
6.848600
 20
1.490280
  0
VERTEX
  8
0
  6
CONTINUOUS
 10
7.493640
 20
1.869560
  0
VERTEX
  8
0
  6
CONTINUOUS
 10
7.500240
 20
1.868240
  0
VERTEX
  8
0
  6
CONTINUOUS
 10
6.855200
 20
1.488960
  0
VERTEX
  8
0
  6
CONTINUOUS
 10
6.848600
 20
1.490280
  0
SEQEND
  8
0
  0
SOLID
  8
0
 62
    15
 10
6.855200
 20
1.488960
 11
7.500240
 21
1.868240
 12
6.908000
 22
1.484120
 13
7.552600
 23
1.862960
  0
POLYLINE
  8
0
  6
CONTINUOUS
 66
     1
 40
0.000000
 41
0.000000
  0
VERTEX
  8
0
  6
CONTINUOUS
 10
6.855200
 20
1.488960
  0
VERTEX
  8
0
  6
CONTINUOUS
 10
7.500240
 20
1.868240
  0
VERTEX
  8
0
  6
CONTINUOUS
 10
7.552600
 20
1.862960
  0
VERTEX
  8
0
  6
CONTINUOUS
 10
6.908000
 20
1.484120
  0
VERTEX
  8
0
  6
CONTINUOUS
 10
6.855200
 20
1.488960
  0
SEQEND
  8
0
  0
SOLID
  8
0
 62
    15
 10
6.908000
 20
1.484120
 11
7.552600
 21
1.862960
 12
6.956840
 22
1.469160
 13
7.601440
 23
1.848440
  0
POLYLINE
  8
0
  6
CONTINUOUS
 66
     1
 40
0.000000
 41
0.000000
  0
VERTEX
  8
0
  6
CONTINUOUS
 10
6.908000
 20
1.484120
  0
VERTEX
  8
0
  6
CONTINUOUS
 10
7.552600
 20
1.862960
  0
VERTEX
  8
0
  6
CONTINUOUS
 10
7.601440
 20
1.848440
  0
VERTEX
  8
0
  6
CONTINUOUS
 10
6.956840
 20
1.469160
  0
VERTEX
  8
0
  6
CONTINUOUS
 10
6.908000
 20
1.484120
  0
SEQEND
  8
0
  0
SOLID
  8
0
 62
    15
 10
6.956840
 20
1.469160
 11
7.601440
 21
1.848440
 12
7.001280
 22
1.445840
 13
7.645880
 23
1.824680
  0
POLYLINE
  8
0
  6
CONTINUOUS
 66
     1
 40
0.000000
 41
0.000000
  0
VERTEX
  8
0
  6
CONTINUOUS
 10
6.956840
 20
1.469160
  0
VERTEX
  8
0
  6
CONTINUOUS
 10
7.601440
 20
1.848440
  0
VERTEX
  8
0
  6
CONTINUOUS
 10
7.645880
 20
1.824680
  0
VERTEX
  8
0
  6
CONTINUOUS
 10
7.001280
 20
1.445840
  0
VERTEX
  8
0
  6
CONTINUOUS
 10
6.956840
 20
1.469160
  0
SEQEND
  8
0
  0
SOLID
  8
0
 62
    15
 10
7.001280
 20
1.445840
 11
7.645880
 21
1.824680
 12
7.040000
 22
1.414600
 13
7.684600
 23
1.793440
  0
POLYLINE
  8
0
  6
CONTINUOUS
 66
     1
 40
0.000000
 41
0.000000
  0
VERTEX
  8
0
  6
CONTINUOUS
 10
7.001280
 20
1.445840
  0
VERTEX
  8
0
  6
CONTINUOUS
 10
7.645880
 20
1.824680
  0
VERTEX
  8
0
  6
CONTINUOUS
 10
7.684600
 20
1.793440
  0
VERTEX
  8
0
  6
CONTINUOUS
 10
7.040000
 20
1.414600
  0
VERTEX
  8
0
  6
CONTINUOUS
 10
7.001280
 20
1.445840
  0
SEQEND
  8
0
  0
SOLID
  8
0
 62
    15
 10
7.040000
 20
1.414600
 11
7.684600
 21
1.793440
 12
7.071680
 22
1.376320
 13
7.716720
 23
1.755600
  0
POLYLINE
  8
0
  6
CONTINUOUS
 66
     1
 40
0.000000
 41
0.000000
  0
VERTEX
  8
0
  6
CONTINUOUS
 10
7.040000
 20
1.414600
  0
VERTEX
  8
0
  6
CONTINUOUS
 10
7.684600
 20
1.793440
  0
VERTEX
  8
0
  6
CONTINUOUS
 10
7.716720
 20
1.755600
  0
VERTEX
  8
0
  6
CONTINUOUS
 10
7.071680
 20
1.376320
  0
VERTEX
  8
0
  6
CONTINUOUS
 10
7.040000
 20
1.414600
  0
SEQEND
  8
0
  0
SOLID
  8
0
 62
    15
 10
7.071680
 20
1.376320
 11
7.716720
 21
1.755600
 12
7.095880
 22
1.332760
 13
7.740920
 23
1.712040
  0
POLYLINE
  8
0
  6
CONTINUOUS
 66
     1
 40
0.000000
 41
0.000000
  0
VERTEX
  8
0
  6
CONTINUOUS
 10
7.071680
 20
1.376320
  0
VERTEX
  8
0
  6
CONTINUOUS
 10
7.716720
 20
1.755600
  0
VERTEX
  8
0
  6
CONTINUOUS
 10
7.740920
 20
1.712040
  0
VERTEX
  8
0
  6
CONTINUOUS
 10
7.095880
 20
1.332760
  0
VERTEX
  8
0
  6
CONTINUOUS
 10
7.071680
 20
1.376320
  0
SEQEND
  8
0
  0
SOLID
  8
0
 62
    15
 10
4.410120
 20
1.491600
 11
5.054720
 21
1.870880
 12
4.410120
 22
1.490280
 13
5.054720
 23
1.869560
  0
POLYLINE
  8
0
  6
CONTINUOUS
 66
     1
 40
0.000000
 41
0.000000
  0
VERTEX
  8
0
  6
CONTINUOUS
 10
4.410120
 20
1.491600
  0
VERTEX
  8
0
  6
CONTINUOUS
 10
5.054720
 20
1.870880
  0
VERTEX
  8
0
  6
CONTINUOUS
 10
5.054720
 20
1.869560
  0
VERTEX
  8
0
  6
CONTINUOUS
 10
4.410120
 20
1.490280
  0
VERTEX
  8
0
  6
CONTINUOUS
 10
4.410120
 20
1.491600
  0
SEQEND
  8
0
  0
SOLID
  8
0
 62
    15
 10
7.111280
 20
1.284360
 11
7.756320
 21
1.663200
 12
7.116560
 22
1.231560
 13
7.761600
 23
1.610840
  0
POLYLINE
  8
0
  6
CONTINUOUS
 66
     1
 40
0.000000
 41
0.000000
  0
VERTEX
  8
0
  6
CONTINUOUS
 10
7.111280
 20
1.284360
  0
VERTEX
  8
0
  6
CONTINUOUS
 10
7.756320
 20
1.663200
  0
VERTEX
  8
0
  6
CONTINUOUS
 10
7.761600
 20
1.610840
  0
VERTEX
  8
0
  6
CONTINUOUS
 10
7.116560
 20
1.231560
  0
VERTEX
  8
0
  6
CONTINUOUS
 10
7.111280
 20
1.284360
  0
SEQEND
  8
0
  0
SOLID
  8
0
 62
    15
 10
7.115240
 20
1.073160
 11
7.760280
 21
1.452440
 12
7.109960
 22
1.020800
 13
7.754560
 23
1.400080
  0
POLYLINE
  8
0
  6
CONTINUOUS
 66
     1
 40
0.000000
 41
0.000000
  0
VERTEX
  8
0
  6
CONTINUOUS
 10
7.115240
 20
1.073160
  0
VERTEX
  8
0
  6
CONTINUOUS
 10
7.760280
 20
1.452440
  0
VERTEX
  8
0
  6
CONTINUOUS
 10
7.754560
 20
1.400080
  0
VERTEX
  8
0
  6
CONTINUOUS
 10
7.109960
 20
1.020800
  0
VERTEX
  8
0
  6
CONTINUOUS
 10
7.115240
 20
1.073160
  0
SEQEND
  8
0
  0
SOLID
  8
0
 62
    15
 10
7.116560
 20
1.231560
 11
7.761600
 21
1.610840
 12
7.116560
 22
1.073160
 13
7.761600
 23
1.452440
  0
POLYLINE
  8
0
  6
CONTINUOUS
 66
     1
 40
0.000000
 41
0.000000
  0
VERTEX
  8
0
  6
CONTINUOUS
 10
7.116560
 20
1.231560
  0
VERTEX
  8
0
  6
CONTINUOUS
 10
7.761600
 20
1.610840
  0
VERTEX
  8
0
  6
CONTINUOUS
 10
7.761600
 20
1.452440
  0
VERTEX
  8
0
  6
CONTINUOUS
 10
7.116560
 20
1.073160
  0
VERTEX
  8
0
  6
CONTINUOUS
 10
7.116560
 20
1.231560
  0
SEQEND
  8
0
  0
SOLID
  8
0
 62
    15
 10
7.109960
 20
1.020800
 11
7.754560
 21
1.400080
 12
7.094560
 22
0.971960
 13
7.739600
 23
1.351240
  0
POLYLINE
  8
0
  6
CONTINUOUS
 66
     1
 40
0.000000
 41
0.000000
  0
VERTEX
  8
0
  6
CONTINUOUS
 10
7.109960
 20
1.020800
  0
VERTEX
  8
0
  6
CONTINUOUS
 10
7.754560
 20
1.400080
  0
VERTEX
  8
0
  6
CONTINUOUS
 10
7.739600
 20
1.351240
  0
VERTEX
  8
0
  6
CONTINUOUS
 10
7.094560
 20
0.971960
  0
VERTEX
  8
0
  6
CONTINUOUS
 10
7.109960
 20
1.020800
  0
SEQEND
  8
0
  0
SOLID
  8
0
 62
    15
 10
7.094560
 20
0.971960
 11
7.739600
 21
1.351240
 12
7.070360
 22
0.928400
 13
7.715400
 23
1.307680
  0
POLYLINE
  8
0
  6
CONTINUOUS
 66
     1
 40
0.000000
 41
0.000000
  0
VERTEX
  8
0
  6
CONTINUOUS
 10
7.094560
 20
0.971960
  0
VERTEX
  8
0
  6
CONTINUOUS
 10
7.739600
 20
1.351240
  0
VERTEX
  8
0
  6
CONTINUOUS
 10
7.715400
 20
1.307680
  0
VERTEX
  8
0
  6
CONTINUOUS
 10
7.070360
 20
0.928400
  0
VERTEX
  8
0
  6
CONTINUOUS
 10
7.094560
 20
0.971960
  0
SEQEND
  8
0
  0
SOLID
  8
0
 62
    15
 10
7.070360
 20
0.928400
 11
7.715400
 21
1.307680
 12
7.038680
 22
0.890560
 13
7.683280
 23
1.269840
  0
POLYLINE
  8
0
  6
CONTINUOUS
 66
     1
 40
0.000000
 41
0.000000
  0
VERTEX
  8
0
  6
CONTINUOUS
 10
7.070360
 20
0.928400
  0
VERTEX
  8
0
  6
CONTINUOUS
 10
7.715400
 20
1.307680
  0
VERTEX
  8
0
  6
CONTINUOUS
 10
7.683280
 20
1.269840
  0
VERTEX
  8
0
  6
CONTINUOUS
 10
7.038680
 20
0.890560
  0
VERTEX
  8
0
  6
CONTINUOUS
 10
7.070360
 20
0.928400
  0
SEQEND
  8
0
  0
SOLID
  8
0
 62
    15
 10
7.038680
 20
0.890560
 11
7.683280
 21
1.269840
 12
6.999960
 22
0.859320
 13
7.644560
 23
1.238600
  0
POLYLINE
  8
0
  6
CONTINUOUS
 66
     1
 40
0.000000
 41
0.000000
  0
VERTEX
  8
0
  6
CONTINUOUS
 10
7.038680
 20
0.890560
  0
VERTEX
  8
0
  6
CONTINUOUS
 10
7.683280
 20
1.269840
  0
VERTEX
  8
0
  6
CONTINUOUS
 10
7.644560
 20
1.238600
  0
VERTEX
  8
0
  6
CONTINUOUS
 10
6.999960
 20
0.859320
  0
VERTEX
  8
0
  6
CONTINUOUS
 10
7.038680
 20
0.890560
  0
SEQEND
  8
0
  0
SOLID
  8
0
 62
    15
 10
4.361720
 20
0.914320
 11
5.006760
 21
1.293600
 12
4.361720
 22
0.885280
 13
5.006760
 23
1.264120
  0
POLYLINE
  8
0
  6
CONTINUOUS
 66
     1
 40
0.000000
 41
0.000000
  0
VERTEX
  8
0
  6
CONTINUOUS
 10
4.361720
 20
0.914320
  0
VERTEX
  8
0
  6
CONTINUOUS
 10
5.006760
 20
1.293600
  0
VERTEX
  8
0
  6
CONTINUOUS
 10
5.006760
 20
1.264120
  0
VERTEX
  8
0
  6
CONTINUOUS
 10
4.361720
 20
0.885280
  0
VERTEX
  8
0
  6
CONTINUOUS
 10
4.361720
 20
0.914320
  0
SEQEND
  8
0
  0
POLYLINE
  8
0
  6
CONTINUOUS
 66
     1
 40
0.000000
 41
0.000000
  0
VERTEX
  8
0
  6
CONTINUOUS
 10
4.361720
 20
0.885280
  0
VERTEX
  8
0
  6
CONTINUOUS
 10
4.361720
 20
1.443640
  0
VERTEX
  8
0
  6
CONTINUOUS
 10
4.410120
 20
1.491600
  0
VERTEX
  8
0
  6
CONTINUOUS
 10
4.410120
 20
1.490280
  0
VERTEX
  8
0
  6
CONTINUOUS
 10
6.848600
 20
1.490280
  0
VERTEX
  8
0
  6
CONTINUOUS
 10
6.855200
 20
1.488960
  0
VERTEX
  8
0
  6
CONTINUOUS
 10
6.908000
 20
1.484120
  0
VERTEX
  8
0
  6
CONTINUOUS
 10
6.956840
 20
1.469160
  0
VERTEX
  8
0
  6
CONTINUOUS
 10
7.001280
 20
1.445840
  0
VERTEX
  8
0
  6
CONTINUOUS
 10
7.040000
 20
1.414600
  0
VERTEX
  8
0
  6
CONTINUOUS
 10
7.071680
 20
1.376320
  0
VERTEX
  8
0
  6
CONTINUOUS
 10
7.095880
 20
1.332760
  0
VERTEX
  8
0
  6
CONTINUOUS
 10
7.111280
 20
1.284360
  0
VERTEX
  8
0
  6
CONTINUOUS
 10
7.116560
 20
1.231560
  0
VERTEX
  8
0
  6
CONTINUOUS
 10
7.116560
 20
1.073160
  0
VERTEX
  8
0
  6
CONTINUOUS
 10
7.115240
 20
1.073160
  0
VERTEX
  8
0
  6
CONTINUOUS
 10
7.109960
 20
1.020800
  0
VERTEX
  8
0
  6
CONTINUOUS
 10
7.094560
 20
0.971960
  0
VERTEX
  8
0
  6
CONTINUOUS
 10
7.070360
 20
0.928400
  0
VERTEX
  8
0
  6
CONTINUOUS
 10
7.038680
 20
0.890560
  0
VERTEX
  8
0
  6
CONTINUOUS
 10
6.999960
 20
0.859320
  0
VERTEX
  8
0
  6
CONTINUOUS
 10
6.955520
 20
0.835560
  0
VERTEX
  8
0
  6
CONTINUOUS
 10
6.906680
 20
0.821040
  0
VERTEX
  8
0
  6
CONTINUOUS
 10
6.853880
 20
0.815760
  0
VERTEX
  8
0
  6
CONTINUOUS
 10
4.414080
 20
0.815760
  0
VERTEX
  8
0
  6
CONTINUOUS
 10
4.361720
 20
0.867680
  0
VERTEX
  8
0
  6
CONTINUOUS
 10
4.361720
 20
0.914320
  0
VERTEX
  8
0
  6
CONTINUOUS
 10
4.361720
 20
0.885280
  0
SEQEND
  8
0
  0
TEXT
  8
0
 10
5.766200
 20
0.582120
 40
0.138135
  1
BA  239
 41
1.000000
  7
SN0
 71
     0
 72
     5
 11
6.355525
 21
0.582120
  0
TEXT
  8
0
 10
5.518040
 20
0.390280
 40
0.138135
  1
11/16" x 2-3/4"
 41
1.000000
  7
SN0
 71
     0
 72
     5
 11
6.601022
 21
0.390280
  0
TEXT
  8
0
 10
7.639280
 20
3.030280
 40
0.138135
  1
1/2rnd
 41
1.000000
  7
SN0
 71
     0
 72
     5
 11
8.108736
 21
3.030280
  0
TEXT
  8
0
 10
7.736080
 20
2.838880
 40
0.138135
  1
239
 41
1.000000
  7
SN0
 71
     0
 72
     5
 11
8.012686
 21
2.838880
  0
ENDSEC
  0
EOF
