  0
SECTION
  2
HEADER
  9
$ACADVER
  1
AC1006
  9
$EXTMIN
 10
3.827120
 20
0.375760
  9
$EXTMAX
 10
8.071360
 20
3.632200
  9
$LTSCALE
 40
0.044000
  9
$PDMODE
 70
    35
  9
$PDSIZE
 40
0.035200
  0
ENDSEC
  0
SECTION
  2
TABLES
  0
TABLE
  2
LTYPE
 70
     9
  0
LTYPE
  2
CONTINUOUS
 70
    64
  3
Solid line
 72
    65
 73
     0
 40
0.000000
  0
LTYPE
  2
DASHED
 70
    64
  3
__ __ __ __ __ __ __ __ __ __ __ __ __ __ __
 72
    65
 73
     2
 40
0.000330
 49
0.000220
 49
-0.000110
  0
LTYPE
  2
HIDDEN
 70
    64
  3
 _ _ _ _ _ _ _ _ _ _ _ _ _ _ _ _ _ _ _ _ _ _
 72
    65
 73
     2
 40
0.000165
 49
0.000110
 49
-0.000055
  0
LTYPE
  2
CENTER
 70
    64
  3
____ _ ____ _ ____ _ ____ _ ____ _ ____ _ ____
 72
    65
 73
     4
 40
0.000880
 49
0.000550
 49
-0.000110
 49
0.000110
 49
-0.000110
  0
LTYPE
  2
PHANTOM
 70
    64
  3
_____ _ _ _____ _ _ _____ _ _ _____ _ _ ____
 72
    65
 73
     6
 40
0.001100
 49
0.000550
 49
-0.000110
 49
0.000110
 49
-0.000110
 49
0.000110
 49
-0.000110
  0
LTYPE
  2
DOT
 70
    64
  3
...............................................
 72
    65
 73
     2
 40
0.000110
 49
0.000000
 49
-0.000110
  0
LTYPE
  2
DASHDOT
 70
    64
  3
__ . __ . __ . __ . __ . __ . __ . __ . __ . __
 72
    65
 73
     4
 40
0.000440
 49
0.000220
 49
-0.000110
 49
0.000000
 49
-0.000110
  0
LTYPE
  2
BORDER
 70
    64
  3
__ __ . __ __ . __ __ . __ __ . __ __ . __ __
 72
    65
 73
     6
 40
0.000770
 49
0.000220
 49
-0.000110
 49
0.000220
 49
-0.000110
 49
0.000000
 49
-0.000110
  0
LTYPE
  2
DIVIDE
 70
    64
  3
__ . . __ . . __ . . __ . . __ . . __ . . __
 72
    65
 73
     6
 40
0.000550
 49
0.000220
 49
-0.000110
 49
0.000000
 49
-0.000110
 49
0.000000
 49
-0.000110
  0
LTYPE
  2
DOTDOT
 70
    64
  3
 . .  . .  . .  . .  . .  . . 
 72
    65
 73
     5
 40
0.000242
 49
-0.000110
 49
0.000000
 49
-0.000110
 49
0.000000
 49
-0.000110
  0
ENDTAB
  0
TABLE
  2
STYLE
 70
     2
  0
STYLE
 70
     0
  2
SN0
 40
0.000000
 41
0.000440
 50
0.000000
 71
     0
 42
0.000000
  3
ROMAND
  0
STYLE
 70
    68
  2
SV0
 40
0.000000
 41
0.000440
 50
0.000000
 71
     0
 42
0.000000
  3
ROMAND
  0
ENDTAB
  0
TABLE
  2
LAYER
 70
     3
  0
LAYER
  2
FOREGROUND
 70
    64
 62
     7
  6
CONTINUOUS
  0
LAYER
  2
BACKGROUND
 70
    65
 62
    -7
  6
CONTINUOUS
  0
LAYER
  2
0
 70
    64
 62
     7
  6
CONTINUOUS
  0
ENDTAB
  0
ENDSEC
  0
SECTION
  2
ENTITIES
  0
POLYLINE
  8
FOREGROUND
  6
CONTINUOUS
 66
     1
 40
0.000000
 41
0.000000
  0
VERTEX
  8
FOREGROUND
  6
CONTINUOUS
 10
0.000000
 20
4.007960
  0
VERTEX
  8
FOREGROUND
  6
CONTINUOUS
 10
8.499920
 20
4.007960
  0
VERTEX
  8
FOREGROUND
  6
CONTINUOUS
 10
8.499920
 20
-6.992040
  0
VERTEX
  8
FOREGROUND
  6
CONTINUOUS
 10
0.000000
 20
-6.992040
  0
VERTEX
  8
FOREGROUND
  6
CONTINUOUS
 10
0.000000
 20
4.007960
  0
SEQEND
  8
0
  0
POLYLINE
  8
FOREGROUND
  6
CONTINUOUS
 66
     1
 40
0.000000
 41
0.000000
  0
VERTEX
  8
FOREGROUND
  6
CONTINUOUS
 10
0.000000
 20
4.007960
  0
VERTEX
  8
FOREGROUND
  6
CONTINUOUS
 10
8.499920
 20
4.007960
  0
VERTEX
  8
FOREGROUND
  6
CONTINUOUS
 10
8.499920
 20
-6.992040
  0
VERTEX
  8
FOREGROUND
  6
CONTINUOUS
 10
0.000000
 20
-6.992040
  0
VERTEX
  8
FOREGROUND
  6
CONTINUOUS
 10
0.000000
 20
4.007960
  0
SEQEND
  8
0
  0
POLYLINE
  8
0
  6
CONTINUOUS
 66
     1
 40
0.014080
 41
0.014080
  0
VERTEX
  8
0
  6
CONTINUOUS
 10
6.540160
 20
3.396360
  0
VERTEX
  8
0
  6
CONTINUOUS
 10
6.650600
 20
3.237520
  0
VERTEX
  8
0
  6
CONTINUOUS
 10
6.650600
 20
3.127080
  0
VERTEX
  8
0
  6
CONTINUOUS
 10
6.887760
 20
3.108160
  0
VERTEX
  8
0
  6
CONTINUOUS
 10
6.893480
 20
3.108160
  0
VERTEX
  8
0
  6
CONTINUOUS
 10
6.893480
 20
2.884200
  0
VERTEX
  8
0
  6
CONTINUOUS
 10
6.889080
 20
2.881560
  0
VERTEX
  8
0
  6
CONTINUOUS
 10
6.634760
 20
2.861760
  0
VERTEX
  8
0
  6
CONTINUOUS
 10
6.632120
 20
2.861760
  0
VERTEX
  8
0
  6
CONTINUOUS
 10
6.632120
 20
2.629880
  0
VERTEX
  8
0
  6
CONTINUOUS
 10
3.849120
 20
2.629880
  0
VERTEX
  8
0
  6
CONTINUOUS
 10
3.849120
 20
2.859120
  0
VERTEX
  8
0
  6
CONTINUOUS
 10
3.847800
 20
2.859120
  0
VERTEX
  8
0
  6
CONTINUOUS
 10
4.081440
 20
2.876280
  0
VERTEX
  8
0
  6
CONTINUOUS
 10
4.081440
 20
3.116520
  0
VERTEX
  8
0
  6
CONTINUOUS
 10
3.837240
 20
3.135000
  0
VERTEX
  8
0
  6
CONTINUOUS
 10
3.834600
 20
3.135000
  0
VERTEX
  8
0
  6
CONTINUOUS
 10
3.834600
 20
3.234880
  0
VERTEX
  8
0
  6
CONTINUOUS
 10
3.937120
 20
3.400320
  0
VERTEX
  8
0
  6
CONTINUOUS
 10
3.940200
 20
3.400320
  0
VERTEX
  8
0
  6
CONTINUOUS
 10
6.534440
 20
3.400320
  0
VERTEX
  8
0
  6
CONTINUOUS
 10
6.540160
 20
3.396360
  0
SEQEND
  8
0
  0
SOLID
  8
0
 62
    15
 10
7.202360
 20
1.073160
 11
7.206760
 21
1.823800
 12
7.202360
 22
0.841280
 13
7.206760
 23
1.591480
  0
POLYLINE
  8
0
  6
CONTINUOUS
 66
     1
 40
0.000000
 41
0.000000
  0
VERTEX
  8
0
  6
CONTINUOUS
 10
7.202360
 20
1.073160
  0
VERTEX
  8
0
  6
CONTINUOUS
 10
7.206760
 20
1.823800
  0
VERTEX
  8
0
  6
CONTINUOUS
 10
7.206760
 20
1.591480
  0
VERTEX
  8
0
  6
CONTINUOUS
 10
7.202360
 20
0.841280
  0
VERTEX
  8
0
  6
CONTINUOUS
 10
7.202360
 20
1.073160
  0
SEQEND
  8
0
  0
SOLID
  8
0
 62
    15
 10
7.221280
 20
1.338480
 11
7.225240
 21
2.089120
 12
7.458440
 22
1.320000
 13
7.462400
 23
2.070200
  0
POLYLINE
  8
0
  6
CONTINUOUS
 66
     1
 40
0.000000
 41
0.000000
  0
VERTEX
  8
0
  6
CONTINUOUS
 10
7.221280
 20
1.338480
  0
VERTEX
  8
0
  6
CONTINUOUS
 10
7.225240
 20
2.089120
  0
VERTEX
  8
0
  6
CONTINUOUS
 10
7.462400
 20
2.070200
  0
VERTEX
  8
0
  6
CONTINUOUS
 10
7.458440
 20
1.320000
  0
VERTEX
  8
0
  6
CONTINUOUS
 10
7.221280
 20
1.338480
  0
SEQEND
  8
0
  0
SOLID
  8
0
 62
    15
 10
7.221280
 20
1.449360
 11
7.225240
 21
2.199560
 12
7.221280
 22
1.338480
 13
7.225240
 23
2.089120
  0
POLYLINE
  8
0
  6
CONTINUOUS
 66
     1
 40
0.000000
 41
0.000000
  0
VERTEX
  8
0
  6
CONTINUOUS
 10
7.221280
 20
1.449360
  0
VERTEX
  8
0
  6
CONTINUOUS
 10
7.225240
 20
2.199560
  0
VERTEX
  8
0
  6
CONTINUOUS
 10
7.225240
 20
2.089120
  0
VERTEX
  8
0
  6
CONTINUOUS
 10
7.221280
 20
1.338480
  0
VERTEX
  8
0
  6
CONTINUOUS
 10
7.221280
 20
1.449360
  0
SEQEND
  8
0
  0
SOLID
  8
0
 62
    15
 10
7.220840
 20
1.449360
 11
7.225240
 21
2.199560
 12
7.220840
 22
1.449360
 13
7.221280
 23
1.449360
  0
POLYLINE
  8
0
  6
CONTINUOUS
 66
     1
 40
0.000000
 41
0.000000
  0
VERTEX
  8
0
  6
CONTINUOUS
 10
7.220840
 20
1.449360
  0
VERTEX
  8
0
  6
CONTINUOUS
 10
7.225240
 20
2.199560
  0
VERTEX
  8
0
  6
CONTINUOUS
 10
7.221280
 20
1.449360
  0
VERTEX
  8
0
  6
CONTINUOUS
 10
7.220840
 20
1.449360
  0
SEQEND
  8
0
  0
SOLID
  8
0
 62
    15
 10
7.463720
 20
1.320000
 11
7.468120
 21
2.070200
 12
7.463720
 22
1.096040
 13
7.468120
 23
1.846240
  0
POLYLINE
  8
0
  6
CONTINUOUS
 66
     1
 40
0.000000
 41
0.000000
  0
VERTEX
  8
0
  6
CONTINUOUS
 10
7.463720
 20
1.320000
  0
VERTEX
  8
0
  6
CONTINUOUS
 10
7.468120
 20
2.070200
  0
VERTEX
  8
0
  6
CONTINUOUS
 10
7.468120
 20
1.846240
  0
VERTEX
  8
0
  6
CONTINUOUS
 10
7.463720
 20
1.096040
  0
VERTEX
  8
0
  6
CONTINUOUS
 10
7.463720
 20
1.320000
  0
SEQEND
  8
0
  0
SOLID
  8
0
 62
    15
 10
7.458440
 20
1.320000
 11
7.462400
 21
2.070200
 12
7.463720
 22
1.320000
 13
7.468120
 23
2.070200
  0
POLYLINE
  8
0
  6
CONTINUOUS
 66
     1
 40
0.000000
 41
0.000000
  0
VERTEX
  8
0
  6
CONTINUOUS
 10
7.458440
 20
1.320000
  0
VERTEX
  8
0
  6
CONTINUOUS
 10
7.462400
 20
2.070200
  0
VERTEX
  8
0
  6
CONTINUOUS
 10
7.468120
 20
2.070200
  0
VERTEX
  8
0
  6
CONTINUOUS
 10
7.463720
 20
1.320000
  0
VERTEX
  8
0
  6
CONTINUOUS
 10
7.458440
 20
1.320000
  0
SEQEND
  8
0
  0
SOLID
  8
0
 62
    15
 10
7.110400
 20
1.607760
 11
7.114800
 21
2.358400
 12
7.220840
 22
1.449360
 13
7.225240
 23
2.199560
  0
POLYLINE
  8
0
  6
CONTINUOUS
 66
     1
 40
0.000000
 41
0.000000
  0
VERTEX
  8
0
  6
CONTINUOUS
 10
7.110400
 20
1.607760
  0
VERTEX
  8
0
  6
CONTINUOUS
 10
7.114800
 20
2.358400
  0
VERTEX
  8
0
  6
CONTINUOUS
 10
7.225240
 20
2.199560
  0
VERTEX
  8
0
  6
CONTINUOUS
 10
7.220840
 20
1.449360
  0
VERTEX
  8
0
  6
CONTINUOUS
 10
7.110400
 20
1.607760
  0
SEQEND
  8
0
  0
SOLID
  8
0
 62
    15
 10
4.418480
 20
1.070520
 11
4.422440
 21
1.820720
 12
4.651680
 22
1.087680
 13
4.656080
 23
1.838320
  0
POLYLINE
  8
0
  6
CONTINUOUS
 66
     1
 40
0.000000
 41
0.000000
  0
VERTEX
  8
0
  6
CONTINUOUS
 10
4.418480
 20
1.070520
  0
VERTEX
  8
0
  6
CONTINUOUS
 10
4.422440
 20
1.820720
  0
VERTEX
  8
0
  6
CONTINUOUS
 10
4.656080
 20
1.838320
  0
VERTEX
  8
0
  6
CONTINUOUS
 10
4.651680
 20
1.087680
  0
VERTEX
  8
0
  6
CONTINUOUS
 10
4.418480
 20
1.070520
  0
SEQEND
  8
0
  0
POLYLINE
  8
0
  6
CONTINUOUS
 66
     1
 40
0.000000
 41
0.000000
  0
VERTEX
  8
0
  6
CONTINUOUS
 10
4.405280
 20
1.446720
  0
VERTEX
  8
0
  6
CONTINUOUS
 10
4.409240
 20
2.196920
  0
VERTEX
  8
0
  6
CONTINUOUS
 10
4.405280
 20
1.446720
  0
SEQEND
  8
0
  0
SOLID
  8
0
 62
    15
 10
4.405280
 20
1.446720
 11
4.409240
 21
2.196920
 12
4.507800
 22
1.611720
 13
4.511760
 23
2.362360
  0
POLYLINE
  8
0
  6
CONTINUOUS
 66
     1
 40
0.000000
 41
0.000000
  0
VERTEX
  8
0
  6
CONTINUOUS
 10
4.405280
 20
1.446720
  0
VERTEX
  8
0
  6
CONTINUOUS
 10
4.409240
 20
2.196920
  0
VERTEX
  8
0
  6
CONTINUOUS
 10
4.511760
 20
2.362360
  0
VERTEX
  8
0
  6
CONTINUOUS
 10
4.507800
 20
1.611720
  0
VERTEX
  8
0
  6
CONTINUOUS
 10
4.405280
 20
1.446720
  0
SEQEND
  8
0
  0
SOLID
  8
0
 62
    15
 10
4.507800
 20
1.611720
 11
4.511760
 21
2.362360
 12
7.105120
 22
1.611720
 13
7.109080
 23
2.362360
  0
POLYLINE
  8
0
  6
CONTINUOUS
 66
     1
 40
0.000000
 41
0.000000
  0
VERTEX
  8
0
  6
CONTINUOUS
 10
4.507800
 20
1.611720
  0
VERTEX
  8
0
  6
CONTINUOUS
 10
4.511760
 20
2.362360
  0
VERTEX
  8
0
  6
CONTINUOUS
 10
7.109080
 20
2.362360
  0
VERTEX
  8
0
  6
CONTINUOUS
 10
7.105120
 20
1.611720
  0
VERTEX
  8
0
  6
CONTINUOUS
 10
4.507800
 20
1.611720
  0
SEQEND
  8
0
  0
SOLID
  8
0
 62
    15
 10
7.105120
 20
1.611720
 11
7.109080
 21
2.362360
 12
7.110400
 22
1.607760
 13
7.114800
 23
2.358400
  0
POLYLINE
  8
0
  6
CONTINUOUS
 66
     1
 40
0.000000
 41
0.000000
  0
VERTEX
  8
0
  6
CONTINUOUS
 10
7.105120
 20
1.611720
  0
VERTEX
  8
0
  6
CONTINUOUS
 10
7.109080
 20
2.362360
  0
VERTEX
  8
0
  6
CONTINUOUS
 10
7.114800
 20
2.358400
  0
VERTEX
  8
0
  6
CONTINUOUS
 10
7.110400
 20
1.607760
  0
VERTEX
  8
0
  6
CONTINUOUS
 10
7.105120
 20
1.611720
  0
SEQEND
  8
0
  0
POLYLINE
  8
0
  6
CONTINUOUS
 66
     1
 40
0.000000
 41
0.000000
  0
VERTEX
  8
0
  6
CONTINUOUS
 10
7.110400
 20
1.607760
  0
VERTEX
  8
0
  6
CONTINUOUS
 10
7.220840
 20
1.449360
  0
VERTEX
  8
0
  6
CONTINUOUS
 10
7.221280
 20
1.449360
  0
VERTEX
  8
0
  6
CONTINUOUS
 10
7.221280
 20
1.338480
  0
VERTEX
  8
0
  6
CONTINUOUS
 10
7.458440
 20
1.320000
  0
VERTEX
  8
0
  6
CONTINUOUS
 10
7.463720
 20
1.320000
  0
VERTEX
  8
0
  6
CONTINUOUS
 10
7.463720
 20
1.096040
  0
VERTEX
  8
0
  6
CONTINUOUS
 10
7.459760
 20
1.093400
  0
VERTEX
  8
0
  6
CONTINUOUS
 10
7.205000
 20
1.073160
  0
VERTEX
  8
0
  6
CONTINUOUS
 10
7.202360
 20
1.073160
  0
VERTEX
  8
0
  6
CONTINUOUS
 10
7.202360
 20
0.841280
  0
VERTEX
  8
0
  6
CONTINUOUS
 10
4.419800
 20
0.841280
  0
VERTEX
  8
0
  6
CONTINUOUS
 10
4.419800
 20
1.070520
  0
VERTEX
  8
0
  6
CONTINUOUS
 10
4.418480
 20
1.070520
  0
VERTEX
  8
0
  6
CONTINUOUS
 10
4.651680
 20
1.087680
  0
VERTEX
  8
0
  6
CONTINUOUS
 10
4.651680
 20
1.327920
  0
VERTEX
  8
0
  6
CONTINUOUS
 10
4.407920
 20
1.346400
  0
VERTEX
  8
0
  6
CONTINUOUS
 10
4.405280
 20
1.346400
  0
VERTEX
  8
0
  6
CONTINUOUS
 10
4.405280
 20
1.446720
  0
VERTEX
  8
0
  6
CONTINUOUS
 10
4.507800
 20
1.611720
  0
VERTEX
  8
0
  6
CONTINUOUS
 10
7.105120
 20
1.611720
  0
VERTEX
  8
0
  6
CONTINUOUS
 10
7.110400
 20
1.607760
  0
SEQEND
  8
0
  0
TEXT
  8
0
 10
5.642120
 20
0.611160
 40
0.138120
  1
BA  238
 41
1.000000
  7
SN0
 71
     0
 72
     5
 11
6.231645
 21
0.611160
  0
TEXT
  8
0
 10
5.629360
 20
0.419760
 40
0.138120
  1
3/4" x 3"
 41
1.000000
  7
SN0
 71
     0
 72
     5
 11
6.243502
 21
0.419760
  0
TEXT
  8
0
 10
7.295200
 20
3.479960
 40
0.138120
  1
panel/floor
 41
1.000000
  7
SN0
 71
     0
 72
     5
 11
8.067864
 21
3.479960
  0
TEXT
  8
0
 10
7.544240
 20
3.288560
 40
0.138120
  1
238
 41
1.000000
  7
SN0
 71
     0
 72
     5
 11
7.820964
 21
3.288560
  0
ENDSEC
  0
EOF
