  0
SECTION
  2
HEADER
  9
$ACADVER
  1
AC1006
  9
$EXTMIN
 10
4.029960
 20
0.419760
  9
$EXTMAX
 10
8.054640
 20
2.856040
  9
$LTSCALE
 40
0.044000
  9
$PDMODE
 70
    35
  9
$PDSIZE
 40
0.035200
  0
ENDSEC
  0
SECTION
  2
TABLES
  0
TABLE
  2
LTYPE
 70
     9
  0
LTYPE
  2
CONTINUOUS
 70
    64
  3
Solid line
 72
    65
 73
     0
 40
0.000000
  0
LTYPE
  2
DASHED
 70
    64
  3
__ __ __ __ __ __ __ __ __ __ __ __ __ __ __
 72
    65
 73
     2
 40
0.000330
 49
0.000220
 49
-0.000110
  0
LTYPE
  2
HIDDEN
 70
    64
  3
 _ _ _ _ _ _ _ _ _ _ _ _ _ _ _ _ _ _ _ _ _ _
 72
    65
 73
     2
 40
0.000165
 49
0.000110
 49
-0.000055
  0
LTYPE
  2
CENTER
 70
    64
  3
____ _ ____ _ ____ _ ____ _ ____ _ ____ _ ____
 72
    65
 73
     4
 40
0.000880
 49
0.000550
 49
-0.000110
 49
0.000110
 49
-0.000110
  0
LTYPE
  2
PHANTOM
 70
    64
  3
_____ _ _ _____ _ _ _____ _ _ _____ _ _ ____
 72
    65
 73
     6
 40
0.001100
 49
0.000550
 49
-0.000110
 49
0.000110
 49
-0.000110
 49
0.000110
 49
-0.000110
  0
LTYPE
  2
DOT
 70
    64
  3
...............................................
 72
    65
 73
     2
 40
0.000110
 49
0.000000
 49
-0.000110
  0
LTYPE
  2
DASHDOT
 70
    64
  3
__ . __ . __ . __ . __ . __ . __ . __ . __ . __
 72
    65
 73
     4
 40
0.000440
 49
0.000220
 49
-0.000110
 49
0.000000
 49
-0.000110
  0
LTYPE
  2
BORDER
 70
    64
  3
__ __ . __ __ . __ __ . __ __ . __ __ . __ __
 72
    65
 73
     6
 40
0.000770
 49
0.000220
 49
-0.000110
 49
0.000220
 49
-0.000110
 49
0.000000
 49
-0.000110
  0
LTYPE
  2
DIVIDE
 70
    64
  3
__ . . __ . . __ . . __ . . __ . . __ . . __
 72
    65
 73
     6
 40
0.000550
 49
0.000220
 49
-0.000110
 49
0.000000
 49
-0.000110
 49
0.000000
 49
-0.000110
  0
LTYPE
  2
DOTDOT
 70
    64
  3
 . .  . .  . .  . .  . .  . . 
 72
    65
 73
     5
 40
0.000242
 49
-0.000110
 49
0.000000
 49
-0.000110
 49
0.000000
 49
-0.000110
  0
ENDTAB
  0
TABLE
  2
STYLE
 70
     2
  0
STYLE
 70
     0
  2
SN0
 40
0.000000
 41
0.000440
 50
0.000000
 71
     0
 42
0.000000
  3
ROMAND
  0
STYLE
 70
    68
  2
SV0
 40
0.000000
 41
0.000440
 50
0.000000
 71
     0
 42
0.000000
  3
ROMAND
  0
ENDTAB
  0
TABLE
  2
LAYER
 70
     3
  0
LAYER
  2
FOREGROUND
 70
    64
 62
     7
  6
CONTINUOUS
  0
LAYER
  2
BACKGROUND
 70
    65
 62
    -7
  6
CONTINUOUS
  0
LAYER
  2
0
 70
    64
 62
     7
  6
CONTINUOUS
  0
ENDTAB
  0
ENDSEC
  0
SECTION
  2
ENTITIES
  0
POLYLINE
  8
FOREGROUND
  6
CONTINUOUS
 66
     1
 40
0.000000
 41
0.000000
  0
VERTEX
  8
FOREGROUND
  6
CONTINUOUS
 10
0.000000
 20
3.275800
  0
VERTEX
  8
FOREGROUND
  6
CONTINUOUS
 10
8.499920
 20
3.275800
  0
VERTEX
  8
FOREGROUND
  6
CONTINUOUS
 10
8.499920
 20
-7.724200
  0
VERTEX
  8
FOREGROUND
  6
CONTINUOUS
 10
0.000000
 20
-7.724200
  0
VERTEX
  8
FOREGROUND
  6
CONTINUOUS
 10
0.000000
 20
3.275800
  0
SEQEND
  8
0
  0
POLYLINE
  8
FOREGROUND
  6
CONTINUOUS
 66
     1
 40
0.000000
 41
0.000000
  0
VERTEX
  8
FOREGROUND
  6
CONTINUOUS
 10
0.000000
 20
3.275800
  0
VERTEX
  8
FOREGROUND
  6
CONTINUOUS
 10
8.499920
 20
3.275800
  0
VERTEX
  8
FOREGROUND
  6
CONTINUOUS
 10
8.499920
 20
-7.724200
  0
VERTEX
  8
FOREGROUND
  6
CONTINUOUS
 10
0.000000
 20
-7.724200
  0
VERTEX
  8
FOREGROUND
  6
CONTINUOUS
 10
0.000000
 20
3.275800
  0
SEQEND
  8
0
  0
POLYLINE
  8
0
  6
CONTINUOUS
 66
     1
 40
0.014080
 41
0.014080
  0
VERTEX
  8
0
  6
CONTINUOUS
 10
6.926920
 20
1.667160
  0
VERTEX
  8
0
  6
CONTINUOUS
 10
6.926920
 20
1.261480
  0
VERTEX
  8
0
  6
CONTINUOUS
 10
6.161320
 20
1.261480
  0
VERTEX
  8
0
  6
CONTINUOUS
 10
6.161320
 20
2.761440
  0
VERTEX
  8
0
  6
CONTINUOUS
 10
6.325440
 20
2.761440
  0
VERTEX
  8
0
  6
CONTINUOUS
 10
6.475920
 20
2.520320
  0
VERTEX
  8
0
  6
CONTINUOUS
 10
6.461840
 20
2.504480
  0
VERTEX
  8
0
  6
CONTINUOUS
 10
6.445120
 20
2.478080
  0
VERTEX
  8
0
  6
CONTINUOUS
 10
6.435000
 20
2.452560
  0
VERTEX
  8
0
  6
CONTINUOUS
 10
6.431920
 20
2.428360
  0
VERTEX
  8
0
  6
CONTINUOUS
 10
6.434120
 20
2.404600
  0
VERTEX
  8
0
  6
CONTINUOUS
 10
6.441160
 20
2.381720
  0
VERTEX
  8
0
  6
CONTINUOUS
 10
6.452600
 20
2.359720
  0
VERTEX
  8
0
  6
CONTINUOUS
 10
6.476360
 20
2.328040
  0
VERTEX
  8
0
  6
CONTINUOUS
 10
6.515520
 20
2.289320
  0
VERTEX
  8
0
  6
CONTINUOUS
 10
6.633440
 20
2.193840
  0
VERTEX
  8
0
  6
CONTINUOUS
 10
6.671720
 20
2.176240
  0
VERTEX
  8
0
  6
CONTINUOUS
 10
6.732440
 20
2.139720
  0
VERTEX
  8
0
  6
CONTINUOUS
 10
6.779520
 20
2.104520
  0
VERTEX
  8
0
  6
CONTINUOUS
 10
6.824400
 20
2.064920
  0
VERTEX
  8
0
  6
CONTINUOUS
 10
6.863560
 20
2.022240
  0
VERTEX
  8
0
  6
CONTINUOUS
 10
6.884680
 20
1.992760
  0
VERTEX
  8
0
  6
CONTINUOUS
 10
6.900520
 20
1.963280
  0
VERTEX
  8
0
  6
CONTINUOUS
 10
6.909760
 20
1.934680
  0
VERTEX
  8
0
  6
CONTINUOUS
 10
6.911520
 20
1.920600
  0
VERTEX
  8
0
  6
CONTINUOUS
 10
6.911520
 20
1.906520
  0
VERTEX
  8
0
  6
CONTINUOUS
 10
6.909320
 20
1.892880
  0
VERTEX
  8
0
  6
CONTINUOUS
 10
6.901840
 20
1.873520
  0
VERTEX
  8
0
  6
CONTINUOUS
 10
6.888640
 20
1.855480
  0
VERTEX
  8
0
  6
CONTINUOUS
 10
6.869280
 20
1.838320
  0
VERTEX
  8
0
  6
CONTINUOUS
 10
6.843760
 20
1.822920
  0
VERTEX
  8
0
  6
CONTINUOUS
 10
6.822640
 20
1.813680
  0
VERTEX
  8
0
  6
CONTINUOUS
 10
6.791400
 20
1.790360
  0
VERTEX
  8
0
  6
CONTINUOUS
 10
6.777760
 20
1.776280
  0
VERTEX
  8
0
  6
CONTINUOUS
 10
6.769840
 20
1.763520
  0
VERTEX
  8
0
  6
CONTINUOUS
 10
6.766760
 20
1.751200
  0
VERTEX
  8
0
  6
CONTINUOUS
 10
6.768080
 20
1.740200
  0
VERTEX
  8
0
  6
CONTINUOUS
 10
6.777320
 20
1.725240
  0
VERTEX
  8
0
  6
CONTINUOUS
 10
6.793600
 20
1.712480
  0
VERTEX
  8
0
  6
CONTINUOUS
 10
6.815160
 20
1.701040
  0
VERTEX
  8
0
  6
CONTINUOUS
 10
6.867520
 20
1.683880
  0
VERTEX
  8
0
  6
CONTINUOUS
 10
6.920320
 20
1.672440
  0
VERTEX
  8
0
  6
CONTINUOUS
 10
6.926920
 20
1.667160
  0
SEQEND
  8
0
  0
SOLID
  8
0
 62
    15
 10
4.617360
 20
1.763960
 11
5.254480
 21
2.134440
 12
4.679400
 22
1.714240
 13
5.316080
 23
2.084280
  0
POLYLINE
  8
0
  6
CONTINUOUS
 66
     1
 40
0.000000
 41
0.000000
  0
VERTEX
  8
0
  6
CONTINUOUS
 10
4.617360
 20
1.763960
  0
VERTEX
  8
0
  6
CONTINUOUS
 10
5.254480
 20
2.134440
  0
VERTEX
  8
0
  6
CONTINUOUS
 10
5.316080
 20
2.084280
  0
VERTEX
  8
0
  6
CONTINUOUS
 10
4.679400
 20
1.714240
  0
VERTEX
  8
0
  6
CONTINUOUS
 10
4.617360
 20
1.763960
  0
SEQEND
  8
0
  0
SOLID
  8
0
 62
    15
 10
4.030840
 20
2.397120
 11
4.667960
 21
2.767600
 12
4.194960
 22
2.397120
 13
4.831640
 23
2.767600
  0
POLYLINE
  8
0
  6
CONTINUOUS
 66
     1
 40
0.000000
 41
0.000000
  0
VERTEX
  8
0
  6
CONTINUOUS
 10
4.030840
 20
2.397120
  0
VERTEX
  8
0
  6
CONTINUOUS
 10
4.667960
 20
2.767600
  0
VERTEX
  8
0
  6
CONTINUOUS
 10
4.831640
 20
2.767600
  0
VERTEX
  8
0
  6
CONTINUOUS
 10
4.194960
 20
2.397120
  0
VERTEX
  8
0
  6
CONTINUOUS
 10
4.030840
 20
2.397120
  0
SEQEND
  8
0
  0
SOLID
  8
0
 62
    15
 10
4.194960
 20
2.397120
 11
4.831640
 21
2.767600
 12
4.345440
 22
2.156000
 13
4.982560
 23
2.526040
  0
POLYLINE
  8
0
  6
CONTINUOUS
 66
     1
 40
0.000000
 41
0.000000
  0
VERTEX
  8
0
  6
CONTINUOUS
 10
4.194960
 20
2.397120
  0
VERTEX
  8
0
  6
CONTINUOUS
 10
4.831640
 20
2.767600
  0
VERTEX
  8
0
  6
CONTINUOUS
 10
4.982560
 20
2.526040
  0
VERTEX
  8
0
  6
CONTINUOUS
 10
4.345440
 20
2.156000
  0
VERTEX
  8
0
  6
CONTINUOUS
 10
4.194960
 20
2.397120
  0
SEQEND
  8
0
  0
SOLID
  8
0
 62
    15
 10
4.345440
 20
2.156000
 11
4.982560
 21
2.526040
 12
4.342800
 22
2.153360
 13
4.979920
 23
2.523400
  0
POLYLINE
  8
0
  6
CONTINUOUS
 66
     1
 40
0.000000
 41
0.000000
  0
VERTEX
  8
0
  6
CONTINUOUS
 10
4.345440
 20
2.156000
  0
VERTEX
  8
0
  6
CONTINUOUS
 10
4.982560
 20
2.526040
  0
VERTEX
  8
0
  6
CONTINUOUS
 10
4.979920
 20
2.523400
  0
VERTEX
  8
0
  6
CONTINUOUS
 10
4.342800
 20
2.153360
  0
VERTEX
  8
0
  6
CONTINUOUS
 10
4.345440
 20
2.156000
  0
SEQEND
  8
0
  0
SOLID
  8
0
 62
    15
 10
4.342800
 20
2.153360
 11
4.979920
 21
2.523400
 12
4.322120
 22
2.126520
 13
4.958800
 23
2.497000
  0
POLYLINE
  8
0
  6
CONTINUOUS
 66
     1
 40
0.000000
 41
0.000000
  0
VERTEX
  8
0
  6
CONTINUOUS
 10
4.342800
 20
2.153360
  0
VERTEX
  8
0
  6
CONTINUOUS
 10
4.979920
 20
2.523400
  0
VERTEX
  8
0
  6
CONTINUOUS
 10
4.958800
 20
2.497000
  0
VERTEX
  8
0
  6
CONTINUOUS
 10
4.322120
 20
2.126520
  0
VERTEX
  8
0
  6
CONTINUOUS
 10
4.342800
 20
2.153360
  0
SEQEND
  8
0
  0
SOLID
  8
0
 62
    15
 10
4.322120
 20
2.126520
 11
4.958800
 21
2.497000
 12
4.308920
 22
2.101000
 13
4.945600
 23
2.471040
  0
POLYLINE
  8
0
  6
CONTINUOUS
 66
     1
 40
0.000000
 41
0.000000
  0
VERTEX
  8
0
  6
CONTINUOUS
 10
4.322120
 20
2.126520
  0
VERTEX
  8
0
  6
CONTINUOUS
 10
4.958800
 20
2.497000
  0
VERTEX
  8
0
  6
CONTINUOUS
 10
4.945600
 20
2.471040
  0
VERTEX
  8
0
  6
CONTINUOUS
 10
4.308920
 20
2.101000
  0
VERTEX
  8
0
  6
CONTINUOUS
 10
4.322120
 20
2.126520
  0
SEQEND
  8
0
  0
SOLID
  8
0
 62
    15
 10
4.308920
 20
2.101000
 11
4.945600
 21
2.471040
 12
4.302320
 22
2.075920
 13
4.939440
 23
2.445960
  0
POLYLINE
  8
0
  6
CONTINUOUS
 66
     1
 40
0.000000
 41
0.000000
  0
VERTEX
  8
0
  6
CONTINUOUS
 10
4.308920
 20
2.101000
  0
VERTEX
  8
0
  6
CONTINUOUS
 10
4.945600
 20
2.471040
  0
VERTEX
  8
0
  6
CONTINUOUS
 10
4.939440
 20
2.445960
  0
VERTEX
  8
0
  6
CONTINUOUS
 10
4.302320
 20
2.075920
  0
VERTEX
  8
0
  6
CONTINUOUS
 10
4.308920
 20
2.101000
  0
SEQEND
  8
0
  0
SOLID
  8
0
 62
    15
 10
4.302320
 20
2.075920
 11
4.939440
 21
2.445960
 12
4.301880
 22
2.051720
 13
4.938560
 23
2.422200
  0
POLYLINE
  8
0
  6
CONTINUOUS
 66
     1
 40
0.000000
 41
0.000000
  0
VERTEX
  8
0
  6
CONTINUOUS
 10
4.302320
 20
2.075920
  0
VERTEX
  8
0
  6
CONTINUOUS
 10
4.939440
 20
2.445960
  0
VERTEX
  8
0
  6
CONTINUOUS
 10
4.938560
 20
2.422200
  0
VERTEX
  8
0
  6
CONTINUOUS
 10
4.301880
 20
2.051720
  0
VERTEX
  8
0
  6
CONTINUOUS
 10
4.302320
 20
2.075920
  0
SEQEND
  8
0
  0
SOLID
  8
0
 62
    15
 10
4.301880
 20
2.051720
 11
4.938560
 21
2.422200
 12
4.306720
 22
2.028400
 13
4.943840
 23
2.398880
  0
POLYLINE
  8
0
  6
CONTINUOUS
 66
     1
 40
0.000000
 41
0.000000
  0
VERTEX
  8
0
  6
CONTINUOUS
 10
4.301880
 20
2.051720
  0
VERTEX
  8
0
  6
CONTINUOUS
 10
4.938560
 20
2.422200
  0
VERTEX
  8
0
  6
CONTINUOUS
 10
4.943840
 20
2.398880
  0
VERTEX
  8
0
  6
CONTINUOUS
 10
4.306720
 20
2.028400
  0
VERTEX
  8
0
  6
CONTINUOUS
 10
4.301880
 20
2.051720
  0
SEQEND
  8
0
  0
SOLID
  8
0
 62
     7
 10
4.306720
 20
2.028400
 11
4.943840
 21
2.398880
 12
4.315960
 22
2.005960
 13
4.953080
 23
2.376440
  0
POLYLINE
  8
0
  6
CONTINUOUS
 66
     1
 40
0.000000
 41
0.000000
  0
VERTEX
  8
0
  6
CONTINUOUS
 10
4.306720
 20
2.028400
  0
VERTEX
  8
0
  6
CONTINUOUS
 10
4.943840
 20
2.398880
  0
VERTEX
  8
0
  6
CONTINUOUS
 10
4.953080
 20
2.376440
  0
VERTEX
  8
0
  6
CONTINUOUS
 10
4.315960
 20
2.005960
  0
VERTEX
  8
0
  6
CONTINUOUS
 10
4.306720
 20
2.028400
  0
SEQEND
  8
0
  0
SOLID
  8
0
 62
    15
 10
4.315960
 20
2.005960
 11
4.953080
 21
2.376440
 12
4.345880
 22
1.963720
 13
4.983000
 23
2.333760
  0
POLYLINE
  8
0
  6
CONTINUOUS
 66
     1
 40
0.000000
 41
0.000000
  0
VERTEX
  8
0
  6
CONTINUOUS
 10
4.315960
 20
2.005960
  0
VERTEX
  8
0
  6
CONTINUOUS
 10
4.953080
 20
2.376440
  0
VERTEX
  8
0
  6
CONTINUOUS
 10
4.983000
 20
2.333760
  0
VERTEX
  8
0
  6
CONTINUOUS
 10
4.345880
 20
1.963720
  0
VERTEX
  8
0
  6
CONTINUOUS
 10
4.315960
 20
2.005960
  0
SEQEND
  8
0
  0
SOLID
  8
0
 62
    15
 10
4.345880
 20
1.963720
 11
4.983000
 21
2.333760
 12
4.385040
 22
1.925000
 13
5.022160
 23
2.295040
  0
POLYLINE
  8
0
  6
CONTINUOUS
 66
     1
 40
0.000000
 41
0.000000
  0
VERTEX
  8
0
  6
CONTINUOUS
 10
4.345880
 20
1.963720
  0
VERTEX
  8
0
  6
CONTINUOUS
 10
4.983000
 20
2.333760
  0
VERTEX
  8
0
  6
CONTINUOUS
 10
5.022160
 20
2.295040
  0
VERTEX
  8
0
  6
CONTINUOUS
 10
4.385040
 20
1.925000
  0
VERTEX
  8
0
  6
CONTINUOUS
 10
4.345880
 20
1.963720
  0
SEQEND
  8
0
  0
SOLID
  8
0
 62
    15
 10
4.385040
 20
1.925000
 11
5.022160
 21
2.295040
 12
4.428160
 22
1.889360
 13
5.065280
 23
2.259840
  0
POLYLINE
  8
0
  6
CONTINUOUS
 66
     1
 40
0.000000
 41
0.000000
  0
VERTEX
  8
0
  6
CONTINUOUS
 10
4.385040
 20
1.925000
  0
VERTEX
  8
0
  6
CONTINUOUS
 10
5.022160
 20
2.295040
  0
VERTEX
  8
0
  6
CONTINUOUS
 10
5.065280
 20
2.259840
  0
VERTEX
  8
0
  6
CONTINUOUS
 10
4.428160
 20
1.889360
  0
VERTEX
  8
0
  6
CONTINUOUS
 10
4.385040
 20
1.925000
  0
SEQEND
  8
0
  0
SOLID
  8
0
 62
    15
 10
4.428160
 20
1.889360
 11
5.065280
 21
2.259840
 12
4.459400
 22
1.865160
 13
5.096520
 23
2.235200
  0
POLYLINE
  8
0
  6
CONTINUOUS
 66
     1
 40
0.000000
 41
0.000000
  0
VERTEX
  8
0
  6
CONTINUOUS
 10
4.428160
 20
1.889360
  0
VERTEX
  8
0
  6
CONTINUOUS
 10
5.065280
 20
2.259840
  0
VERTEX
  8
0
  6
CONTINUOUS
 10
5.096520
 20
2.235200
  0
VERTEX
  8
0
  6
CONTINUOUS
 10
4.459400
 20
1.865160
  0
VERTEX
  8
0
  6
CONTINUOUS
 10
4.428160
 20
1.889360
  0
SEQEND
  8
0
  0
SOLID
  8
0
 62
    15
 10
4.459400
 20
1.865160
 11
5.096520
 21
2.235200
 12
4.469520
 22
1.857680
 13
5.106200
 23
2.227720
  0
POLYLINE
  8
0
  6
CONTINUOUS
 66
     1
 40
0.000000
 41
0.000000
  0
VERTEX
  8
0
  6
CONTINUOUS
 10
4.459400
 20
1.865160
  0
VERTEX
  8
0
  6
CONTINUOUS
 10
5.096520
 20
2.235200
  0
VERTEX
  8
0
  6
CONTINUOUS
 10
5.106200
 20
2.227720
  0
VERTEX
  8
0
  6
CONTINUOUS
 10
4.469520
 20
1.857680
  0
VERTEX
  8
0
  6
CONTINUOUS
 10
4.459400
 20
1.865160
  0
SEQEND
  8
0
  0
SOLID
  8
0
 62
    15
 10
4.469520
 20
1.857680
 11
5.106200
 21
2.227720
 12
4.502520
 22
1.829080
 13
5.139640
 23
2.199560
  0
POLYLINE
  8
0
  6
CONTINUOUS
 66
     1
 40
0.000000
 41
0.000000
  0
VERTEX
  8
0
  6
CONTINUOUS
 10
4.469520
 20
1.857680
  0
VERTEX
  8
0
  6
CONTINUOUS
 10
5.106200
 20
2.227720
  0
VERTEX
  8
0
  6
CONTINUOUS
 10
5.139640
 20
2.199560
  0
VERTEX
  8
0
  6
CONTINUOUS
 10
4.502520
 20
1.829080
  0
VERTEX
  8
0
  6
CONTINUOUS
 10
4.469520
 20
1.857680
  0
SEQEND
  8
0
  0
SOLID
  8
0
 62
    15
 10
4.502520
 20
1.829080
 11
5.139640
 21
2.199560
 12
4.527600
 22
1.818520
 13
5.164720
 23
2.188560
  0
POLYLINE
  8
0
  6
CONTINUOUS
 66
     1
 40
0.000000
 41
0.000000
  0
VERTEX
  8
0
  6
CONTINUOUS
 10
4.502520
 20
1.829080
  0
VERTEX
  8
0
  6
CONTINUOUS
 10
5.139640
 20
2.199560
  0
VERTEX
  8
0
  6
CONTINUOUS
 10
5.164720
 20
2.188560
  0
VERTEX
  8
0
  6
CONTINUOUS
 10
4.527600
 20
1.818520
  0
VERTEX
  8
0
  6
CONTINUOUS
 10
4.502520
 20
1.829080
  0
SEQEND
  8
0
  0
SOLID
  8
0
 62
    15
 10
4.527600
 20
1.818520
 11
5.164720
 21
2.188560
 12
4.555760
 22
1.803560
 13
5.192440
 23
2.174040
  0
POLYLINE
  8
0
  6
CONTINUOUS
 66
     1
 40
0.000000
 41
0.000000
  0
VERTEX
  8
0
  6
CONTINUOUS
 10
4.527600
 20
1.818520
  0
VERTEX
  8
0
  6
CONTINUOUS
 10
5.164720
 20
2.188560
  0
VERTEX
  8
0
  6
CONTINUOUS
 10
5.192440
 20
2.174040
  0
VERTEX
  8
0
  6
CONTINUOUS
 10
4.555760
 20
1.803560
  0
VERTEX
  8
0
  6
CONTINUOUS
 10
4.527600
 20
1.818520
  0
SEQEND
  8
0
  0
SOLID
  8
0
 62
    15
 10
4.555760
 20
1.803560
 11
5.192440
 21
2.174040
 12
4.617360
 22
1.763960
 13
5.254480
 23
2.134440
  0
POLYLINE
  8
0
  6
CONTINUOUS
 66
     1
 40
0.000000
 41
0.000000
  0
VERTEX
  8
0
  6
CONTINUOUS
 10
4.555760
 20
1.803560
  0
VERTEX
  8
0
  6
CONTINUOUS
 10
5.192440
 20
2.174040
  0
VERTEX
  8
0
  6
CONTINUOUS
 10
5.254480
 20
2.134440
  0
VERTEX
  8
0
  6
CONTINUOUS
 10
4.617360
 20
1.763960
  0
VERTEX
  8
0
  6
CONTINUOUS
 10
4.555760
 20
1.803560
  0
SEQEND
  8
0
  0
SOLID
  8
0
 62
    15
 10
4.796000
 20
1.302400
 11
5.433120
 21
1.672880
 12
4.796000
 22
0.897160
 13
5.433120
 23
1.267640
  0
POLYLINE
  8
0
  6
CONTINUOUS
 66
     1
 40
0.000000
 41
0.000000
  0
VERTEX
  8
0
  6
CONTINUOUS
 10
4.796000
 20
1.302400
  0
VERTEX
  8
0
  6
CONTINUOUS
 10
5.433120
 20
1.672880
  0
VERTEX
  8
0
  6
CONTINUOUS
 10
5.433120
 20
1.267640
  0
VERTEX
  8
0
  6
CONTINUOUS
 10
4.796000
 20
0.897160
  0
VERTEX
  8
0
  6
CONTINUOUS
 10
4.796000
 20
1.302400
  0
SEQEND
  8
0
  0
SOLID
  8
0
 62
    15
 10
4.679400
 20
1.714240
 11
5.316080
 21
2.084280
 12
4.733080
 22
1.657480
 13
5.369760
 23
2.027960
  0
POLYLINE
  8
0
  6
CONTINUOUS
 66
     1
 40
0.000000
 41
0.000000
  0
VERTEX
  8
0
  6
CONTINUOUS
 10
4.679400
 20
1.714240
  0
VERTEX
  8
0
  6
CONTINUOUS
 10
5.316080
 20
2.084280
  0
VERTEX
  8
0
  6
CONTINUOUS
 10
5.369760
 20
2.027960
  0
VERTEX
  8
0
  6
CONTINUOUS
 10
4.733080
 20
1.657480
  0
VERTEX
  8
0
  6
CONTINUOUS
 10
4.679400
 20
1.714240
  0
SEQEND
  8
0
  0
SOLID
  8
0
 62
    15
 10
4.733080
 20
1.657480
 11
5.369760
 21
2.027960
 12
4.753760
 22
1.628440
 13
5.390880
 23
1.998480
  0
POLYLINE
  8
0
  6
CONTINUOUS
 66
     1
 40
0.000000
 41
0.000000
  0
VERTEX
  8
0
  6
CONTINUOUS
 10
4.733080
 20
1.657480
  0
VERTEX
  8
0
  6
CONTINUOUS
 10
5.369760
 20
2.027960
  0
VERTEX
  8
0
  6
CONTINUOUS
 10
5.390880
 20
1.998480
  0
VERTEX
  8
0
  6
CONTINUOUS
 10
4.753760
 20
1.628440
  0
VERTEX
  8
0
  6
CONTINUOUS
 10
4.733080
 20
1.657480
  0
SEQEND
  8
0
  0
SOLID
  8
0
 62
    15
 10
4.753760
 20
1.628440
 11
5.390880
 21
1.998480
 12
4.769600
 22
1.598960
 13
5.406720
 23
1.969440
  0
POLYLINE
  8
0
  6
CONTINUOUS
 66
     1
 40
0.000000
 41
0.000000
  0
VERTEX
  8
0
  6
CONTINUOUS
 10
4.753760
 20
1.628440
  0
VERTEX
  8
0
  6
CONTINUOUS
 10
5.390880
 20
1.998480
  0
VERTEX
  8
0
  6
CONTINUOUS
 10
5.406720
 20
1.969440
  0
VERTEX
  8
0
  6
CONTINUOUS
 10
4.769600
 20
1.598960
  0
VERTEX
  8
0
  6
CONTINUOUS
 10
4.753760
 20
1.628440
  0
SEQEND
  8
0
  0
SOLID
  8
0
 62
    15
 10
4.769600
 20
1.598960
 11
5.406720
 21
1.969440
 12
4.778840
 22
1.570360
 13
5.415960
 23
1.940400
  0
POLYLINE
  8
0
  6
CONTINUOUS
 66
     1
 40
0.000000
 41
0.000000
  0
VERTEX
  8
0
  6
CONTINUOUS
 10
4.769600
 20
1.598960
  0
VERTEX
  8
0
  6
CONTINUOUS
 10
5.406720
 20
1.969440
  0
VERTEX
  8
0
  6
CONTINUOUS
 10
5.415960
 20
1.940400
  0
VERTEX
  8
0
  6
CONTINUOUS
 10
4.778840
 20
1.570360
  0
VERTEX
  8
0
  6
CONTINUOUS
 10
4.769600
 20
1.598960
  0
SEQEND
  8
0
  0
SOLID
  8
0
 62
    15
 10
4.778840
 20
1.570360
 11
5.415960
 21
1.940400
 12
4.780600
 22
1.542200
 13
5.417720
 23
1.912240
  0
POLYLINE
  8
0
  6
CONTINUOUS
 66
     1
 40
0.000000
 41
0.000000
  0
VERTEX
  8
0
  6
CONTINUOUS
 10
4.778840
 20
1.570360
  0
VERTEX
  8
0
  6
CONTINUOUS
 10
5.415960
 20
1.940400
  0
VERTEX
  8
0
  6
CONTINUOUS
 10
5.417720
 20
1.912240
  0
VERTEX
  8
0
  6
CONTINUOUS
 10
4.780600
 20
1.542200
  0
VERTEX
  8
0
  6
CONTINUOUS
 10
4.778840
 20
1.570360
  0
SEQEND
  8
0
  0
SOLID
  8
0
 62
    15
 10
4.780600
 20
1.542200
 11
5.417720
 21
1.912240
 12
4.774000
 22
1.515360
 13
5.411120
 23
1.885840
  0
POLYLINE
  8
0
  6
CONTINUOUS
 66
     1
 40
0.000000
 41
0.000000
  0
VERTEX
  8
0
  6
CONTINUOUS
 10
4.780600
 20
1.542200
  0
VERTEX
  8
0
  6
CONTINUOUS
 10
5.417720
 20
1.912240
  0
VERTEX
  8
0
  6
CONTINUOUS
 10
5.411120
 20
1.885840
  0
VERTEX
  8
0
  6
CONTINUOUS
 10
4.774000
 20
1.515360
  0
VERTEX
  8
0
  6
CONTINUOUS
 10
4.780600
 20
1.542200
  0
SEQEND
  8
0
  0
SOLID
  8
0
 62
    15
 10
4.774000
 20
1.515360
 11
5.411120
 21
1.885840
 12
4.757720
 22
1.490720
 13
5.394840
 23
1.861200
  0
POLYLINE
  8
0
  6
CONTINUOUS
 66
     1
 40
0.000000
 41
0.000000
  0
VERTEX
  8
0
  6
CONTINUOUS
 10
4.774000
 20
1.515360
  0
VERTEX
  8
0
  6
CONTINUOUS
 10
5.411120
 20
1.885840
  0
VERTEX
  8
0
  6
CONTINUOUS
 10
5.394840
 20
1.861200
  0
VERTEX
  8
0
  6
CONTINUOUS
 10
4.757720
 20
1.490720
  0
VERTEX
  8
0
  6
CONTINUOUS
 10
4.774000
 20
1.515360
  0
SEQEND
  8
0
  0
SOLID
  8
0
 62
    15
 10
4.692160
 20
1.449360
 11
5.329280
 21
1.819400
 12
4.669720
 22
1.433520
 13
5.306400
 23
1.803560
  0
POLYLINE
  8
0
  6
CONTINUOUS
 66
     1
 40
0.000000
 41
0.000000
  0
VERTEX
  8
0
  6
CONTINUOUS
 10
4.692160
 20
1.449360
  0
VERTEX
  8
0
  6
CONTINUOUS
 10
5.329280
 20
1.819400
  0
VERTEX
  8
0
  6
CONTINUOUS
 10
5.306400
 20
1.803560
  0
VERTEX
  8
0
  6
CONTINUOUS
 10
4.669720
 20
1.433520
  0
VERTEX
  8
0
  6
CONTINUOUS
 10
4.692160
 20
1.449360
  0
SEQEND
  8
0
  0
SOLID
  8
0
 62
    15
 10
4.669720
 20
1.433520
 11
5.306400
 21
1.803560
 12
4.653440
 22
1.419000
 13
5.290120
 23
1.789040
  0
POLYLINE
  8
0
  6
CONTINUOUS
 66
     1
 40
0.000000
 41
0.000000
  0
VERTEX
  8
0
  6
CONTINUOUS
 10
4.669720
 20
1.433520
  0
VERTEX
  8
0
  6
CONTINUOUS
 10
5.306400
 20
1.803560
  0
VERTEX
  8
0
  6
CONTINUOUS
 10
5.290120
 20
1.789040
  0
VERTEX
  8
0
  6
CONTINUOUS
 10
4.653440
 20
1.419000
  0
VERTEX
  8
0
  6
CONTINUOUS
 10
4.669720
 20
1.433520
  0
SEQEND
  8
0
  0
SOLID
  8
0
 62
    15
 10
4.757720
 20
1.490720
 11
5.394840
 21
1.861200
 12
4.730880
 22
1.468720
 13
5.368000
 23
1.838760
  0
POLYLINE
  8
0
  6
CONTINUOUS
 66
     1
 40
0.000000
 41
0.000000
  0
VERTEX
  8
0
  6
CONTINUOUS
 10
4.757720
 20
1.490720
  0
VERTEX
  8
0
  6
CONTINUOUS
 10
5.394840
 20
1.861200
  0
VERTEX
  8
0
  6
CONTINUOUS
 10
5.368000
 20
1.838760
  0
VERTEX
  8
0
  6
CONTINUOUS
 10
4.730880
 20
1.468720
  0
VERTEX
  8
0
  6
CONTINUOUS
 10
4.757720
 20
1.490720
  0
SEQEND
  8
0
  0
SOLID
  8
0
 62
    15
 10
4.653440
 20
1.419000
 11
5.290120
 21
1.789040
 12
4.642440
 22
1.405360
 13
5.279560
 23
1.775400
  0
POLYLINE
  8
0
  6
CONTINUOUS
 66
     1
 40
0.000000
 41
0.000000
  0
VERTEX
  8
0
  6
CONTINUOUS
 10
4.653440
 20
1.419000
  0
VERTEX
  8
0
  6
CONTINUOUS
 10
5.290120
 20
1.789040
  0
VERTEX
  8
0
  6
CONTINUOUS
 10
5.279560
 20
1.775400
  0
VERTEX
  8
0
  6
CONTINUOUS
 10
4.642440
 20
1.405360
  0
VERTEX
  8
0
  6
CONTINUOUS
 10
4.653440
 20
1.419000
  0
SEQEND
  8
0
  0
SOLID
  8
0
 62
    15
 10
4.642440
 20
1.405360
 11
5.279560
 21
1.775400
 12
4.637160
 22
1.393040
 13
5.274280
 23
1.763080
  0
POLYLINE
  8
0
  6
CONTINUOUS
 66
     1
 40
0.000000
 41
0.000000
  0
VERTEX
  8
0
  6
CONTINUOUS
 10
4.642440
 20
1.405360
  0
VERTEX
  8
0
  6
CONTINUOUS
 10
5.279560
 20
1.775400
  0
VERTEX
  8
0
  6
CONTINUOUS
 10
5.274280
 20
1.763080
  0
VERTEX
  8
0
  6
CONTINUOUS
 10
4.637160
 20
1.393040
  0
VERTEX
  8
0
  6
CONTINUOUS
 10
4.642440
 20
1.405360
  0
SEQEND
  8
0
  0
SOLID
  8
0
 62
    15
 10
4.637160
 20
1.393040
 11
5.274280
 21
1.763080
 12
4.636280
 22
1.381160
 13
5.273400
 23
1.751640
  0
POLYLINE
  8
0
  6
CONTINUOUS
 66
     1
 40
0.000000
 41
0.000000
  0
VERTEX
  8
0
  6
CONTINUOUS
 10
4.637160
 20
1.393040
  0
VERTEX
  8
0
  6
CONTINUOUS
 10
5.274280
 20
1.763080
  0
VERTEX
  8
0
  6
CONTINUOUS
 10
5.273400
 20
1.751640
  0
VERTEX
  8
0
  6
CONTINUOUS
 10
4.636280
 20
1.381160
  0
VERTEX
  8
0
  6
CONTINUOUS
 10
4.637160
 20
1.393040
  0
SEQEND
  8
0
  0
SOLID
  8
0
 62
    15
 10
4.636280
 20
1.381160
 11
5.273400
 21
1.751640
 12
4.639800
 22
1.370600
 13
5.276480
 23
1.741080
  0
POLYLINE
  8
0
  6
CONTINUOUS
 66
     1
 40
0.000000
 41
0.000000
  0
VERTEX
  8
0
  6
CONTINUOUS
 10
4.636280
 20
1.381160
  0
VERTEX
  8
0
  6
CONTINUOUS
 10
5.273400
 20
1.751640
  0
VERTEX
  8
0
  6
CONTINUOUS
 10
5.276480
 20
1.741080
  0
VERTEX
  8
0
  6
CONTINUOUS
 10
4.639800
 20
1.370600
  0
VERTEX
  8
0
  6
CONTINUOUS
 10
4.636280
 20
1.381160
  0
SEQEND
  8
0
  0
SOLID
  8
0
 62
     7
 10
4.639800
 20
1.370600
 11
5.276480
 21
1.741080
 12
4.656520
 22
1.352120
 13
5.293640
 23
1.722160
  0
POLYLINE
  8
0
  6
CONTINUOUS
 66
     1
 40
0.000000
 41
0.000000
  0
VERTEX
  8
0
  6
CONTINUOUS
 10
4.639800
 20
1.370600
  0
VERTEX
  8
0
  6
CONTINUOUS
 10
5.276480
 20
1.741080
  0
VERTEX
  8
0
  6
CONTINUOUS
 10
5.293640
 20
1.722160
  0
VERTEX
  8
0
  6
CONTINUOUS
 10
4.656520
 20
1.352120
  0
VERTEX
  8
0
  6
CONTINUOUS
 10
4.639800
 20
1.370600
  0
SEQEND
  8
0
  0
SOLID
  8
0
 62
    15
 10
4.656520
 20
1.352120
 11
5.293640
 21
1.722160
 12
4.684240
 22
1.336720
 13
5.321360
 23
1.707200
  0
POLYLINE
  8
0
  6
CONTINUOUS
 66
     1
 40
0.000000
 41
0.000000
  0
VERTEX
  8
0
  6
CONTINUOUS
 10
4.656520
 20
1.352120
  0
VERTEX
  8
0
  6
CONTINUOUS
 10
5.293640
 20
1.722160
  0
VERTEX
  8
0
  6
CONTINUOUS
 10
5.321360
 20
1.707200
  0
VERTEX
  8
0
  6
CONTINUOUS
 10
4.684240
 20
1.336720
  0
VERTEX
  8
0
  6
CONTINUOUS
 10
4.656520
 20
1.352120
  0
SEQEND
  8
0
  0
SOLID
  8
0
 62
    15
 10
4.684240
 20
1.336720
 11
5.321360
 21
1.707200
 12
4.718120
 22
1.324400
 13
5.355240
 23
1.694880
  0
POLYLINE
  8
0
  6
CONTINUOUS
 66
     1
 40
0.000000
 41
0.000000
  0
VERTEX
  8
0
  6
CONTINUOUS
 10
4.684240
 20
1.336720
  0
VERTEX
  8
0
  6
CONTINUOUS
 10
5.321360
 20
1.707200
  0
VERTEX
  8
0
  6
CONTINUOUS
 10
5.355240
 20
1.694880
  0
VERTEX
  8
0
  6
CONTINUOUS
 10
4.718120
 20
1.324400
  0
VERTEX
  8
0
  6
CONTINUOUS
 10
4.684240
 20
1.336720
  0
SEQEND
  8
0
  0
SOLID
  8
0
 62
    15
 10
4.718120
 20
1.324400
 11
5.355240
 21
1.694880
 12
4.789400
 22
1.307680
 13
5.426520
 23
1.678160
  0
POLYLINE
  8
0
  6
CONTINUOUS
 66
     1
 40
0.000000
 41
0.000000
  0
VERTEX
  8
0
  6
CONTINUOUS
 10
4.718120
 20
1.324400
  0
VERTEX
  8
0
  6
CONTINUOUS
 10
5.355240
 20
1.694880
  0
VERTEX
  8
0
  6
CONTINUOUS
 10
5.426520
 20
1.678160
  0
VERTEX
  8
0
  6
CONTINUOUS
 10
4.789400
 20
1.307680
  0
VERTEX
  8
0
  6
CONTINUOUS
 10
4.718120
 20
1.324400
  0
SEQEND
  8
0
  0
SOLID
  8
0
 62
    15
 10
4.789400
 20
1.307680
 11
5.426520
 21
1.678160
 12
4.796000
 22
1.302400
 13
5.433120
 23
1.672880
  0
POLYLINE
  8
0
  6
CONTINUOUS
 66
     1
 40
0.000000
 41
0.000000
  0
VERTEX
  8
0
  6
CONTINUOUS
 10
4.789400
 20
1.307680
  0
VERTEX
  8
0
  6
CONTINUOUS
 10
5.426520
 20
1.678160
  0
VERTEX
  8
0
  6
CONTINUOUS
 10
5.433120
 20
1.672880
  0
VERTEX
  8
0
  6
CONTINUOUS
 10
4.796000
 20
1.302400
  0
VERTEX
  8
0
  6
CONTINUOUS
 10
4.789400
 20
1.307680
  0
SEQEND
  8
0
  0
POLYLINE
  8
0
  6
CONTINUOUS
 66
     1
 40
0.000000
 41
0.000000
  0
VERTEX
  8
0
  6
CONTINUOUS
 10
4.796000
 20
1.302400
  0
VERTEX
  8
0
  6
CONTINUOUS
 10
4.796000
 20
0.897160
  0
VERTEX
  8
0
  6
CONTINUOUS
 10
4.030840
 20
0.897160
  0
VERTEX
  8
0
  6
CONTINUOUS
 10
4.030840
 20
2.397120
  0
VERTEX
  8
0
  6
CONTINUOUS
 10
4.194960
 20
2.397120
  0
VERTEX
  8
0
  6
CONTINUOUS
 10
4.345440
 20
2.156000
  0
VERTEX
  8
0
  6
CONTINUOUS
 10
4.342800
 20
2.153360
  0
VERTEX
  8
0
  6
CONTINUOUS
 10
4.322120
 20
2.126520
  0
VERTEX
  8
0
  6
CONTINUOUS
 10
4.308920
 20
2.101000
  0
VERTEX
  8
0
  6
CONTINUOUS
 10
4.302320
 20
2.075920
  0
VERTEX
  8
0
  6
CONTINUOUS
 10
4.301880
 20
2.051720
  0
VERTEX
  8
0
  6
CONTINUOUS
 10
4.306720
 20
2.028400
  0
VERTEX
  8
0
  6
CONTINUOUS
 10
4.315960
 20
2.005960
  0
VERTEX
  8
0
  6
CONTINUOUS
 10
4.345880
 20
1.963720
  0
VERTEX
  8
0
  6
CONTINUOUS
 10
4.385040
 20
1.925000
  0
VERTEX
  8
0
  6
CONTINUOUS
 10
4.428160
 20
1.889360
  0
VERTEX
  8
0
  6
CONTINUOUS
 10
4.459400
 20
1.865160
  0
VERTEX
  8
0
  6
CONTINUOUS
 10
4.469520
 20
1.857680
  0
VERTEX
  8
0
  6
CONTINUOUS
 10
4.502520
 20
1.829080
  0
VERTEX
  8
0
  6
CONTINUOUS
 10
4.527600
 20
1.818520
  0
VERTEX
  8
0
  6
CONTINUOUS
 10
4.555760
 20
1.803560
  0
VERTEX
  8
0
  6
CONTINUOUS
 10
4.617360
 20
1.763960
  0
VERTEX
  8
0
  6
CONTINUOUS
 10
4.679400
 20
1.714240
  0
VERTEX
  8
0
  6
CONTINUOUS
 10
4.733080
 20
1.657480
  0
VERTEX
  8
0
  6
CONTINUOUS
 10
4.753760
 20
1.628440
  0
VERTEX
  8
0
  6
CONTINUOUS
 10
4.769600
 20
1.598960
  0
VERTEX
  8
0
  6
CONTINUOUS
 10
4.778840
 20
1.570360
  0
VERTEX
  8
0
  6
CONTINUOUS
 10
4.780600
 20
1.542200
  0
VERTEX
  8
0
  6
CONTINUOUS
 10
4.774000
 20
1.515360
  0
VERTEX
  8
0
  6
CONTINUOUS
 10
4.757720
 20
1.490720
  0
VERTEX
  8
0
  6
CONTINUOUS
 10
4.730880
 20
1.468720
  0
VERTEX
  8
0
  6
CONTINUOUS
 10
4.692160
 20
1.449360
  0
VERTEX
  8
0
  6
CONTINUOUS
 10
4.669720
 20
1.433520
  0
VERTEX
  8
0
  6
CONTINUOUS
 10
4.653440
 20
1.419000
  0
VERTEX
  8
0
  6
CONTINUOUS
 10
4.642440
 20
1.405360
  0
VERTEX
  8
0
  6
CONTINUOUS
 10
4.637160
 20
1.393040
  0
VERTEX
  8
0
  6
CONTINUOUS
 10
4.636280
 20
1.381160
  0
VERTEX
  8
0
  6
CONTINUOUS
 10
4.639800
 20
1.370600
  0
VERTEX
  8
0
  6
CONTINUOUS
 10
4.656520
 20
1.352120
  0
VERTEX
  8
0
  6
CONTINUOUS
 10
4.684240
 20
1.336720
  0
VERTEX
  8
0
  6
CONTINUOUS
 10
4.718120
 20
1.324400
  0
VERTEX
  8
0
  6
CONTINUOUS
 10
4.789400
 20
1.307680
  0
VERTEX
  8
0
  6
CONTINUOUS
 10
4.796000
 20
1.302400
  0
SEQEND
  8
0
  0
TEXT
  8
0
 10
4.411440
 20
0.654720
 40
0.138169
  1
 BA  237
 41
1.000000
  7
SN0
 71
     0
 72
     5
 11
5.050157
 21
0.654720
  0
TEXT
  8
0
 10
4.279000
 20
0.462880
 40
0.138169
  1
3/4" x 1-1/2"
 41
1.000000
  7
SN0
 71
     0
 72
     5
 11
5.179120
 21
0.462880
  0
TEXT
  8
0
 10
7.381440
 20
2.704240
 40
0.138169
  1
base cap
 41
1.000000
  7
SN0
 71
     0
 72
     5
 11
8.054366
 21
2.704240
  0
TEXT
  8
0
 10
7.579880
 20
2.512400
 40
0.138169
  1
237
 41
1.000000
  7
SN0
 71
     0
 72
     5
 11
7.856778
 21
2.512400
  0
TEXT
  8
0
 10
7.678880
 20
2.242680
 40
0.138169
  1
B
 41
1.000000
  7
SN0
 71
     0
 72
     5
 11
7.789961
 21
2.242680
  0
ENDSEC
  0
EOF
