  0
SECTION
  2
HEADER
  9
$ACADVER
  1
AC1006
  9
$EXTMIN
 10
2.241819
 20
-8.808345
  9
$EXTMAX
 10
38.205662
 20
3.916688
  9
$LTSCALE
 40
0.152817
  9
$PDMODE
 70
    35
  9
$PDSIZE
 40
0.122253
  0
ENDSEC
  0
SECTION
  2
TABLES
  0
TABLE
  2
LTYPE
 70
     9
  0
LTYPE
  2
CONTINUOUS
 70
    64
  3
Solid line
 72
    65
 73
     0
 40
0.000000
  0
LTYPE
  2
DASHED
 70
    64
  3
__ __ __ __ __ __ __ __ __ __ __ __ __ __ __
 72
    65
 73
     2
 40
0.001146
 49
0.000764
 49
-0.000382
  0
LTYPE
  2
HIDDEN
 70
    64
  3
 _ _ _ _ _ _ _ _ _ _ _ _ _ _ _ _ _ _ _ _ _ _
 72
    65
 73
     2
 40
0.000573
 49
0.000382
 49
-0.000191
  0
LTYPE
  2
CENTER
 70
    64
  3
____ _ ____ _ ____ _ ____ _ ____ _ ____ _ ____
 72
    65
 73
     4
 40
0.003056
 49
0.001910
 49
-0.000382
 49
0.000382
 49
-0.000382
  0
LTYPE
  2
PHANTOM
 70
    64
  3
_____ _ _ _____ _ _ _____ _ _ _____ _ _ ____
 72
    65
 73
     6
 40
0.003820
 49
0.001910
 49
-0.000382
 49
0.000382
 49
-0.000382
 49
0.000382
 49
-0.000382
  0
LTYPE
  2
DOT
 70
    64
  3
...............................................
 72
    65
 73
     2
 40
0.000382
 49
0.000000
 49
-0.000382
  0
LTYPE
  2
DASHDOT
 70
    64
  3
__ . __ . __ . __ . __ . __ . __ . __ . __ . __
 72
    65
 73
     4
 40
0.001528
 49
0.000764
 49
-0.000382
 49
0.000000
 49
-0.000382
  0
LTYPE
  2
BORDER
 70
    64
  3
__ __ . __ __ . __ __ . __ __ . __ __ . __ __
 72
    65
 73
     6
 40
0.002674
 49
0.000764
 49
-0.000382
 49
0.000764
 49
-0.000382
 49
0.000000
 49
-0.000382
  0
LTYPE
  2
DIVIDE
 70
    64
  3
__ . . __ . . __ . . __ . . __ . . __ . . __
 72
    65
 73
     6
 40
0.001910
 49
0.000764
 49
-0.000382
 49
0.000000
 49
-0.000382
 49
0.000000
 49
-0.000382
  0
LTYPE
  2
DOTDOT
 70
    64
  3
 . .  . .  . .  . .  . .  . . 
 72
    65
 73
     5
 40
0.000840
 49
-0.000382
 49
0.000000
 49
-0.000382
 49
0.000000
 49
-0.000382
  0
ENDTAB
  0
TABLE
  2
STYLE
 70
     4
  0
STYLE
 70
     0
  2
SN0
 40
0.000000
 41
0.001528
 50
0.000000
 71
     0
 42
0.000000
  3
ROMAND
  0
STYLE
 70
    68
  2
SV0
 40
0.000000
 41
0.001528
 50
0.000000
 71
     0
 42
0.000000
  3
ROMAND
  0
STYLE
 70
     0
  2
SN1
 40
0.000000
 41
0.001528
 50
0.000000
 71
     0
 42
0.000000
  3
ROMAND
  0
STYLE
 70
    68
  2
SV1
 40
0.000000
 41
0.001528
 50
0.000000
 71
     0
 42
0.000000
  3
ROMAND
  0
ENDTAB
  0
TABLE
  2
LAYER
 70
     3
  0
LAYER
  2
FOREGROUND
 70
    64
 62
     7
  6
CONTINUOUS
  0
LAYER
  2
BACKGROUND
 70
    65
 62
    -7
  6
CONTINUOUS
  0
LAYER
  2
0
 70
    64
 62
     7
  6
CONTINUOUS
  0
ENDTAB
  0
ENDSEC
  0
SECTION
  2
ENTITIES
  0
POLYLINE
  8
FOREGROUND
  6
CONTINUOUS
 66
     1
 40
0.000000
 41
0.000000
  0
VERTEX
  8
FOREGROUND
  6
CONTINUOUS
 10
0.000000
 20
-4.891657
  0
VERTEX
  8
FOREGROUND
  6
CONTINUOUS
 10
8.499656
 20
-4.891657
  0
VERTEX
  8
FOREGROUND
  6
CONTINUOUS
 10
8.499656
 20
-15.891392
  0
VERTEX
  8
FOREGROUND
  6
CONTINUOUS
 10
0.000000
 20
-15.891392
  0
VERTEX
  8
FOREGROUND
  6
CONTINUOUS
 10
0.000000
 20
-4.891657
  0
SEQEND
  8
0
  0
POLYLINE
  8
FOREGROUND
  6
CONTINUOUS
 66
     1
 40
0.000000
 41
0.000000
  0
VERTEX
  8
FOREGROUND
  6
CONTINUOUS
 10
0.000000
 20
-4.891657
  0
VERTEX
  8
FOREGROUND
  6
CONTINUOUS
 10
8.499656
 20
-4.891657
  0
VERTEX
  8
FOREGROUND
  6
CONTINUOUS
 10
8.499656
 20
-15.891392
  0
VERTEX
  8
FOREGROUND
  6
CONTINUOUS
 10
0.000000
 20
-15.891392
  0
VERTEX
  8
FOREGROUND
  6
CONTINUOUS
 10
0.000000
 20
-4.891657
  0
SEQEND
  8
0
  0
TEXT
  8
0
 10
35.957731
 20
3.517837
 40
0.014836
  1
B242
 41
1.000000
  7
SN0
 71
     0
 72
     5
 11
35.997291
 21
3.517837
  0
TEXT
  8
0
 10
36.468138
 20
3.656900
 40
0.011539
  1
B242
 41
1.000000
  7
SN0
 71
     0
 72
     5
 11
36.498707
 21
3.656900
  0
TEXT
  8
0
 10
37.433939
 20
3.361964
 40
0.014836
  1
B242
 41
1.000000
  7
SN0
 71
     0
 72
     5
 11
37.473499
 21
3.361964
  0
TEXT
  8
0
 10
37.987134
 20
3.310006
 40
0.014836
  1
B242
 41
1.000000
  7
SN0
 71
     0
 72
     5
 11
38.026695
 21
3.310006
  0
TEXT
  8
0
 10
37.583699
 20
0.626548
 40
0.014836
  1
B242
 41
1.000000
  7
SN0
 71
     0
 72
     5
 11
37.623259
 21
0.626548
  0
TEXT
  8
0
 10
37.377396
 20
3.895293
 40
0.018132
  1
B242
 41
1.000000
  7
SN0
 71
     0
 72
     5
 11
37.422351
 21
3.895293
  0
TEXT
  8
0
 10
36.112075
 20
-6.979131
 40
0.014836
  1
B242
 41
1.000000
  7
SN0
 71
     0
 72
     5
 11
36.151636
 21
-6.979131
  0
POLYLINE
  8
0
  6
CONTINUOUS
 66
     1
 40
0.012225
 41
0.012225
  0
VERTEX
  8
0
  6
CONTINUOUS
 10
37.299460
 20
-5.686303
  0
VERTEX
  8
0
  6
CONTINUOUS
 10
37.310157
 20
-5.686303
  0
SEQEND
  8
0
  0
POLYLINE
  8
0
  6
CONTINUOUS
 66
     1
 40
0.012225
 41
0.012225
  0
VERTEX
  8
0
  6
CONTINUOUS
 10
37.299460
 20
-6.977603
  0
VERTEX
  8
0
  6
CONTINUOUS
 10
37.310157
 20
-6.977603
  0
SEQEND
  8
0
  0
POLYLINE
  8
0
  6
CONTINUOUS
 66
     1
 40
0.012225
 41
0.012225
  0
VERTEX
  8
0
  6
CONTINUOUS
 10
38.198021
 20
-6.959265
  0
VERTEX
  8
0
  6
CONTINUOUS
 10
38.198021
 20
-6.977603
  0
SEQEND
  8
0
  0
POLYLINE
  8
0
  6
CONTINUOUS
 66
     1
 40
0.013753
 41
0.013753
  0
VERTEX
  8
0
  6
CONTINUOUS
 10
2.250988
 20
-5.449438
  0
VERTEX
  8
0
  6
CONTINUOUS
 10
2.834747
 20
-5.449438
  0
VERTEX
  8
0
  6
CONTINUOUS
 10
2.834747
 20
-5.475416
  0
VERTEX
  8
0
  6
CONTINUOUS
 10
2.834747
 20
-5.470832
  0
VERTEX
  8
0
  6
CONTINUOUS
 10
2.834747
 20
-5.580860
  0
VERTEX
  8
0
  6
CONTINUOUS
 10
2.872951
 20
-5.571691
  0
VERTEX
  8
0
  6
CONTINUOUS
 10
2.908099
 20
-5.565578
  0
VERTEX
  8
0
  6
CONTINUOUS
 10
2.941718
 20
-5.562522
  0
VERTEX
  8
0
  6
CONTINUOUS
 10
2.972282
 20
-5.562522
  0
VERTEX
  8
0
  6
CONTINUOUS
 10
2.999789
 20
-5.564050
  0
VERTEX
  8
0
  6
CONTINUOUS
 10
3.025767
 20
-5.567106
  0
VERTEX
  8
0
  6
CONTINUOUS
 10
3.048690
 20
-5.573219
  0
VERTEX
  8
0
  6
CONTINUOUS
 10
3.071612
 20
-5.580860
  0
VERTEX
  8
0
  6
CONTINUOUS
 10
3.111345
 20
-5.599198
  0
VERTEX
  8
0
  6
CONTINUOUS
 10
3.148021
 20
-5.623649
  0
VERTEX
  8
0
  6
CONTINUOUS
 10
3.218316
 20
-5.681719
  0
VERTEX
  8
0
  6
CONTINUOUS
 10
3.254992
 20
-5.712282
  0
VERTEX
  8
0
  6
CONTINUOUS
 10
3.294725
 20
-5.741317
  0
VERTEX
  8
0
  6
CONTINUOUS
 10
3.339041
 20
-5.767296
  0
VERTEX
  8
0
  6
CONTINUOUS
 10
3.365020
 20
-5.779521
  0
VERTEX
  8
0
  6
CONTINUOUS
 10
3.392527
 20
-5.790219
  0
VERTEX
  8
0
  6
CONTINUOUS
 10
3.421562
 20
-5.799388
  0
VERTEX
  8
0
  6
CONTINUOUS
 10
3.453654
 20
-5.808557
  0
VERTEX
  8
0
  6
CONTINUOUS
 10
3.488802
 20
-5.814669
  0
VERTEX
  8
0
  6
CONTINUOUS
 10
3.525477
 20
-5.817726
  0
VERTEX
  8
0
  6
CONTINUOUS
 10
3.566738
 20
-5.820782
  0
VERTEX
  8
0
  6
CONTINUOUS
 10
3.611055
 20
-5.820782
  0
VERTEX
  8
0
  6
CONTINUOUS
 10
3.658428
 20
-5.817726
  0
VERTEX
  8
0
  6
CONTINUOUS
 10
3.710385
 20
-5.813141
  0
VERTEX
  8
0
  6
CONTINUOUS
 10
3.710385
 20
-5.814669
  0
VERTEX
  8
0
  6
CONTINUOUS
 10
3.710385
 20
-5.926225
  0
VERTEX
  8
0
  6
CONTINUOUS
 10
3.711914
 20
-5.926225
  0
VERTEX
  8
0
  6
CONTINUOUS
 10
5.354691
 20
-5.926225
  0
VERTEX
  8
0
  6
CONTINUOUS
 10
5.353163
 20
-5.926225
  0
VERTEX
  8
0
  6
CONTINUOUS
 10
5.379142
 20
-6.022500
  0
VERTEX
  8
0
  6
CONTINUOUS
 10
5.380670
 20
-6.022500
  0
VERTEX
  8
0
  6
CONTINUOUS
 10
6.716287
 20
-6.022500
  0
VERTEX
  8
0
  6
CONTINUOUS
 10
6.730040
 20
-6.024028
  0
VERTEX
  8
0
  6
CONTINUOUS
 10
6.740737
 20
-6.027084
  0
VERTEX
  8
0
  6
CONTINUOUS
 10
6.751435
 20
-6.031669
  0
VERTEX
  8
0
  6
CONTINUOUS
 10
6.757547
 20
-6.039309
  0
VERTEX
  8
0
  6
CONTINUOUS
 10
6.763660
 20
-6.050007
  0
VERTEX
  8
0
  6
CONTINUOUS
 10
6.766716
 20
-6.060704
  0
VERTEX
  8
0
  6
CONTINUOUS
 10
6.769773
 20
-6.088211
  0
VERTEX
  8
0
  6
CONTINUOUS
 10
6.769773
 20
-6.317436
  0
VERTEX
  8
0
  6
CONTINUOUS
 10
2.250988
 20
-6.317436
  0
VERTEX
  8
0
  6
CONTINUOUS
 10
2.250988
 20
-6.308267
  0
VERTEX
  8
0
  6
CONTINUOUS
 10
2.250988
 20
-5.449438
  0
SEQEND
  8
0
  0
SOLID
  8
0
 62
    15
 10
3.528534
 20
-7.828791
 11
3.533118
 21
-7.083046
 12
3.601886
 22
-7.839488
 13
3.606470
 23
-7.093744
  0
POLYLINE
  8
0
  6
CONTINUOUS
 66
     1
 40
0.000000
 41
0.000000
  0
VERTEX
  8
0
  6
CONTINUOUS
 10
3.528534
 20
-7.828791
  0
VERTEX
  8
0
  6
CONTINUOUS
 10
3.533118
 20
-7.083046
  0
VERTEX
  8
0
  6
CONTINUOUS
 10
3.606470
 20
-7.093744
  0
VERTEX
  8
0
  6
CONTINUOUS
 10
3.601886
 20
-7.839488
  0
VERTEX
  8
0
  6
CONTINUOUS
 10
3.528534
 20
-7.828791
  0
SEQEND
  8
0
  0
SOLID
  8
0
 62
    15
 10
2.911155
 20
-7.469672
 11
2.915739
 21
-6.723928
 12
2.911155
 22
-7.602623
 13
2.915739
 23
-6.855350
  0
POLYLINE
  8
0
  6
CONTINUOUS
 66
     1
 40
0.000000
 41
0.000000
  0
VERTEX
  8
0
  6
CONTINUOUS
 10
2.911155
 20
-7.469672
  0
VERTEX
  8
0
  6
CONTINUOUS
 10
2.915739
 20
-6.723928
  0
VERTEX
  8
0
  6
CONTINUOUS
 10
2.915739
 20
-6.855350
  0
VERTEX
  8
0
  6
CONTINUOUS
 10
2.911155
 20
-7.602623
  0
VERTEX
  8
0
  6
CONTINUOUS
 10
2.911155
 20
-7.469672
  0
SEQEND
  8
0
  0
SOLID
  8
0
 62
    15
 10
2.911155
 20
-7.602623
 11
2.915739
 21
-6.855350
 12
2.984507
 22
-7.587341
 13
2.989091
 23
-6.841596
  0
POLYLINE
  8
0
  6
CONTINUOUS
 66
     1
 40
0.000000
 41
0.000000
  0
VERTEX
  8
0
  6
CONTINUOUS
 10
2.911155
 20
-7.602623
  0
VERTEX
  8
0
  6
CONTINUOUS
 10
2.915739
 20
-6.855350
  0
VERTEX
  8
0
  6
CONTINUOUS
 10
2.989091
 20
-6.841596
  0
VERTEX
  8
0
  6
CONTINUOUS
 10
2.984507
 20
-7.587341
  0
VERTEX
  8
0
  6
CONTINUOUS
 10
2.911155
 20
-7.602623
  0
SEQEND
  8
0
  0
SOLID
  8
0
 62
    15
 10
2.984507
 20
-7.587341
 11
2.989091
 21
-6.841596
 12
3.047162
 22
-7.582756
 13
3.051746
 23
-6.837012
  0
POLYLINE
  8
0
  6
CONTINUOUS
 66
     1
 40
0.000000
 41
0.000000
  0
VERTEX
  8
0
  6
CONTINUOUS
 10
2.984507
 20
-7.587341
  0
VERTEX
  8
0
  6
CONTINUOUS
 10
2.989091
 20
-6.841596
  0
VERTEX
  8
0
  6
CONTINUOUS
 10
3.051746
 20
-6.837012
  0
VERTEX
  8
0
  6
CONTINUOUS
 10
3.047162
 20
-7.582756
  0
VERTEX
  8
0
  6
CONTINUOUS
 10
2.984507
 20
-7.587341
  0
SEQEND
  8
0
  0
SOLID
  8
0
 62
    15
 10
3.047162
 20
-7.582756
 11
3.051746
 21
-6.837012
 12
3.100648
 22
-7.587341
 13
3.105232
 23
-6.841596
  0
POLYLINE
  8
0
  6
CONTINUOUS
 66
     1
 40
0.000000
 41
0.000000
  0
VERTEX
  8
0
  6
CONTINUOUS
 10
3.047162
 20
-7.582756
  0
VERTEX
  8
0
  6
CONTINUOUS
 10
3.051746
 20
-6.837012
  0
VERTEX
  8
0
  6
CONTINUOUS
 10
3.105232
 20
-6.841596
  0
VERTEX
  8
0
  6
CONTINUOUS
 10
3.100648
 20
-7.587341
  0
VERTEX
  8
0
  6
CONTINUOUS
 10
3.047162
 20
-7.582756
  0
SEQEND
  8
0
  0
SOLID
  8
0
 62
    15
 10
3.100648
 20
-7.587341
 11
3.105232
 21
-6.841596
 12
3.148021
 22
-7.601094
 13
3.151077
 23
-6.855350
  0
POLYLINE
  8
0
  6
CONTINUOUS
 66
     1
 40
0.000000
 41
0.000000
  0
VERTEX
  8
0
  6
CONTINUOUS
 10
3.100648
 20
-7.587341
  0
VERTEX
  8
0
  6
CONTINUOUS
 10
3.105232
 20
-6.841596
  0
VERTEX
  8
0
  6
CONTINUOUS
 10
3.151077
 20
-6.855350
  0
VERTEX
  8
0
  6
CONTINUOUS
 10
3.148021
 20
-7.601094
  0
VERTEX
  8
0
  6
CONTINUOUS
 10
3.100648
 20
-7.587341
  0
SEQEND
  8
0
  0
SOLID
  8
0
 62
    15
 10
3.148021
 20
-7.601094
 11
3.151077
 21
-6.855350
 12
3.187753
 22
-7.620961
 13
3.192337
 23
-6.875216
  0
POLYLINE
  8
0
  6
CONTINUOUS
 66
     1
 40
0.000000
 41
0.000000
  0
VERTEX
  8
0
  6
CONTINUOUS
 10
3.148021
 20
-7.601094
  0
VERTEX
  8
0
  6
CONTINUOUS
 10
3.151077
 20
-6.855350
  0
VERTEX
  8
0
  6
CONTINUOUS
 10
3.192337
 20
-6.875216
  0
VERTEX
  8
0
  6
CONTINUOUS
 10
3.187753
 20
-7.620961
  0
VERTEX
  8
0
  6
CONTINUOUS
 10
3.148021
 20
-7.601094
  0
SEQEND
  8
0
  0
SOLID
  8
0
 62
    15
 10
3.187753
 20
-7.620961
 11
3.192337
 21
-6.875216
 12
3.224429
 22
-7.645411
 13
3.229013
 23
-6.899667
  0
POLYLINE
  8
0
  6
CONTINUOUS
 66
     1
 40
0.000000
 41
0.000000
  0
VERTEX
  8
0
  6
CONTINUOUS
 10
3.187753
 20
-7.620961
  0
VERTEX
  8
0
  6
CONTINUOUS
 10
3.192337
 20
-6.875216
  0
VERTEX
  8
0
  6
CONTINUOUS
 10
3.229013
 20
-6.899667
  0
VERTEX
  8
0
  6
CONTINUOUS
 10
3.224429
 20
-7.645411
  0
VERTEX
  8
0
  6
CONTINUOUS
 10
3.187753
 20
-7.620961
  0
SEQEND
  8
0
  0
SOLID
  8
0
 62
    15
 10
3.224429
 20
-7.645411
 11
3.229013
 21
-6.899667
 12
3.293196
 22
-7.701953
 13
3.297781
 23
-6.956209
  0
POLYLINE
  8
0
  6
CONTINUOUS
 66
     1
 40
0.000000
 41
0.000000
  0
VERTEX
  8
0
  6
CONTINUOUS
 10
3.224429
 20
-7.645411
  0
VERTEX
  8
0
  6
CONTINUOUS
 10
3.229013
 20
-6.899667
  0
VERTEX
  8
0
  6
CONTINUOUS
 10
3.297781
 20
-6.956209
  0
VERTEX
  8
0
  6
CONTINUOUS
 10
3.293196
 20
-7.701953
  0
VERTEX
  8
0
  6
CONTINUOUS
 10
3.224429
 20
-7.645411
  0
SEQEND
  8
0
  0
SOLID
  8
0
 62
    15
 10
3.293196
 20
-7.701953
 11
3.297781
 21
-6.956209
 12
3.369605
 22
-7.761552
 13
3.374189
 23
-7.015807
  0
POLYLINE
  8
0
  6
CONTINUOUS
 66
     1
 40
0.000000
 41
0.000000
  0
VERTEX
  8
0
  6
CONTINUOUS
 10
3.293196
 20
-7.701953
  0
VERTEX
  8
0
  6
CONTINUOUS
 10
3.297781
 20
-6.956209
  0
VERTEX
  8
0
  6
CONTINUOUS
 10
3.374189
 20
-7.015807
  0
VERTEX
  8
0
  6
CONTINUOUS
 10
3.369605
 20
-7.761552
  0
VERTEX
  8
0
  6
CONTINUOUS
 10
3.293196
 20
-7.701953
  0
SEQEND
  8
0
  0
SOLID
  8
0
 62
    15
 10
3.369605
 20
-7.761552
 11
3.374189
 21
-7.015807
 12
3.415450
 22
-7.789059
 13
3.420034
 23
-7.041786
  0
POLYLINE
  8
0
  6
CONTINUOUS
 66
     1
 40
0.000000
 41
0.000000
  0
VERTEX
  8
0
  6
CONTINUOUS
 10
3.369605
 20
-7.761552
  0
VERTEX
  8
0
  6
CONTINUOUS
 10
3.374189
 20
-7.015807
  0
VERTEX
  8
0
  6
CONTINUOUS
 10
3.420034
 20
-7.041786
  0
VERTEX
  8
0
  6
CONTINUOUS
 10
3.415450
 20
-7.789059
  0
VERTEX
  8
0
  6
CONTINUOUS
 10
3.369605
 20
-7.761552
  0
SEQEND
  8
0
  0
SOLID
  8
0
 62
    15
 10
3.415450
 20
-7.789059
 11
3.420034
 21
-7.041786
 12
3.467407
 22
-7.810453
 13
3.471992
 23
-7.064708
  0
POLYLINE
  8
0
  6
CONTINUOUS
 66
     1
 40
0.000000
 41
0.000000
  0
VERTEX
  8
0
  6
CONTINUOUS
 10
3.415450
 20
-7.789059
  0
VERTEX
  8
0
  6
CONTINUOUS
 10
3.420034
 20
-7.041786
  0
VERTEX
  8
0
  6
CONTINUOUS
 10
3.471992
 20
-7.064708
  0
VERTEX
  8
0
  6
CONTINUOUS
 10
3.467407
 20
-7.810453
  0
VERTEX
  8
0
  6
CONTINUOUS
 10
3.415450
 20
-7.789059
  0
SEQEND
  8
0
  0
SOLID
  8
0
 62
    15
 10
3.467407
 20
-7.810453
 11
3.471992
 21
-7.064708
 12
3.528534
 22
-7.828791
 13
3.533118
 23
-7.083046
  0
POLYLINE
  8
0
  6
CONTINUOUS
 66
     1
 40
0.000000
 41
0.000000
  0
VERTEX
  8
0
  6
CONTINUOUS
 10
3.467407
 20
-7.810453
  0
VERTEX
  8
0
  6
CONTINUOUS
 10
3.471992
 20
-7.064708
  0
VERTEX
  8
0
  6
CONTINUOUS
 10
3.533118
 20
-7.083046
  0
VERTEX
  8
0
  6
CONTINUOUS
 10
3.528534
 20
-7.828791
  0
VERTEX
  8
0
  6
CONTINUOUS
 10
3.467407
 20
-7.810453
  0
SEQEND
  8
0
  0
SOLID
  8
0
 62
    15
 10
2.327396
 20
-7.469672
 11
2.331980
 21
-6.723928
 12
2.911155
 22
-7.469672
 13
2.915739
 23
-6.723928
  0
POLYLINE
  8
0
  6
CONTINUOUS
 66
     1
 40
0.000000
 41
0.000000
  0
VERTEX
  8
0
  6
CONTINUOUS
 10
2.327396
 20
-7.469672
  0
VERTEX
  8
0
  6
CONTINUOUS
 10
2.331980
 20
-6.723928
  0
VERTEX
  8
0
  6
CONTINUOUS
 10
2.915739
 20
-6.723928
  0
VERTEX
  8
0
  6
CONTINUOUS
 10
2.911155
 20
-7.469672
  0
VERTEX
  8
0
  6
CONTINUOUS
 10
2.327396
 20
-7.469672
  0
SEQEND
  8
0
  0
SOLID
  8
0
 62
    15
 10
3.601886
 20
-7.839488
 11
3.606470
 21
-7.093744
 12
3.641618
 22
-7.841016
 13
3.646203
 23
-7.095272
  0
POLYLINE
  8
0
  6
CONTINUOUS
 66
     1
 40
0.000000
 41
0.000000
  0
VERTEX
  8
0
  6
CONTINUOUS
 10
3.601886
 20
-7.839488
  0
VERTEX
  8
0
  6
CONTINUOUS
 10
3.606470
 20
-7.093744
  0
VERTEX
  8
0
  6
CONTINUOUS
 10
3.646203
 20
-7.095272
  0
VERTEX
  8
0
  6
CONTINUOUS
 10
3.641618
 20
-7.841016
  0
VERTEX
  8
0
  6
CONTINUOUS
 10
3.601886
 20
-7.839488
  0
SEQEND
  8
0
  0
SOLID
  8
0
 62
    15
 10
3.641618
 20
-7.841016
 11
3.646203
 21
-7.095272
 12
3.685935
 22
-7.841016
 13
3.690519
 23
-7.095272
  0
POLYLINE
  8
0
  6
CONTINUOUS
 66
     1
 40
0.000000
 41
0.000000
  0
VERTEX
  8
0
  6
CONTINUOUS
 10
3.641618
 20
-7.841016
  0
VERTEX
  8
0
  6
CONTINUOUS
 10
3.646203
 20
-7.095272
  0
VERTEX
  8
0
  6
CONTINUOUS
 10
3.690519
 20
-7.095272
  0
VERTEX
  8
0
  6
CONTINUOUS
 10
3.685935
 20
-7.841016
  0
VERTEX
  8
0
  6
CONTINUOUS
 10
3.641618
 20
-7.841016
  0
SEQEND
  8
0
  0
SOLID
  8
0
 62
    15
 10
3.685935
 20
-7.841016
 11
3.690519
 21
-7.095272
 12
3.733308
 22
-7.839488
 13
3.737892
 23
-7.093744
  0
POLYLINE
  8
0
  6
CONTINUOUS
 66
     1
 40
0.000000
 41
0.000000
  0
VERTEX
  8
0
  6
CONTINUOUS
 10
3.685935
 20
-7.841016
  0
VERTEX
  8
0
  6
CONTINUOUS
 10
3.690519
 20
-7.095272
  0
VERTEX
  8
0
  6
CONTINUOUS
 10
3.737892
 20
-7.093744
  0
VERTEX
  8
0
  6
CONTINUOUS
 10
3.733308
 20
-7.839488
  0
VERTEX
  8
0
  6
CONTINUOUS
 10
3.685935
 20
-7.841016
  0
SEQEND
  8
0
  0
SOLID
  8
0
 62
    15
 10
3.733308
 20
-7.839488
 11
3.737892
 21
-7.093744
 12
3.785266
 22
-7.833376
 13
3.789850
 23
-7.087631
  0
POLYLINE
  8
0
  6
CONTINUOUS
 66
     1
 40
0.000000
 41
0.000000
  0
VERTEX
  8
0
  6
CONTINUOUS
 10
3.733308
 20
-7.839488
  0
VERTEX
  8
0
  6
CONTINUOUS
 10
3.737892
 20
-7.093744
  0
VERTEX
  8
0
  6
CONTINUOUS
 10
3.789850
 20
-7.087631
  0
VERTEX
  8
0
  6
CONTINUOUS
 10
3.785266
 20
-7.833376
  0
VERTEX
  8
0
  6
CONTINUOUS
 10
3.733308
 20
-7.839488
  0
SEQEND
  8
0
  0
SOLID
  8
0
 62
    15
 10
3.785266
 20
-7.833376
 11
3.789850
 21
-7.087631
 12
3.785266
 22
-7.946460
 13
3.789850
 23
-7.200715
  0
POLYLINE
  8
0
  6
CONTINUOUS
 66
     1
 40
0.000000
 41
0.000000
  0
VERTEX
  8
0
  6
CONTINUOUS
 10
3.785266
 20
-7.833376
  0
VERTEX
  8
0
  6
CONTINUOUS
 10
3.789850
 20
-7.087631
  0
VERTEX
  8
0
  6
CONTINUOUS
 10
3.789850
 20
-7.200715
  0
VERTEX
  8
0
  6
CONTINUOUS
 10
3.785266
 20
-7.946460
  0
VERTEX
  8
0
  6
CONTINUOUS
 10
3.785266
 20
-7.833376
  0
SEQEND
  8
0
  0
SOLID
  8
0
 62
    15
 10
3.785266
 20
-7.946460
 11
3.789850
 21
-7.200715
 12
5.429572
 22
-7.946460
 13
5.434156
 23
-7.200715
  0
POLYLINE
  8
0
  6
CONTINUOUS
 66
     1
 40
0.000000
 41
0.000000
  0
VERTEX
  8
0
  6
CONTINUOUS
 10
3.785266
 20
-7.946460
  0
VERTEX
  8
0
  6
CONTINUOUS
 10
3.789850
 20
-7.200715
  0
VERTEX
  8
0
  6
CONTINUOUS
 10
5.434156
 20
-7.200715
  0
VERTEX
  8
0
  6
CONTINUOUS
 10
5.429572
 20
-7.946460
  0
VERTEX
  8
0
  6
CONTINUOUS
 10
3.785266
 20
-7.946460
  0
SEQEND
  8
0
  0
SOLID
  8
0
 62
    15
 10
5.429572
 20
-7.946460
 11
5.434156
 21
-7.200715
 12
5.454022
 22
-8.042734
 13
5.458607
 23
-7.296990
  0
POLYLINE
  8
0
  6
CONTINUOUS
 66
     1
 40
0.000000
 41
0.000000
  0
VERTEX
  8
0
  6
CONTINUOUS
 10
5.429572
 20
-7.946460
  0
VERTEX
  8
0
  6
CONTINUOUS
 10
5.434156
 20
-7.200715
  0
VERTEX
  8
0
  6
CONTINUOUS
 10
5.458607
 20
-7.296990
  0
VERTEX
  8
0
  6
CONTINUOUS
 10
5.454022
 20
-8.042734
  0
VERTEX
  8
0
  6
CONTINUOUS
 10
5.429572
 20
-7.946460
  0
SEQEND
  8
0
  0
SOLID
  8
0
 62
    15
 10
5.454022
 20
-8.042734
 11
5.458607
 21
-7.296990
 12
6.792695
 22
-8.042734
 13
6.797279
 23
-7.296990
  0
POLYLINE
  8
0
  6
CONTINUOUS
 66
     1
 40
0.000000
 41
0.000000
  0
VERTEX
  8
0
  6
CONTINUOUS
 10
5.454022
 20
-8.042734
  0
VERTEX
  8
0
  6
CONTINUOUS
 10
5.458607
 20
-7.296990
  0
VERTEX
  8
0
  6
CONTINUOUS
 10
6.797279
 20
-7.296990
  0
VERTEX
  8
0
  6
CONTINUOUS
 10
6.792695
 20
-8.042734
  0
VERTEX
  8
0
  6
CONTINUOUS
 10
5.454022
 20
-8.042734
  0
SEQEND
  8
0
  0
SOLID
  8
0
 62
    15
 10
6.792695
 20
-8.042734
 11
6.797279
 21
-7.296990
 12
6.817146
 22
-8.047319
 13
6.821730
 23
-7.301574
  0
POLYLINE
  8
0
  6
CONTINUOUS
 66
     1
 40
0.000000
 41
0.000000
  0
VERTEX
  8
0
  6
CONTINUOUS
 10
6.792695
 20
-8.042734
  0
VERTEX
  8
0
  6
CONTINUOUS
 10
6.797279
 20
-7.296990
  0
VERTEX
  8
0
  6
CONTINUOUS
 10
6.821730
 20
-7.301574
  0
VERTEX
  8
0
  6
CONTINUOUS
 10
6.817146
 20
-8.047319
  0
VERTEX
  8
0
  6
CONTINUOUS
 10
6.792695
 20
-8.042734
  0
SEQEND
  8
0
  0
SOLID
  8
0
 62
    15
 10
6.817146
 20
-8.047319
 11
6.821730
 21
-7.301574
 12
6.833955
 22
-8.061072
 13
6.838540
 23
-7.315328
  0
POLYLINE
  8
0
  6
CONTINUOUS
 66
     1
 40
0.000000
 41
0.000000
  0
VERTEX
  8
0
  6
CONTINUOUS
 10
6.817146
 20
-8.047319
  0
VERTEX
  8
0
  6
CONTINUOUS
 10
6.821730
 20
-7.301574
  0
VERTEX
  8
0
  6
CONTINUOUS
 10
6.838540
 20
-7.315328
  0
VERTEX
  8
0
  6
CONTINUOUS
 10
6.833955
 20
-8.061072
  0
VERTEX
  8
0
  6
CONTINUOUS
 10
6.817146
 20
-8.047319
  0
SEQEND
  8
0
  0
SOLID
  8
0
 62
    15
 10
6.843124
 20
-8.080938
 11
6.847709
 21
-7.335194
 12
6.846181
 22
-8.109974
 13
6.850765
 23
-7.364229
  0
POLYLINE
  8
0
  6
CONTINUOUS
 66
     1
 40
0.000000
 41
0.000000
  0
VERTEX
  8
0
  6
CONTINUOUS
 10
6.843124
 20
-8.080938
  0
VERTEX
  8
0
  6
CONTINUOUS
 10
6.847709
 20
-7.335194
  0
VERTEX
  8
0
  6
CONTINUOUS
 10
6.850765
 20
-7.364229
  0
VERTEX
  8
0
  6
CONTINUOUS
 10
6.846181
 20
-8.109974
  0
VERTEX
  8
0
  6
CONTINUOUS
 10
6.843124
 20
-8.080938
  0
SEQEND
  8
0
  0
SOLID
  8
0
 62
    15
 10
6.833955
 20
-8.061072
 11
6.838540
 21
-7.315328
 12
6.843124
 22
-8.080938
 13
6.847709
 23
-7.335194
  0
POLYLINE
  8
0
  6
CONTINUOUS
 66
     1
 40
0.000000
 41
0.000000
  0
VERTEX
  8
0
  6
CONTINUOUS
 10
6.833955
 20
-8.061072
  0
VERTEX
  8
0
  6
CONTINUOUS
 10
6.838540
 20
-7.315328
  0
VERTEX
  8
0
  6
CONTINUOUS
 10
6.847709
 20
-7.335194
  0
VERTEX
  8
0
  6
CONTINUOUS
 10
6.843124
 20
-8.080938
  0
VERTEX
  8
0
  6
CONTINUOUS
 10
6.833955
 20
-8.061072
  0
SEQEND
  8
0
  0
SOLID
  8
0
 62
    15
 10
6.846181
 20
-8.109974
 11
6.850765
 21
-7.364229
 12
6.846181
 22
-8.339198
 13
6.850765
 23
-7.593454
  0
POLYLINE
  8
0
  6
CONTINUOUS
 66
     1
 40
0.000000
 41
0.000000
  0
VERTEX
  8
0
  6
CONTINUOUS
 10
6.846181
 20
-8.109974
  0
VERTEX
  8
0
  6
CONTINUOUS
 10
6.850765
 20
-7.364229
  0
VERTEX
  8
0
  6
CONTINUOUS
 10
6.850765
 20
-7.593454
  0
VERTEX
  8
0
  6
CONTINUOUS
 10
6.846181
 20
-8.339198
  0
VERTEX
  8
0
  6
CONTINUOUS
 10
6.846181
 20
-8.109974
  0
SEQEND
  8
0
  0
POLYLINE
  8
0
  6
CONTINUOUS
 66
     1
 40
0.000000
 41
0.000000
  0
VERTEX
  8
0
  6
CONTINUOUS
 10
2.327396
 20
-7.469672
  0
VERTEX
  8
0
  6
CONTINUOUS
 10
2.911155
 20
-7.469672
  0
VERTEX
  8
0
  6
CONTINUOUS
 10
2.911155
 20
-7.602623
  0
VERTEX
  8
0
  6
CONTINUOUS
 10
2.984507
 20
-7.587341
  0
VERTEX
  8
0
  6
CONTINUOUS
 10
3.047162
 20
-7.582756
  0
VERTEX
  8
0
  6
CONTINUOUS
 10
3.100648
 20
-7.587341
  0
VERTEX
  8
0
  6
CONTINUOUS
 10
3.148021
 20
-7.601094
  0
VERTEX
  8
0
  6
CONTINUOUS
 10
3.187753
 20
-7.620961
  0
VERTEX
  8
0
  6
CONTINUOUS
 10
3.224429
 20
-7.645411
  0
VERTEX
  8
0
  6
CONTINUOUS
 10
3.293196
 20
-7.701953
  0
VERTEX
  8
0
  6
CONTINUOUS
 10
3.369605
 20
-7.761552
  0
VERTEX
  8
0
  6
CONTINUOUS
 10
3.415450
 20
-7.789059
  0
VERTEX
  8
0
  6
CONTINUOUS
 10
3.467407
 20
-7.810453
  0
VERTEX
  8
0
  6
CONTINUOUS
 10
3.528534
 20
-7.828791
  0
VERTEX
  8
0
  6
CONTINUOUS
 10
3.601886
 20
-7.839488
  0
VERTEX
  8
0
  6
CONTINUOUS
 10
3.641618
 20
-7.841016
  0
VERTEX
  8
0
  6
CONTINUOUS
 10
3.685935
 20
-7.841016
  0
VERTEX
  8
0
  6
CONTINUOUS
 10
3.733308
 20
-7.839488
  0
VERTEX
  8
0
  6
CONTINUOUS
 10
3.785266
 20
-7.833376
  0
VERTEX
  8
0
  6
CONTINUOUS
 10
3.785266
 20
-7.946460
  0
VERTEX
  8
0
  6
CONTINUOUS
 10
5.429572
 20
-7.946460
  0
VERTEX
  8
0
  6
CONTINUOUS
 10
5.454022
 20
-8.042734
  0
VERTEX
  8
0
  6
CONTINUOUS
 10
6.792695
 20
-8.042734
  0
VERTEX
  8
0
  6
CONTINUOUS
 10
6.817146
 20
-8.047319
  0
VERTEX
  8
0
  6
CONTINUOUS
 10
6.833955
 20
-8.061072
  0
VERTEX
  8
0
  6
CONTINUOUS
 10
6.843124
 20
-8.080938
  0
VERTEX
  8
0
  6
CONTINUOUS
 10
6.846181
 20
-8.109974
  0
VERTEX
  8
0
  6
CONTINUOUS
 10
6.846181
 20
-8.339198
  0
VERTEX
  8
0
  6
CONTINUOUS
 10
2.327396
 20
-8.339198
  0
VERTEX
  8
0
  6
CONTINUOUS
 10
2.327396
 20
-7.478841
  0
VERTEX
  8
0
  6
CONTINUOUS
 10
2.327396
 20
-7.469672
  0
SEQEND
  8
0
  0
TEXT
  8
0
 10
4.292616
 20
-8.569951
 40
0.133521
  1
BA  234
 41
1.000000
  7
SN1
 71
     0
 72
     5
 11
4.877029
 21
-8.569951
  0
TEXT
  8
0
 10
4.136744
 20
-8.762500
 40
0.133521
  1
7/8" x 4-1/2"
 41
1.000000
  7
SN1
 71
     0
 72
     5
 11
5.025051
 21
-8.762500
  0
TEXT
  8
0
 10
7.619432
 20
-5.460135
 40
0.133521
  1
case
 41
1.000000
  7
SN1
 71
     0
 72
     5
 11
7.968282
 21
-5.460135
  0
TEXT
  8
0
 10
7.656108
 20
-5.652684
 40
0.133521
  1
234
 41
1.000000
  7
SN1
 71
     0
 72
     5
 11
7.931232
 21
-5.652684
  0
ENDSEC
  0
EOF
