  0
SECTION
  2
HEADER
  9
$ACADVER
  1
AC1006
  9
$EXTMIN
 10
1.766354
 20
0.348622
  9
$EXTMAX
 10
19.368688
 20
7.246698
  9
$LTSCALE
 40
0.077472
  9
$PDMODE
 70
    35
  9
$PDSIZE
 40
0.061977
  0
ENDSEC
  0
SECTION
  2
TABLES
  0
TABLE
  2
LTYPE
 70
     9
  0
LTYPE
  2
CONTINUOUS
 70
    64
  3
Solid line
 72
    65
 73
     0
 40
0.000000
  0
LTYPE
  2
DASHED
 70
    64
  3
__ __ __ __ __ __ __ __ __ __ __ __ __ __ __
 72
    65
 73
     2
 40
0.000581
 49
0.000387
 49
-0.000194
  0
LTYPE
  2
HIDDEN
 70
    64
  3
 _ _ _ _ _ _ _ _ _ _ _ _ _ _ _ _ _ _ _ _ _ _
 72
    65
 73
     2
 40
0.000291
 49
0.000194
 49
-0.000097
  0
LTYPE
  2
CENTER
 70
    64
  3
____ _ ____ _ ____ _ ____ _ ____ _ ____ _ ____
 72
    65
 73
     4
 40
0.001549
 49
0.000968
 49
-0.000194
 49
0.000194
 49
-0.000194
  0
LTYPE
  2
PHANTOM
 70
    64
  3
_____ _ _ _____ _ _ _____ _ _ _____ _ _ ____
 72
    65
 73
     6
 40
0.001937
 49
0.000968
 49
-0.000194
 49
0.000194
 49
-0.000194
 49
0.000194
 49
-0.000194
  0
LTYPE
  2
DOT
 70
    64
  3
...............................................
 72
    65
 73
     2
 40
0.000194
 49
0.000000
 49
-0.000194
  0
LTYPE
  2
DASHDOT
 70
    64
  3
__ . __ . __ . __ . __ . __ . __ . __ . __ . __
 72
    65
 73
     4
 40
0.000775
 49
0.000387
 49
-0.000194
 49
0.000000
 49
-0.000194
  0
LTYPE
  2
BORDER
 70
    64
  3
__ __ . __ __ . __ __ . __ __ . __ __ . __ __
 72
    65
 73
     6
 40
0.001356
 49
0.000387
 49
-0.000194
 49
0.000387
 49
-0.000194
 49
0.000000
 49
-0.000194
  0
LTYPE
  2
DIVIDE
 70
    64
  3
__ . . __ . . __ . . __ . . __ . . __ . . __
 72
    65
 73
     6
 40
0.000968
 49
0.000387
 49
-0.000194
 49
0.000000
 49
-0.000194
 49
0.000000
 49
-0.000194
  0
LTYPE
  2
DOTDOT
 70
    64
  3
 . .  . .  . .  . .  . .  . . 
 72
    65
 73
     5
 40
0.000426
 49
-0.000194
 49
0.000000
 49
-0.000194
 49
0.000000
 49
-0.000194
  0
ENDTAB
  0
TABLE
  2
STYLE
 70
     4
  0
STYLE
 70
     0
  2
SN0
 40
0.000000
 41
0.000775
 50
0.000000
 71
     0
 42
0.000000
  3
ROMAND
  0
STYLE
 70
    68
  2
SV0
 40
0.000000
 41
0.000775
 50
0.000000
 71
     0
 42
0.000000
  3
ROMAND
  0
STYLE
 70
     0
  2
SN1
 40
0.000000
 41
0.000775
 50
0.000000
 71
     0
 42
0.000000
  3
ROMAND
  0
STYLE
 70
    68
  2
SV1
 40
0.000000
 41
0.000775
 50
0.000000
 71
     0
 42
0.000000
  3
ROMAND
  0
ENDTAB
  0
TABLE
  2
LAYER
 70
     3
  0
LAYER
  2
FOREGROUND
 70
    64
 62
     7
  6
CONTINUOUS
  0
LAYER
  2
BACKGROUND
 70
    65
 62
    -7
  6
CONTINUOUS
  0
LAYER
  2
0
 70
    64
 62
     7
  6
CONTINUOUS
  0
ENDTAB
  0
ENDSEC
  0
SECTION
  2
ENTITIES
  0
POLYLINE
  8
FOREGROUND
  6
CONTINUOUS
 66
     1
 40
0.000000
 41
0.000000
  0
VERTEX
  8
FOREGROUND
  6
CONTINUOUS
 10
0.000000
 20
7.595321
  0
VERTEX
  8
FOREGROUND
  6
CONTINUOUS
 10
8.500190
 20
7.595321
  0
VERTEX
  8
FOREGROUND
  6
CONTINUOUS
 10
8.500190
 20
-3.404879
  0
VERTEX
  8
FOREGROUND
  6
CONTINUOUS
 10
0.000000
 20
-3.404879
  0
VERTEX
  8
FOREGROUND
  6
CONTINUOUS
 10
0.000000
 20
7.595321
  0
SEQEND
  8
0
  0
POLYLINE
  8
FOREGROUND
  6
CONTINUOUS
 66
     1
 40
0.000000
 41
0.000000
  0
VERTEX
  8
FOREGROUND
  6
CONTINUOUS
 10
0.000000
 20
7.595321
  0
VERTEX
  8
FOREGROUND
  6
CONTINUOUS
 10
8.500190
 20
7.595321
  0
VERTEX
  8
FOREGROUND
  6
CONTINUOUS
 10
8.500190
 20
-3.404879
  0
VERTEX
  8
FOREGROUND
  6
CONTINUOUS
 10
0.000000
 20
-3.404879
  0
VERTEX
  8
FOREGROUND
  6
CONTINUOUS
 10
0.000000
 20
7.595321
  0
SEQEND
  8
0
  0
POLYLINE
  8
0
  6
CONTINUOUS
 66
     1
 40
0.013945
 41
0.013945
  0
VERTEX
  8
0
  6
CONTINUOUS
 10
5.967641
 20
6.964702
  0
VERTEX
  8
0
  6
CONTINUOUS
 10
5.967641
 20
6.949207
  0
VERTEX
  8
0
  6
CONTINUOUS
 10
5.967641
 20
6.956954
  0
VERTEX
  8
0
  6
CONTINUOUS
 10
5.967641
 20
6.895752
  0
VERTEX
  8
0
  6
CONTINUOUS
 10
5.895593
 20
6.901175
  0
VERTEX
  8
0
  6
CONTINUOUS
 10
5.843687
 20
6.895752
  0
VERTEX
  8
0
  6
CONTINUOUS
 10
5.815022
 20
6.887230
  0
VERTEX
  8
0
  6
CONTINUOUS
 10
5.767765
 20
6.863214
  0
VERTEX
  8
0
  6
CONTINUOUS
 10
5.665502
 20
6.781094
  0
VERTEX
  8
0
  6
CONTINUOUS
 10
5.639936
 20
6.765600
  0
VERTEX
  8
0
  6
CONTINUOUS
 10
5.593453
 20
6.747006
  0
VERTEX
  8
0
  6
CONTINUOUS
 10
5.535350
 20
6.735386
  0
VERTEX
  8
0
  6
CONTINUOUS
 10
5.488867
 20
6.731512
  0
VERTEX
  8
0
  6
CONTINUOUS
 10
5.488867
 20
6.655590
  0
VERTEX
  8
0
  6
CONTINUOUS
 10
3.045411
 20
6.655590
  0
VERTEX
  8
0
  6
CONTINUOUS
 10
3.045411
 20
6.654040
  0
VERTEX
  8
0
  6
CONTINUOUS
 10
3.045411
 20
6.735386
  0
VERTEX
  8
0
  6
CONTINUOUS
 10
3.043861
 20
6.738484
  0
VERTEX
  8
0
  6
CONTINUOUS
 10
2.975686
 20
6.745457
  0
VERTEX
  8
0
  6
CONTINUOUS
 10
2.922231
 20
6.759402
  0
VERTEX
  8
0
  6
CONTINUOUS
 10
2.865676
 20
6.787292
  0
VERTEX
  8
0
  6
CONTINUOUS
 10
2.760315
 20
6.869412
  0
VERTEX
  8
0
  6
CONTINUOUS
 10
2.712283
 20
6.894202
  0
VERTEX
  8
0
  6
CONTINUOUS
 10
2.667349
 20
6.904274
  0
VERTEX
  8
0
  6
CONTINUOUS
 10
2.630937
 20
6.907373
  0
VERTEX
  8
0
  6
CONTINUOUS
 10
2.565086
 20
6.901950
  0
VERTEX
  8
0
  6
CONTINUOUS
 10
2.565086
 20
6.963927
  0
VERTEX
  8
0
  6
CONTINUOUS
 10
1.812062
 20
6.964702
  0
VERTEX
  8
0
  6
CONTINUOUS
 10
1.810513
 20
6.966251
  0
VERTEX
  8
0
  6
CONTINUOUS
 10
1.774101
 20
6.966251
  0
VERTEX
  8
0
  6
CONTINUOUS
 10
1.774101
 20
6.946108
  0
VERTEX
  8
0
  6
CONTINUOUS
 10
1.774101
 20
6.953856
  0
VERTEX
  8
0
  6
CONTINUOUS
 10
1.774101
 20
6.217875
  0
VERTEX
  8
0
  6
CONTINUOUS
 10
1.790370
 20
6.217875
  0
VERTEX
  8
0
  6
CONTINUOUS
 10
1.790370
 20
6.219424
  0
VERTEX
  8
0
  6
CONTINUOUS
 10
6.760951
 20
6.219424
  0
VERTEX
  8
0
  6
CONTINUOUS
 10
6.760951
 20
6.955405
  0
VERTEX
  8
0
  6
CONTINUOUS
 10
6.760951
 20
6.953081
  0
VERTEX
  8
0
  6
CONTINUOUS
 10
6.760951
 20
6.964702
  0
VERTEX
  8
0
  6
CONTINUOUS
 10
5.967641
 20
6.964702
  0
VERTEX
  8
0
  6
CONTINUOUS
 10
5.982361
 20
6.964702
  0
VERTEX
  8
0
  6
CONTINUOUS
 10
5.967641
 20
6.964702
  0
SEQEND
  8
0
  0
TEXT
  8
0
 10
19.336150
 20
0.354045
 40
0.010488
  1
B242
 41
1.000000
  7
SN0
 71
     0
 72
     5
 11
19.362554
 21
0.354045
  0
SOLID
  8
0
 62
    15
 10
3.381638
 20
4.830358
 11
3.385511
 21
5.585706
 12
3.383187
 22
4.828033
 13
3.387061
 23
5.583382
  0
POLYLINE
  8
0
  6
CONTINUOUS
 66
     1
 40
0.000000
 41
0.000000
  0
VERTEX
  8
0
  6
CONTINUOUS
 10
3.381638
 20
4.830358
  0
VERTEX
  8
0
  6
CONTINUOUS
 10
3.385511
 20
5.585706
  0
VERTEX
  8
0
  6
CONTINUOUS
 10
3.387061
 20
5.583382
  0
VERTEX
  8
0
  6
CONTINUOUS
 10
3.383187
 20
4.828033
  0
VERTEX
  8
0
  6
CONTINUOUS
 10
3.381638
 20
4.830358
  0
SEQEND
  8
0
  0
SOLID
  8
0
 62
    15
 10
7.099502
 20
5.057350
 11
7.102601
 21
5.812698
 12
7.099502
 22
4.312072
 13
7.102601
 23
5.067421
  0
POLYLINE
  8
0
  6
CONTINUOUS
 66
     1
 40
0.000000
 41
0.000000
  0
VERTEX
  8
0
  6
CONTINUOUS
 10
7.099502
 20
5.057350
  0
VERTEX
  8
0
  6
CONTINUOUS
 10
7.102601
 20
5.812698
  0
VERTEX
  8
0
  6
CONTINUOUS
 10
7.102601
 20
5.067421
  0
VERTEX
  8
0
  6
CONTINUOUS
 10
7.099502
 20
4.312072
  0
VERTEX
  8
0
  6
CONTINUOUS
 10
7.099502
 20
5.057350
  0
SEQEND
  8
0
  0
SOLID
  8
0
 62
    15
 10
2.112652
 20
5.058899
 11
2.116526
 21
5.813473
 12
2.148289
 22
5.058899
 13
2.152163
 23
5.813473
  0
POLYLINE
  8
0
  6
CONTINUOUS
 66
     1
 40
0.000000
 41
0.000000
  0
VERTEX
  8
0
  6
CONTINUOUS
 10
2.112652
 20
5.058899
  0
VERTEX
  8
0
  6
CONTINUOUS
 10
2.116526
 20
5.813473
  0
VERTEX
  8
0
  6
CONTINUOUS
 10
2.152163
 20
5.813473
  0
VERTEX
  8
0
  6
CONTINUOUS
 10
2.148289
 20
5.058899
  0
VERTEX
  8
0
  6
CONTINUOUS
 10
2.112652
 20
5.058899
  0
SEQEND
  8
0
  0
SOLID
  8
0
 62
    15
 10
2.148289
 20
5.058899
 11
2.152163
 21
5.813473
 12
2.149838
 22
5.057350
 13
2.153712
 23
5.812698
  0
POLYLINE
  8
0
  6
CONTINUOUS
 66
     1
 40
0.000000
 41
0.000000
  0
VERTEX
  8
0
  6
CONTINUOUS
 10
2.148289
 20
5.058899
  0
VERTEX
  8
0
  6
CONTINUOUS
 10
2.152163
 20
5.813473
  0
VERTEX
  8
0
  6
CONTINUOUS
 10
2.153712
 20
5.812698
  0
VERTEX
  8
0
  6
CONTINUOUS
 10
2.149838
 20
5.057350
  0
VERTEX
  8
0
  6
CONTINUOUS
 10
2.148289
 20
5.058899
  0
SEQEND
  8
0
  0
SOLID
  8
0
 62
    15
 10
2.149838
 20
5.057350
 11
2.153712
 21
5.812698
 12
2.895116
 22
5.057350
 13
2.898989
 23
5.812698
  0
POLYLINE
  8
0
  6
CONTINUOUS
 66
     1
 40
0.000000
 41
0.000000
  0
VERTEX
  8
0
  6
CONTINUOUS
 10
2.149838
 20
5.057350
  0
VERTEX
  8
0
  6
CONTINUOUS
 10
2.153712
 20
5.812698
  0
VERTEX
  8
0
  6
CONTINUOUS
 10
2.898989
 20
5.812698
  0
VERTEX
  8
0
  6
CONTINUOUS
 10
2.895116
 20
5.057350
  0
VERTEX
  8
0
  6
CONTINUOUS
 10
2.149838
 20
5.057350
  0
SEQEND
  8
0
  0
SOLID
  8
0
 62
    15
 10
2.895116
 20
5.057350
 11
2.898989
 21
5.812698
 12
2.902863
 22
5.055800
 13
2.906736
 23
5.811149
  0
POLYLINE
  8
0
  6
CONTINUOUS
 66
     1
 40
0.000000
 41
0.000000
  0
VERTEX
  8
0
  6
CONTINUOUS
 10
2.895116
 20
5.057350
  0
VERTEX
  8
0
  6
CONTINUOUS
 10
2.898989
 20
5.812698
  0
VERTEX
  8
0
  6
CONTINUOUS
 10
2.906736
 20
5.811149
  0
VERTEX
  8
0
  6
CONTINUOUS
 10
2.902863
 20
5.055800
  0
VERTEX
  8
0
  6
CONTINUOUS
 10
2.895116
 20
5.057350
  0
SEQEND
  8
0
  0
SOLID
  8
0
 62
    15
 10
2.902863
 20
5.055800
 11
2.906736
 21
5.811149
 12
2.902863
 22
4.994598
 13
2.906736
 23
5.749946
  0
POLYLINE
  8
0
  6
CONTINUOUS
 66
     1
 40
0.000000
 41
0.000000
  0
VERTEX
  8
0
  6
CONTINUOUS
 10
2.902863
 20
5.055800
  0
VERTEX
  8
0
  6
CONTINUOUS
 10
2.906736
 20
5.811149
  0
VERTEX
  8
0
  6
CONTINUOUS
 10
2.906736
 20
5.749946
  0
VERTEX
  8
0
  6
CONTINUOUS
 10
2.902863
 20
4.994598
  0
VERTEX
  8
0
  6
CONTINUOUS
 10
2.902863
 20
5.055800
  0
SEQEND
  8
0
  0
SOLID
  8
0
 62
    15
 10
2.902863
 20
4.994598
 11
2.906736
 21
5.749946
 12
2.948571
 22
4.999246
 13
2.952445
 23
5.754594
  0
POLYLINE
  8
0
  6
CONTINUOUS
 66
     1
 40
0.000000
 41
0.000000
  0
VERTEX
  8
0
  6
CONTINUOUS
 10
2.902863
 20
4.994598
  0
VERTEX
  8
0
  6
CONTINUOUS
 10
2.906736
 20
5.749946
  0
VERTEX
  8
0
  6
CONTINUOUS
 10
2.952445
 20
5.754594
  0
VERTEX
  8
0
  6
CONTINUOUS
 10
2.948571
 20
4.999246
  0
VERTEX
  8
0
  6
CONTINUOUS
 10
2.902863
 20
4.994598
  0
SEQEND
  8
0
  0
SOLID
  8
0
 62
    15
 10
2.948571
 20
4.999246
 11
2.952445
 21
5.754594
 12
2.987307
 22
4.999246
 13
2.991181
 23
5.753820
  0
POLYLINE
  8
0
  6
CONTINUOUS
 66
     1
 40
0.000000
 41
0.000000
  0
VERTEX
  8
0
  6
CONTINUOUS
 10
2.948571
 20
4.999246
  0
VERTEX
  8
0
  6
CONTINUOUS
 10
2.952445
 20
5.754594
  0
VERTEX
  8
0
  6
CONTINUOUS
 10
2.991181
 20
5.753820
  0
VERTEX
  8
0
  6
CONTINUOUS
 10
2.987307
 20
4.999246
  0
VERTEX
  8
0
  6
CONTINUOUS
 10
2.948571
 20
4.999246
  0
SEQEND
  8
0
  0
SOLID
  8
0
 62
    15
 10
2.987307
 20
4.999246
 11
2.991181
 21
5.753820
 12
3.021394
 22
4.994598
 13
3.025268
 23
5.749946
  0
POLYLINE
  8
0
  6
CONTINUOUS
 66
     1
 40
0.000000
 41
0.000000
  0
VERTEX
  8
0
  6
CONTINUOUS
 10
2.987307
 20
4.999246
  0
VERTEX
  8
0
  6
CONTINUOUS
 10
2.991181
 20
5.753820
  0
VERTEX
  8
0
  6
CONTINUOUS
 10
3.025268
 20
5.749946
  0
VERTEX
  8
0
  6
CONTINUOUS
 10
3.021394
 20
4.994598
  0
VERTEX
  8
0
  6
CONTINUOUS
 10
2.987307
 20
4.999246
  0
SEQEND
  8
0
  0
SOLID
  8
0
 62
    15
 10
3.021394
 20
4.994598
 11
3.025268
 21
5.749946
 12
3.050059
 22
4.986076
 13
3.053933
 23
5.741424
  0
POLYLINE
  8
0
  6
CONTINUOUS
 66
     1
 40
0.000000
 41
0.000000
  0
VERTEX
  8
0
  6
CONTINUOUS
 10
3.021394
 20
4.994598
  0
VERTEX
  8
0
  6
CONTINUOUS
 10
3.025268
 20
5.749946
  0
VERTEX
  8
0
  6
CONTINUOUS
 10
3.053933
 20
5.741424
  0
VERTEX
  8
0
  6
CONTINUOUS
 10
3.050059
 20
4.986076
  0
VERTEX
  8
0
  6
CONTINUOUS
 10
3.021394
 20
4.994598
  0
SEQEND
  8
0
  0
SOLID
  8
0
 62
    15
 10
3.050059
 20
4.986076
 11
3.053933
 21
5.741424
 12
3.098091
 22
4.962059
 13
3.101965
 23
5.716633
  0
POLYLINE
  8
0
  6
CONTINUOUS
 66
     1
 40
0.000000
 41
0.000000
  0
VERTEX
  8
0
  6
CONTINUOUS
 10
3.050059
 20
4.986076
  0
VERTEX
  8
0
  6
CONTINUOUS
 10
3.053933
 20
5.741424
  0
VERTEX
  8
0
  6
CONTINUOUS
 10
3.101965
 20
5.716633
  0
VERTEX
  8
0
  6
CONTINUOUS
 10
3.098091
 20
4.962059
  0
VERTEX
  8
0
  6
CONTINUOUS
 10
3.050059
 20
4.986076
  0
SEQEND
  8
0
  0
SOLID
  8
0
 62
    15
 10
3.098091
 20
4.962059
 11
3.101965
 21
5.716633
 12
3.139151
 22
4.930296
 13
3.143025
 23
5.684870
  0
POLYLINE
  8
0
  6
CONTINUOUS
 66
     1
 40
0.000000
 41
0.000000
  0
VERTEX
  8
0
  6
CONTINUOUS
 10
3.098091
 20
4.962059
  0
VERTEX
  8
0
  6
CONTINUOUS
 10
3.101965
 20
5.716633
  0
VERTEX
  8
0
  6
CONTINUOUS
 10
3.143025
 20
5.684870
  0
VERTEX
  8
0
  6
CONTINUOUS
 10
3.139151
 20
4.930296
  0
VERTEX
  8
0
  6
CONTINUOUS
 10
3.098091
 20
4.962059
  0
SEQEND
  8
0
  0
SOLID
  8
0
 62
    15
 10
3.139151
 20
4.930296
 11
3.143025
 21
5.684870
 12
3.180986
 22
4.896209
 13
3.184860
 23
5.651557
  0
POLYLINE
  8
0
  6
CONTINUOUS
 66
     1
 40
0.000000
 41
0.000000
  0
VERTEX
  8
0
  6
CONTINUOUS
 10
3.139151
 20
4.930296
  0
VERTEX
  8
0
  6
CONTINUOUS
 10
3.143025
 20
5.684870
  0
VERTEX
  8
0
  6
CONTINUOUS
 10
3.184860
 20
5.651557
  0
VERTEX
  8
0
  6
CONTINUOUS
 10
3.180986
 20
4.896209
  0
VERTEX
  8
0
  6
CONTINUOUS
 10
3.139151
 20
4.930296
  0
SEQEND
  8
0
  0
SOLID
  8
0
 62
    15
 10
3.180986
 20
4.896209
 11
3.184860
 21
5.651557
 12
3.229793
 22
4.865220
 13
3.233667
 23
5.620568
  0
POLYLINE
  8
0
  6
CONTINUOUS
 66
     1
 40
0.000000
 41
0.000000
  0
VERTEX
  8
0
  6
CONTINUOUS
 10
3.180986
 20
4.896209
  0
VERTEX
  8
0
  6
CONTINUOUS
 10
3.184860
 20
5.651557
  0
VERTEX
  8
0
  6
CONTINUOUS
 10
3.233667
 20
5.620568
  0
VERTEX
  8
0
  6
CONTINUOUS
 10
3.229793
 20
4.865220
  0
VERTEX
  8
0
  6
CONTINUOUS
 10
3.180986
 20
4.896209
  0
SEQEND
  8
0
  0
SOLID
  8
0
 62
    15
 10
3.229793
 20
4.865220
 11
3.233667
 21
5.620568
 12
3.260007
 22
4.852050
 13
3.263881
 23
5.607398
  0
POLYLINE
  8
0
  6
CONTINUOUS
 66
     1
 40
0.000000
 41
0.000000
  0
VERTEX
  8
0
  6
CONTINUOUS
 10
3.229793
 20
4.865220
  0
VERTEX
  8
0
  6
CONTINUOUS
 10
3.233667
 20
5.620568
  0
VERTEX
  8
0
  6
CONTINUOUS
 10
3.263881
 20
5.607398
  0
VERTEX
  8
0
  6
CONTINUOUS
 10
3.260007
 20
4.852050
  0
VERTEX
  8
0
  6
CONTINUOUS
 10
3.229793
 20
4.865220
  0
SEQEND
  8
0
  0
SOLID
  8
0
 62
    15
 10
3.260007
 20
4.852050
 11
3.263881
 21
5.607398
 12
3.294869
 22
4.841204
 13
3.297968
 23
5.596552
  0
POLYLINE
  8
0
  6
CONTINUOUS
 66
     1
 40
0.000000
 41
0.000000
  0
VERTEX
  8
0
  6
CONTINUOUS
 10
3.260007
 20
4.852050
  0
VERTEX
  8
0
  6
CONTINUOUS
 10
3.263881
 20
5.607398
  0
VERTEX
  8
0
  6
CONTINUOUS
 10
3.297968
 20
5.596552
  0
VERTEX
  8
0
  6
CONTINUOUS
 10
3.294869
 20
4.841204
  0
VERTEX
  8
0
  6
CONTINUOUS
 10
3.260007
 20
4.852050
  0
SEQEND
  8
0
  0
SOLID
  8
0
 62
    15
 10
3.294869
 20
4.841204
 11
3.297968
 21
5.596552
 12
3.335155
 22
4.834231
 13
3.338254
 23
5.589580
  0
POLYLINE
  8
0
  6
CONTINUOUS
 66
     1
 40
0.000000
 41
0.000000
  0
VERTEX
  8
0
  6
CONTINUOUS
 10
3.294869
 20
4.841204
  0
VERTEX
  8
0
  6
CONTINUOUS
 10
3.297968
 20
5.596552
  0
VERTEX
  8
0
  6
CONTINUOUS
 10
3.338254
 20
5.589580
  0
VERTEX
  8
0
  6
CONTINUOUS
 10
3.335155
 20
4.834231
  0
VERTEX
  8
0
  6
CONTINUOUS
 10
3.294869
 20
4.841204
  0
SEQEND
  8
0
  0
SOLID
  8
0
 62
    15
 10
3.335155
 20
4.834231
 11
3.338254
 21
5.589580
 12
3.381638
 22
4.830358
 13
3.385511
 23
5.585706
  0
POLYLINE
  8
0
  6
CONTINUOUS
 66
     1
 40
0.000000
 41
0.000000
  0
VERTEX
  8
0
  6
CONTINUOUS
 10
3.335155
 20
4.834231
  0
VERTEX
  8
0
  6
CONTINUOUS
 10
3.338254
 20
5.589580
  0
VERTEX
  8
0
  6
CONTINUOUS
 10
3.385511
 20
5.585706
  0
VERTEX
  8
0
  6
CONTINUOUS
 10
3.381638
 20
4.830358
  0
VERTEX
  8
0
  6
CONTINUOUS
 10
3.335155
 20
4.834231
  0
SEQEND
  8
0
  0
SOLID
  8
0
 62
    15
 10
6.320137
 20
5.057350
 11
6.324011
 21
5.812698
 12
7.099502
 22
5.057350
 13
7.102601
 23
5.812698
  0
POLYLINE
  8
0
  6
CONTINUOUS
 66
     1
 40
0.000000
 41
0.000000
  0
VERTEX
  8
0
  6
CONTINUOUS
 10
6.320137
 20
5.057350
  0
VERTEX
  8
0
  6
CONTINUOUS
 10
6.324011
 20
5.812698
  0
VERTEX
  8
0
  6
CONTINUOUS
 10
7.102601
 20
5.812698
  0
VERTEX
  8
0
  6
CONTINUOUS
 10
7.099502
 20
5.057350
  0
VERTEX
  8
0
  6
CONTINUOUS
 10
6.320137
 20
5.057350
  0
SEQEND
  8
0
  0
SOLID
  8
0
 62
    15
 10
3.383187
 20
4.828033
 11
3.387061
 21
5.583382
 12
3.383187
 22
4.748238
 13
3.387061
 23
5.502812
  0
POLYLINE
  8
0
  6
CONTINUOUS
 66
     1
 40
0.000000
 41
0.000000
  0
VERTEX
  8
0
  6
CONTINUOUS
 10
3.383187
 20
4.828033
  0
VERTEX
  8
0
  6
CONTINUOUS
 10
3.387061
 20
5.583382
  0
VERTEX
  8
0
  6
CONTINUOUS
 10
3.387061
 20
5.502812
  0
VERTEX
  8
0
  6
CONTINUOUS
 10
3.383187
 20
4.748238
  0
VERTEX
  8
0
  6
CONTINUOUS
 10
3.383187
 20
4.828033
  0
SEQEND
  8
0
  0
SOLID
  8
0
 62
    15
 10
3.383187
 20
4.748238
 11
3.387061
 21
5.502812
 12
5.827418
 22
4.748238
 13
5.830517
 23
5.502812
  0
POLYLINE
  8
0
  6
CONTINUOUS
 66
     1
 40
0.000000
 41
0.000000
  0
VERTEX
  8
0
  6
CONTINUOUS
 10
3.383187
 20
4.748238
  0
VERTEX
  8
0
  6
CONTINUOUS
 10
3.387061
 20
5.502812
  0
VERTEX
  8
0
  6
CONTINUOUS
 10
5.830517
 20
5.502812
  0
VERTEX
  8
0
  6
CONTINUOUS
 10
5.827418
 20
4.748238
  0
VERTEX
  8
0
  6
CONTINUOUS
 10
3.383187
 20
4.748238
  0
SEQEND
  8
0
  0
SOLID
  8
0
 62
    15
 10
5.825868
 20
4.821061
 11
5.829742
 21
5.576410
 12
5.827418
 22
4.824160
 13
5.830517
 23
5.578734
  0
POLYLINE
  8
0
  6
CONTINUOUS
 66
     1
 40
0.000000
 41
0.000000
  0
VERTEX
  8
0
  6
CONTINUOUS
 10
5.825868
 20
4.821061
  0
VERTEX
  8
0
  6
CONTINUOUS
 10
5.829742
 20
5.576410
  0
VERTEX
  8
0
  6
CONTINUOUS
 10
5.830517
 20
5.578734
  0
VERTEX
  8
0
  6
CONTINUOUS
 10
5.827418
 20
4.824160
  0
VERTEX
  8
0
  6
CONTINUOUS
 10
5.825868
 20
4.821061
  0
SEQEND
  8
0
  0
SOLID
  8
0
 62
    15
 10
5.827418
 20
4.824160
 11
5.830517
 21
5.578734
 12
5.873901
 22
4.827259
 13
5.877774
 23
5.582607
  0
POLYLINE
  8
0
  6
CONTINUOUS
 66
     1
 40
0.000000
 41
0.000000
  0
VERTEX
  8
0
  6
CONTINUOUS
 10
5.827418
 20
4.824160
  0
VERTEX
  8
0
  6
CONTINUOUS
 10
5.830517
 20
5.578734
  0
VERTEX
  8
0
  6
CONTINUOUS
 10
5.877774
 20
5.582607
  0
VERTEX
  8
0
  6
CONTINUOUS
 10
5.873901
 20
4.827259
  0
VERTEX
  8
0
  6
CONTINUOUS
 10
5.827418
 20
4.824160
  0
SEQEND
  8
0
  0
SOLID
  8
0
 62
    15
 10
5.873901
 20
4.827259
 11
5.877774
 21
5.582607
 12
5.914186
 22
4.835006
 13
5.918060
 23
5.590355
  0
POLYLINE
  8
0
  6
CONTINUOUS
 66
     1
 40
0.000000
 41
0.000000
  0
VERTEX
  8
0
  6
CONTINUOUS
 10
5.873901
 20
4.827259
  0
VERTEX
  8
0
  6
CONTINUOUS
 10
5.877774
 20
5.582607
  0
VERTEX
  8
0
  6
CONTINUOUS
 10
5.918060
 20
5.590355
  0
VERTEX
  8
0
  6
CONTINUOUS
 10
5.914186
 20
4.835006
  0
VERTEX
  8
0
  6
CONTINUOUS
 10
5.873901
 20
4.827259
  0
SEQEND
  8
0
  0
SOLID
  8
0
 62
    15
 10
5.914186
 20
4.835006
 11
5.918060
 21
5.590355
 12
5.948274
 22
4.845077
 13
5.952147
 23
5.600426
  0
POLYLINE
  8
0
  6
CONTINUOUS
 66
     1
 40
0.000000
 41
0.000000
  0
VERTEX
  8
0
  6
CONTINUOUS
 10
5.914186
 20
4.835006
  0
VERTEX
  8
0
  6
CONTINUOUS
 10
5.918060
 20
5.590355
  0
VERTEX
  8
0
  6
CONTINUOUS
 10
5.952147
 20
5.600426
  0
VERTEX
  8
0
  6
CONTINUOUS
 10
5.948274
 20
4.845077
  0
VERTEX
  8
0
  6
CONTINUOUS
 10
5.914186
 20
4.835006
  0
SEQEND
  8
0
  0
SOLID
  8
0
 62
    15
 10
5.948274
 20
4.845077
 11
5.952147
 21
5.600426
 12
5.977713
 22
4.858247
 13
5.981586
 23
5.613596
  0
POLYLINE
  8
0
  6
CONTINUOUS
 66
     1
 40
0.000000
 41
0.000000
  0
VERTEX
  8
0
  6
CONTINUOUS
 10
5.948274
 20
4.845077
  0
VERTEX
  8
0
  6
CONTINUOUS
 10
5.952147
 20
5.600426
  0
VERTEX
  8
0
  6
CONTINUOUS
 10
5.981586
 20
5.613596
  0
VERTEX
  8
0
  6
CONTINUOUS
 10
5.977713
 20
4.858247
  0
VERTEX
  8
0
  6
CONTINUOUS
 10
5.948274
 20
4.845077
  0
SEQEND
  8
0
  0
SOLID
  8
0
 62
    15
 10
5.977713
 20
4.858247
 11
5.981586
 21
5.613596
 12
6.025745
 22
4.889236
 13
6.029619
 23
5.644585
  0
POLYLINE
  8
0
  6
CONTINUOUS
 66
     1
 40
0.000000
 41
0.000000
  0
VERTEX
  8
0
  6
CONTINUOUS
 10
5.977713
 20
4.858247
  0
VERTEX
  8
0
  6
CONTINUOUS
 10
5.981586
 20
5.613596
  0
VERTEX
  8
0
  6
CONTINUOUS
 10
6.029619
 20
5.644585
  0
VERTEX
  8
0
  6
CONTINUOUS
 10
6.025745
 20
4.889236
  0
VERTEX
  8
0
  6
CONTINUOUS
 10
5.977713
 20
4.858247
  0
SEQEND
  8
0
  0
SOLID
  8
0
 62
    15
 10
6.025745
 20
4.889236
 11
6.029619
 21
5.644585
 12
6.066030
 22
4.923324
 13
6.069904
 23
5.678672
  0
POLYLINE
  8
0
  6
CONTINUOUS
 66
     1
 40
0.000000
 41
0.000000
  0
VERTEX
  8
0
  6
CONTINUOUS
 10
6.025745
 20
4.889236
  0
VERTEX
  8
0
  6
CONTINUOUS
 10
6.029619
 20
5.644585
  0
VERTEX
  8
0
  6
CONTINUOUS
 10
6.069904
 20
5.678672
  0
VERTEX
  8
0
  6
CONTINUOUS
 10
6.066030
 20
4.923324
  0
VERTEX
  8
0
  6
CONTINUOUS
 10
6.025745
 20
4.889236
  0
SEQEND
  8
0
  0
SOLID
  8
0
 62
    15
 10
6.066030
 20
4.923324
 11
6.069904
 21
5.678672
 12
6.106316
 22
4.955087
 13
6.109415
 23
5.710436
  0
POLYLINE
  8
0
  6
CONTINUOUS
 66
     1
 40
0.000000
 41
0.000000
  0
VERTEX
  8
0
  6
CONTINUOUS
 10
6.066030
 20
4.923324
  0
VERTEX
  8
0
  6
CONTINUOUS
 10
6.069904
 20
5.678672
  0
VERTEX
  8
0
  6
CONTINUOUS
 10
6.109415
 20
5.710436
  0
VERTEX
  8
0
  6
CONTINUOUS
 10
6.106316
 20
4.955087
  0
VERTEX
  8
0
  6
CONTINUOUS
 10
6.066030
 20
4.923324
  0
SEQEND
  8
0
  0
SOLID
  8
0
 62
    15
 10
6.106316
 20
4.955087
 11
6.109415
 21
5.710436
 12
6.128008
 22
4.969032
 13
6.131881
 23
5.723606
  0
POLYLINE
  8
0
  6
CONTINUOUS
 66
     1
 40
0.000000
 41
0.000000
  0
VERTEX
  8
0
  6
CONTINUOUS
 10
6.106316
 20
4.955087
  0
VERTEX
  8
0
  6
CONTINUOUS
 10
6.109415
 20
5.710436
  0
VERTEX
  8
0
  6
CONTINUOUS
 10
6.131881
 20
5.723606
  0
VERTEX
  8
0
  6
CONTINUOUS
 10
6.128008
 20
4.969032
  0
VERTEX
  8
0
  6
CONTINUOUS
 10
6.106316
 20
4.955087
  0
SEQEND
  8
0
  0
SOLID
  8
0
 62
    15
 10
6.128008
 20
4.969032
 11
6.131881
 21
5.723606
 12
6.152799
 22
4.979878
 13
6.156672
 23
5.735227
  0
POLYLINE
  8
0
  6
CONTINUOUS
 66
     1
 40
0.000000
 41
0.000000
  0
VERTEX
  8
0
  6
CONTINUOUS
 10
6.128008
 20
4.969032
  0
VERTEX
  8
0
  6
CONTINUOUS
 10
6.131881
 20
5.723606
  0
VERTEX
  8
0
  6
CONTINUOUS
 10
6.156672
 20
5.735227
  0
VERTEX
  8
0
  6
CONTINUOUS
 10
6.152799
 20
4.979878
  0
VERTEX
  8
0
  6
CONTINUOUS
 10
6.128008
 20
4.969032
  0
SEQEND
  8
0
  0
SOLID
  8
0
 62
    15
 10
6.152799
 20
4.979878
 11
6.156672
 21
5.735227
 12
6.181463
 22
4.987625
 13
6.185337
 23
5.742974
  0
POLYLINE
  8
0
  6
CONTINUOUS
 66
     1
 40
0.000000
 41
0.000000
  0
VERTEX
  8
0
  6
CONTINUOUS
 10
6.152799
 20
4.979878
  0
VERTEX
  8
0
  6
CONTINUOUS
 10
6.156672
 20
5.735227
  0
VERTEX
  8
0
  6
CONTINUOUS
 10
6.185337
 20
5.742974
  0
VERTEX
  8
0
  6
CONTINUOUS
 10
6.181463
 20
4.987625
  0
VERTEX
  8
0
  6
CONTINUOUS
 10
6.152799
 20
4.979878
  0
SEQEND
  8
0
  0
SOLID
  8
0
 62
    15
 10
6.181463
 20
4.987625
 11
6.185337
 21
5.742974
 12
6.214776
 22
4.992273
 13
6.218650
 23
5.747622
  0
POLYLINE
  8
0
  6
CONTINUOUS
 66
     1
 40
0.000000
 41
0.000000
  0
VERTEX
  8
0
  6
CONTINUOUS
 10
6.181463
 20
4.987625
  0
VERTEX
  8
0
  6
CONTINUOUS
 10
6.185337
 20
5.742974
  0
VERTEX
  8
0
  6
CONTINUOUS
 10
6.218650
 20
5.747622
  0
VERTEX
  8
0
  6
CONTINUOUS
 10
6.214776
 20
4.992273
  0
VERTEX
  8
0
  6
CONTINUOUS
 10
6.181463
 20
4.987625
  0
SEQEND
  8
0
  0
SOLID
  8
0
 62
    15
 10
6.214776
 20
4.992273
 11
6.218650
 21
5.747622
 12
6.253512
 22
4.992273
 13
6.257385
 23
5.747622
  0
POLYLINE
  8
0
  6
CONTINUOUS
 66
     1
 40
0.000000
 41
0.000000
  0
VERTEX
  8
0
  6
CONTINUOUS
 10
6.214776
 20
4.992273
  0
VERTEX
  8
0
  6
CONTINUOUS
 10
6.218650
 20
5.747622
  0
VERTEX
  8
0
  6
CONTINUOUS
 10
6.257385
 20
5.747622
  0
VERTEX
  8
0
  6
CONTINUOUS
 10
6.253512
 20
4.992273
  0
VERTEX
  8
0
  6
CONTINUOUS
 10
6.214776
 20
4.992273
  0
SEQEND
  8
0
  0
SOLID
  8
0
 62
    15
 10
6.253512
 20
4.992273
 11
6.257385
 21
5.747622
 12
6.299220
 22
4.987625
 13
6.303094
 23
5.742974
  0
POLYLINE
  8
0
  6
CONTINUOUS
 66
     1
 40
0.000000
 41
0.000000
  0
VERTEX
  8
0
  6
CONTINUOUS
 10
6.253512
 20
4.992273
  0
VERTEX
  8
0
  6
CONTINUOUS
 10
6.257385
 20
5.747622
  0
VERTEX
  8
0
  6
CONTINUOUS
 10
6.303094
 20
5.742974
  0
VERTEX
  8
0
  6
CONTINUOUS
 10
6.299220
 20
4.987625
  0
VERTEX
  8
0
  6
CONTINUOUS
 10
6.253512
 20
4.992273
  0
SEQEND
  8
0
  0
SOLID
  8
0
 62
    15
 10
6.299220
 20
4.987625
 11
6.303094
 21
5.742974
 12
6.306193
 22
4.987625
 13
6.309291
 23
5.742974
  0
POLYLINE
  8
0
  6
CONTINUOUS
 66
     1
 40
0.000000
 41
0.000000
  0
VERTEX
  8
0
  6
CONTINUOUS
 10
6.299220
 20
4.987625
  0
VERTEX
  8
0
  6
CONTINUOUS
 10
6.303094
 20
5.742974
  0
VERTEX
  8
0
  6
CONTINUOUS
 10
6.309291
 20
5.742974
  0
VERTEX
  8
0
  6
CONTINUOUS
 10
6.306193
 20
4.987625
  0
VERTEX
  8
0
  6
CONTINUOUS
 10
6.299220
 20
4.987625
  0
SEQEND
  8
0
  0
SOLID
  8
0
 62
    15
 10
6.306193
 20
5.057350
 11
6.309291
 21
5.812698
 12
6.320137
 22
5.057350
 13
6.324011
 23
5.812698
  0
POLYLINE
  8
0
  6
CONTINUOUS
 66
     1
 40
0.000000
 41
0.000000
  0
VERTEX
  8
0
  6
CONTINUOUS
 10
6.306193
 20
5.057350
  0
VERTEX
  8
0
  6
CONTINUOUS
 10
6.309291
 20
5.812698
  0
VERTEX
  8
0
  6
CONTINUOUS
 10
6.324011
 20
5.812698
  0
VERTEX
  8
0
  6
CONTINUOUS
 10
6.320137
 20
5.057350
  0
VERTEX
  8
0
  6
CONTINUOUS
 10
6.306193
 20
5.057350
  0
SEQEND
  8
0
  0
POLYLINE
  8
0
  6
CONTINUOUS
 66
     1
 40
0.000000
 41
0.000000
  0
VERTEX
  8
0
  6
CONTINUOUS
 10
6.320137
 20
5.057350
  0
VERTEX
  8
0
  6
CONTINUOUS
 10
7.099502
 20
5.057350
  0
VERTEX
  8
0
  6
CONTINUOUS
 10
7.099502
 20
4.312072
  0
VERTEX
  8
0
  6
CONTINUOUS
 10
2.128921
 20
4.312072
  0
VERTEX
  8
0
  6
CONTINUOUS
 10
2.128146
 20
4.310523
  0
VERTEX
  8
0
  6
CONTINUOUS
 10
2.112652
 20
4.310523
  0
VERTEX
  8
0
  6
CONTINUOUS
 10
2.112652
 20
5.058899
  0
VERTEX
  8
0
  6
CONTINUOUS
 10
2.148289
 20
5.058899
  0
VERTEX
  8
0
  6
CONTINUOUS
 10
2.149838
 20
5.057350
  0
VERTEX
  8
0
  6
CONTINUOUS
 10
2.895116
 20
5.057350
  0
VERTEX
  8
0
  6
CONTINUOUS
 10
2.902863
 20
5.055800
  0
VERTEX
  8
0
  6
CONTINUOUS
 10
2.902863
 20
4.994598
  0
VERTEX
  8
0
  6
CONTINUOUS
 10
2.948571
 20
4.999246
  0
VERTEX
  8
0
  6
CONTINUOUS
 10
2.987307
 20
4.999246
  0
VERTEX
  8
0
  6
CONTINUOUS
 10
3.021394
 20
4.994598
  0
VERTEX
  8
0
  6
CONTINUOUS
 10
3.050059
 20
4.986076
  0
VERTEX
  8
0
  6
CONTINUOUS
 10
3.098091
 20
4.962059
  0
VERTEX
  8
0
  6
CONTINUOUS
 10
3.139151
 20
4.930296
  0
VERTEX
  8
0
  6
CONTINUOUS
 10
3.180986
 20
4.896209
  0
VERTEX
  8
0
  6
CONTINUOUS
 10
3.229793
 20
4.865220
  0
VERTEX
  8
0
  6
CONTINUOUS
 10
3.260007
 20
4.852050
  0
VERTEX
  8
0
  6
CONTINUOUS
 10
3.294869
 20
4.841204
  0
VERTEX
  8
0
  6
CONTINUOUS
 10
3.335155
 20
4.834231
  0
VERTEX
  8
0
  6
CONTINUOUS
 10
3.381638
 20
4.830358
  0
VERTEX
  8
0
  6
CONTINUOUS
 10
3.383187
 20
4.828033
  0
VERTEX
  8
0
  6
CONTINUOUS
 10
3.383187
 20
4.748238
  0
VERTEX
  8
0
  6
CONTINUOUS
 10
5.827418
 20
4.748238
  0
VERTEX
  8
0
  6
CONTINUOUS
 10
5.825868
 20
4.750562
  0
VERTEX
  8
0
  6
CONTINUOUS
 10
5.825868
 20
4.821061
  0
VERTEX
  8
0
  6
CONTINUOUS
 10
5.827418
 20
4.824160
  0
VERTEX
  8
0
  6
CONTINUOUS
 10
5.873901
 20
4.827259
  0
VERTEX
  8
0
  6
CONTINUOUS
 10
5.914186
 20
4.835006
  0
VERTEX
  8
0
  6
CONTINUOUS
 10
5.948274
 20
4.845077
  0
VERTEX
  8
0
  6
CONTINUOUS
 10
5.977713
 20
4.858247
  0
VERTEX
  8
0
  6
CONTINUOUS
 10
6.025745
 20
4.889236
  0
VERTEX
  8
0
  6
CONTINUOUS
 10
6.066030
 20
4.923324
  0
VERTEX
  8
0
  6
CONTINUOUS
 10
6.106316
 20
4.955087
  0
VERTEX
  8
0
  6
CONTINUOUS
 10
6.128008
 20
4.969032
  0
VERTEX
  8
0
  6
CONTINUOUS
 10
6.152799
 20
4.979878
  0
VERTEX
  8
0
  6
CONTINUOUS
 10
6.181463
 20
4.987625
  0
VERTEX
  8
0
  6
CONTINUOUS
 10
6.214776
 20
4.992273
  0
VERTEX
  8
0
  6
CONTINUOUS
 10
6.253512
 20
4.992273
  0
VERTEX
  8
0
  6
CONTINUOUS
 10
6.299220
 20
4.987625
  0
VERTEX
  8
0
  6
CONTINUOUS
 10
6.306193
 20
4.987625
  0
VERTEX
  8
0
  6
CONTINUOUS
 10
6.306193
 20
5.057350
  0
VERTEX
  8
0
  6
CONTINUOUS
 10
6.320137
 20
5.057350
  0
SEQEND
  8
0
  0
TEXT
  8
0
 10
4.312847
 20
4.042471
 40
0.133929
  1
BA  231
 41
1.000000
  7
SN1
 71
     0
 72
     5
 11
4.894604
 21
4.042471
  0
TEXT
  8
0
 10
4.299677
 20
3.851116
 40
0.133929
  1
3/4" x 5"
 41
1.000000
  7
SN1
 71
     0
 72
     5
 11
4.906077
 21
3.851116
  0
TEXT
  8
0
 10
7.690611
 20
7.097178
 40
0.133929
  1
case
 41
1.000000
  7
SN1
 71
     0
 72
     5
 11
8.035617
 21
7.097178
  0
TEXT
  8
0
 10
7.727797
 20
6.905823
 40
0.133929
  1
231
 41
1.000000
  7
SN1
 71
     0
 72
     5
 11
7.999754
 21
6.905823
  0
ENDSEC
  0
EOF
