  0
SECTION
  2
HEADER
  9
$ACADVER
  1
AC1006
  9
$EXTMIN
 10
3.289880
 20
0.420640
  9
$EXTMAX
 10
8.014600
 20
4.662680
  9
$LTSCALE
 40
0.044000
  9
$PDMODE
 70
    35
  9
$PDSIZE
 40
0.035200
  0
ENDSEC
  0
SECTION
  2
TABLES
  0
TABLE
  2
LTYPE
 70
     9
  0
LTYPE
  2
CONTINUOUS
 70
    64
  3
Solid line
 72
    65
 73
     0
 40
0.000000
  0
LTYPE
  2
DASHED
 70
    64
  3
__ __ __ __ __ __ __ __ __ __ __ __ __ __ __
 72
    65
 73
     2
 40
0.000330
 49
0.000220
 49
-0.000110
  0
LTYPE
  2
HIDDEN
 70
    64
  3
 _ _ _ _ _ _ _ _ _ _ _ _ _ _ _ _ _ _ _ _ _ _
 72
    65
 73
     2
 40
0.000165
 49
0.000110
 49
-0.000055
  0
LTYPE
  2
CENTER
 70
    64
  3
____ _ ____ _ ____ _ ____ _ ____ _ ____ _ ____
 72
    65
 73
     4
 40
0.000880
 49
0.000550
 49
-0.000110
 49
0.000110
 49
-0.000110
  0
LTYPE
  2
PHANTOM
 70
    64
  3
_____ _ _ _____ _ _ _____ _ _ _____ _ _ ____
 72
    65
 73
     6
 40
0.001100
 49
0.000550
 49
-0.000110
 49
0.000110
 49
-0.000110
 49
0.000110
 49
-0.000110
  0
LTYPE
  2
DOT
 70
    64
  3
...............................................
 72
    65
 73
     2
 40
0.000110
 49
0.000000
 49
-0.000110
  0
LTYPE
  2
DASHDOT
 70
    64
  3
__ . __ . __ . __ . __ . __ . __ . __ . __ . __
 72
    65
 73
     4
 40
0.000440
 49
0.000220
 49
-0.000110
 49
0.000000
 49
-0.000110
  0
LTYPE
  2
BORDER
 70
    64
  3
__ __ . __ __ . __ __ . __ __ . __ __ . __ __
 72
    65
 73
     6
 40
0.000770
 49
0.000220
 49
-0.000110
 49
0.000220
 49
-0.000110
 49
0.000000
 49
-0.000110
  0
LTYPE
  2
DIVIDE
 70
    64
  3
__ . . __ . . __ . . __ . . __ . . __ . . __
 72
    65
 73
     6
 40
0.000550
 49
0.000220
 49
-0.000110
 49
0.000000
 49
-0.000110
 49
0.000000
 49
-0.000110
  0
LTYPE
  2
DOTDOT
 70
    64
  3
 . .  . .  . .  . .  . .  . . 
 72
    65
 73
     5
 40
0.000242
 49
-0.000110
 49
0.000000
 49
-0.000110
 49
0.000000
 49
-0.000110
  0
ENDTAB
  0
TABLE
  2
STYLE
 70
     2
  0
STYLE
 70
     0
  2
SN0
 40
0.000000
 41
0.000440
 50
0.000000
 71
     0
 42
0.000000
  3
ROMAND
  0
STYLE
 70
    68
  2
SV0
 40
0.000000
 41
0.000440
 50
0.000000
 71
     0
 42
0.000000
  3
ROMAND
  0
ENDTAB
  0
TABLE
  2
LAYER
 70
     3
  0
LAYER
  2
FOREGROUND
 70
    64
 62
     7
  6
CONTINUOUS
  0
LAYER
  2
BACKGROUND
 70
    65
 62
    -7
  6
CONTINUOUS
  0
LAYER
  2
0
 70
    64
 62
     7
  6
CONTINUOUS
  0
ENDTAB
  0
ENDSEC
  0
SECTION
  2
ENTITIES
  0
POLYLINE
  8
FOREGROUND
  6
CONTINUOUS
 66
     1
 40
0.000000
 41
0.000000
  0
VERTEX
  8
FOREGROUND
  6
CONTINUOUS
 10
0.000000
 20
5.083320
  0
VERTEX
  8
FOREGROUND
  6
CONTINUOUS
 10
8.499920
 20
5.083320
  0
VERTEX
  8
FOREGROUND
  6
CONTINUOUS
 10
8.499920
 20
-5.916680
  0
VERTEX
  8
FOREGROUND
  6
CONTINUOUS
 10
0.000000
 20
-5.916680
  0
VERTEX
  8
FOREGROUND
  6
CONTINUOUS
 10
0.000000
 20
5.083320
  0
SEQEND
  8
0
  0
POLYLINE
  8
FOREGROUND
  6
CONTINUOUS
 66
     1
 40
0.000000
 41
0.000000
  0
VERTEX
  8
FOREGROUND
  6
CONTINUOUS
 10
0.000000
 20
5.083320
  0
VERTEX
  8
FOREGROUND
  6
CONTINUOUS
 10
8.499920
 20
5.083320
  0
VERTEX
  8
FOREGROUND
  6
CONTINUOUS
 10
8.499920
 20
-5.916680
  0
VERTEX
  8
FOREGROUND
  6
CONTINUOUS
 10
0.000000
 20
-5.916680
  0
VERTEX
  8
FOREGROUND
  6
CONTINUOUS
 10
0.000000
 20
5.083320
  0
SEQEND
  8
0
  0
POLYLINE
  8
0
  6
CONTINUOUS
 66
     1
 40
0.014080
 41
0.014080
  0
VERTEX
  8
0
  6
CONTINUOUS
 10
6.317520
 20
3.757160
  0
VERTEX
  8
0
  6
CONTINUOUS
 10
6.779960
 20
4.210360
  0
VERTEX
  8
0
  6
CONTINUOUS
 10
6.466680
 20
4.497240
  0
VERTEX
  8
0
  6
CONTINUOUS
 10
6.415640
 20
4.458520
  0
VERTEX
  8
0
  6
CONTINUOUS
 10
6.365920
 20
4.428600
  0
VERTEX
  8
0
  6
CONTINUOUS
 10
6.317080
 20
4.407040
  0
VERTEX
  8
0
  6
CONTINUOUS
 10
6.284960
 20
4.397360
  0
VERTEX
  8
0
  6
CONTINUOUS
 10
6.252840
 20
4.391200
  0
VERTEX
  8
0
  6
CONTINUOUS
 10
6.221160
 20
4.388560
  0
VERTEX
  8
0
  6
CONTINUOUS
 10
6.189920
 20
4.389440
  0
VERTEX
  8
0
  6
CONTINUOUS
 10
6.158240
 20
4.393400
  0
VERTEX
  8
0
  6
CONTINUOUS
 10
6.127000
 20
4.400880
  0
VERTEX
  8
0
  6
CONTINUOUS
 10
6.079920
 20
4.418480
  0
VERTEX
  8
0
  6
CONTINUOUS
 10
6.048240
 20
4.433880
  0
VERTEX
  8
0
  6
CONTINUOUS
 10
6.000720
 20
4.462920
  0
VERTEX
  8
0
  6
CONTINUOUS
 10
5.952320
 20
4.498560
  0
VERTEX
  8
0
  6
CONTINUOUS
 10
5.951000
 20
4.501200
  0
VERTEX
  8
0
  6
CONTINUOUS
 10
5.819000
 20
4.373160
  0
VERTEX
  8
0
  6
CONTINUOUS
 10
5.761800
 20
4.408800
  0
VERTEX
  8
0
  6
CONTINUOUS
 10
5.709880
 20
4.436960
  0
VERTEX
  8
0
  6
CONTINUOUS
 10
5.659280
 20
4.459400
  0
VERTEX
  8
0
  6
CONTINUOUS
 10
5.610440
 20
4.476560
  0
VERTEX
  8
0
  6
CONTINUOUS
 10
5.562920
 20
4.488880
  0
VERTEX
  8
0
  6
CONTINUOUS
 10
5.517160
 20
4.496800
  0
VERTEX
  8
0
  6
CONTINUOUS
 10
5.472720
 20
4.500760
  0
VERTEX
  8
0
  6
CONTINUOUS
 10
5.429160
 20
4.500760
  0
VERTEX
  8
0
  6
CONTINUOUS
 10
5.386480
 20
4.498120
  0
VERTEX
  8
0
  6
CONTINUOUS
 10
5.344680
 20
4.492400
  0
VERTEX
  8
0
  6
CONTINUOUS
 10
5.303760
 20
4.484920
  0
VERTEX
  8
0
  6
CONTINUOUS
 10
5.222800
 20
4.463800
  0
VERTEX
  8
0
  6
CONTINUOUS
 10
5.021280
 20
4.399560
  0
VERTEX
  8
0
  6
CONTINUOUS
 10
4.937680
 20
4.378440
  0
VERTEX
  8
0
  6
CONTINUOUS
 10
4.873000
 20
4.367000
  0
VERTEX
  8
0
  6
CONTINUOUS
 10
4.828560
 20
4.362600
  0
VERTEX
  8
0
  6
CONTINUOUS
 10
4.805680
 20
4.361280
  0
VERTEX
  8
0
  6
CONTINUOUS
 10
4.759480
 20
4.361280
  0
VERTEX
  8
0
  6
CONTINUOUS
 10
4.711520
 20
4.365240
  0
VERTEX
  8
0
  6
CONTINUOUS
 10
4.662240
 20
4.372720
  0
VERTEX
  8
0
  6
CONTINUOUS
 10
4.610760
 20
4.384600
  0
VERTEX
  8
0
  6
CONTINUOUS
 10
4.557520
 20
4.401320
  0
VERTEX
  8
0
  6
CONTINUOUS
 10
4.502520
 20
4.422880
  0
VERTEX
  8
0
  6
CONTINUOUS
 10
4.444880
 20
4.450600
  0
VERTEX
  8
0
  6
CONTINUOUS
 10
4.385480
 20
4.484040
  0
VERTEX
  8
0
  6
CONTINUOUS
 10
4.323000
 20
4.524080
  0
VERTEX
  8
0
  6
CONTINUOUS
 10
4.323000
 20
4.525400
  0
VERTEX
  8
0
  6
CONTINUOUS
 10
4.233680
 20
4.447960
  0
VERTEX
  8
0
  6
CONTINUOUS
 10
4.153600
 20
4.507800
  0
VERTEX
  8
0
  6
CONTINUOUS
 10
4.104320
 20
4.455880
  0
VERTEX
  8
0
  6
CONTINUOUS
 10
4.103000
 20
4.455880
  0
VERTEX
  8
0
  6
CONTINUOUS
 10
4.062520
 20
4.482720
  0
VERTEX
  8
0
  6
CONTINUOUS
 10
4.037440
 20
4.496360
  0
VERTEX
  8
0
  6
CONTINUOUS
 10
4.002240
 20
4.510880
  0
VERTEX
  8
0
  6
CONTINUOUS
 10
3.969240
 20
4.519240
  0
VERTEX
  8
0
  6
CONTINUOUS
 10
3.938440
 20
4.522320
  0
VERTEX
  8
0
  6
CONTINUOUS
 10
3.919080
 20
4.521440
  0
VERTEX
  8
0
  6
CONTINUOUS
 10
3.882120
 20
4.514840
  0
VERTEX
  8
0
  6
CONTINUOUS
 10
3.846480
 20
4.502080
  0
VERTEX
  8
0
  6
CONTINUOUS
 10
3.811720
 20
4.485800
  0
VERTEX
  8
0
  6
CONTINUOUS
 10
3.722840
 20
4.440040
  0
VERTEX
  8
0
  6
CONTINUOUS
 10
3.684120
 20
4.424200
  0
VERTEX
  8
0
  6
CONTINUOUS
 10
3.663880
 20
4.418040
  0
VERTEX
  8
0
  6
CONTINUOUS
 10
3.619880
 20
4.409680
  0
VERTEX
  8
0
  6
CONTINUOUS
 10
3.596120
 20
4.407920
  0
VERTEX
  8
0
  6
CONTINUOUS
 10
3.571040
 20
4.407920
  0
VERTEX
  8
0
  6
CONTINUOUS
 10
3.531440
 20
4.412760
  0
VERTEX
  8
0
  6
CONTINUOUS
 10
3.487880
 20
4.422880
  0
VERTEX
  8
0
  6
CONTINUOUS
 10
3.440800
 20
4.439600
  0
VERTEX
  8
0
  6
CONTINUOUS
 10
3.389320
 20
4.463800
  0
VERTEX
  8
0
  6
CONTINUOUS
 10
3.386680
 20
4.463800
  0
VERTEX
  8
0
  6
CONTINUOUS
 10
3.295600
 20
4.370520
  0
VERTEX
  8
0
  6
CONTINUOUS
 10
3.297360
 20
4.366560
  0
VERTEX
  8
0
  6
CONTINUOUS
 10
3.850880
 20
3.755840
  0
VERTEX
  8
0
  6
CONTINUOUS
 10
6.310920
 20
3.755840
  0
VERTEX
  8
0
  6
CONTINUOUS
 10
6.317520
 20
3.757160
  0
SEQEND
  8
0
  0
SOLID
  8
0
 62
    15
 10
6.081240
 20
2.097040
 11
6.731560
 21
1.745040
 12
6.031960
 22
2.024000
 13
6.682280
 23
1.672440
  0
POLYLINE
  8
0
  6
CONTINUOUS
 66
     1
 40
0.000000
 41
0.000000
  0
VERTEX
  8
0
  6
CONTINUOUS
 10
6.081240
 20
2.097040
  0
VERTEX
  8
0
  6
CONTINUOUS
 10
6.731560
 20
1.745040
  0
VERTEX
  8
0
  6
CONTINUOUS
 10
6.682280
 20
1.672440
  0
VERTEX
  8
0
  6
CONTINUOUS
 10
6.031960
 20
2.024000
  0
VERTEX
  8
0
  6
CONTINUOUS
 10
6.081240
 20
2.097040
  0
SEQEND
  8
0
  0
SOLID
  8
0
 62
    15
 10
7.156160
 20
3.096280
 11
7.806040
 21
2.744720
 12
7.154400
 22
3.094080
 13
7.804280
 23
2.742520
  0
POLYLINE
  8
0
  6
CONTINUOUS
 66
     1
 40
0.000000
 41
0.000000
  0
VERTEX
  8
0
  6
CONTINUOUS
 10
7.156160
 20
3.096280
  0
VERTEX
  8
0
  6
CONTINUOUS
 10
7.806040
 20
2.744720
  0
VERTEX
  8
0
  6
CONTINUOUS
 10
7.804280
 20
2.742520
  0
VERTEX
  8
0
  6
CONTINUOUS
 10
7.154400
 20
3.094080
  0
VERTEX
  8
0
  6
CONTINUOUS
 10
7.156160
 20
3.096280
  0
SEQEND
  8
0
  0
SOLID
  8
0
 62
    15
 10
7.154400
 20
3.094080
 11
7.804280
 21
2.742520
 12
7.085760
 22
3.065920
 13
7.736080
 23
2.714360
  0
POLYLINE
  8
0
  6
CONTINUOUS
 66
     1
 40
0.000000
 41
0.000000
  0
VERTEX
  8
0
  6
CONTINUOUS
 10
7.154400
 20
3.094080
  0
VERTEX
  8
0
  6
CONTINUOUS
 10
7.804280
 20
2.742520
  0
VERTEX
  8
0
  6
CONTINUOUS
 10
7.736080
 20
2.714360
  0
VERTEX
  8
0
  6
CONTINUOUS
 10
7.085760
 20
3.065920
  0
VERTEX
  8
0
  6
CONTINUOUS
 10
7.154400
 20
3.094080
  0
SEQEND
  8
0
  0
SOLID
  8
0
 62
    15
 10
7.085760
 20
3.065920
 11
7.736080
 21
2.714360
 12
7.031640
 22
3.034240
 13
7.681520
 23
2.682680
  0
POLYLINE
  8
0
  6
CONTINUOUS
 66
     1
 40
0.000000
 41
0.000000
  0
VERTEX
  8
0
  6
CONTINUOUS
 10
7.085760
 20
3.065920
  0
VERTEX
  8
0
  6
CONTINUOUS
 10
7.736080
 20
2.714360
  0
VERTEX
  8
0
  6
CONTINUOUS
 10
7.681520
 20
2.682680
  0
VERTEX
  8
0
  6
CONTINUOUS
 10
7.031640
 20
3.034240
  0
VERTEX
  8
0
  6
CONTINUOUS
 10
7.085760
 20
3.065920
  0
SEQEND
  8
0
  0
SOLID
  8
0
 62
    15
 10
7.031640
 20
3.034240
 11
7.681520
 21
2.682680
 12
6.956840
 22
2.963400
 13
7.607160
 23
2.611840
  0
POLYLINE
  8
0
  6
CONTINUOUS
 66
     1
 40
0.000000
 41
0.000000
  0
VERTEX
  8
0
  6
CONTINUOUS
 10
7.031640
 20
3.034240
  0
VERTEX
  8
0
  6
CONTINUOUS
 10
7.681520
 20
2.682680
  0
VERTEX
  8
0
  6
CONTINUOUS
 10
7.607160
 20
2.611840
  0
VERTEX
  8
0
  6
CONTINUOUS
 10
6.956840
 20
2.963400
  0
VERTEX
  8
0
  6
CONTINUOUS
 10
7.031640
 20
3.034240
  0
SEQEND
  8
0
  0
SOLID
  8
0
 62
    15
 10
6.956840
 20
2.963400
 11
7.607160
 21
2.611840
 12
6.915480
 22
2.886840
 13
7.565800
 23
2.535280
  0
POLYLINE
  8
0
  6
CONTINUOUS
 66
     1
 40
0.000000
 41
0.000000
  0
VERTEX
  8
0
  6
CONTINUOUS
 10
6.956840
 20
2.963400
  0
VERTEX
  8
0
  6
CONTINUOUS
 10
7.607160
 20
2.611840
  0
VERTEX
  8
0
  6
CONTINUOUS
 10
7.565800
 20
2.535280
  0
VERTEX
  8
0
  6
CONTINUOUS
 10
6.915480
 20
2.886840
  0
VERTEX
  8
0
  6
CONTINUOUS
 10
6.956840
 20
2.963400
  0
SEQEND
  8
0
  0
SOLID
  8
0
 62
    15
 10
6.915480
 20
2.886840
 11
7.565800
 21
2.535280
 12
6.891280
 22
2.809400
 13
7.541600
 23
2.457840
  0
POLYLINE
  8
0
  6
CONTINUOUS
 66
     1
 40
0.000000
 41
0.000000
  0
VERTEX
  8
0
  6
CONTINUOUS
 10
6.915480
 20
2.886840
  0
VERTEX
  8
0
  6
CONTINUOUS
 10
7.565800
 20
2.535280
  0
VERTEX
  8
0
  6
CONTINUOUS
 10
7.541600
 20
2.457840
  0
VERTEX
  8
0
  6
CONTINUOUS
 10
6.891280
 20
2.809400
  0
VERTEX
  8
0
  6
CONTINUOUS
 10
6.915480
 20
2.886840
  0
SEQEND
  8
0
  0
SOLID
  8
0
 62
    15
 10
6.891280
 20
2.809400
 11
7.541600
 21
2.457840
 12
6.886440
 22
2.790040
 13
7.536320
 23
2.438480
  0
POLYLINE
  8
0
  6
CONTINUOUS
 66
     1
 40
0.000000
 41
0.000000
  0
VERTEX
  8
0
  6
CONTINUOUS
 10
6.891280
 20
2.809400
  0
VERTEX
  8
0
  6
CONTINUOUS
 10
7.541600
 20
2.457840
  0
VERTEX
  8
0
  6
CONTINUOUS
 10
7.536320
 20
2.438480
  0
VERTEX
  8
0
  6
CONTINUOUS
 10
6.886440
 20
2.790040
  0
VERTEX
  8
0
  6
CONTINUOUS
 10
6.891280
 20
2.809400
  0
SEQEND
  8
0
  0
SOLID
  8
0
 62
    15
 10
6.886440
 20
2.790040
 11
7.536320
 21
2.438480
 12
6.881160
 22
2.771560
 13
7.531040
 23
2.419560
  0
POLYLINE
  8
0
  6
CONTINUOUS
 66
     1
 40
0.000000
 41
0.000000
  0
VERTEX
  8
0
  6
CONTINUOUS
 10
6.886440
 20
2.790040
  0
VERTEX
  8
0
  6
CONTINUOUS
 10
7.536320
 20
2.438480
  0
VERTEX
  8
0
  6
CONTINUOUS
 10
7.531040
 20
2.419560
  0
VERTEX
  8
0
  6
CONTINUOUS
 10
6.881160
 20
2.771560
  0
VERTEX
  8
0
  6
CONTINUOUS
 10
6.886440
 20
2.790040
  0
SEQEND
  8
0
  0
SOLID
  8
0
 62
    15
 10
6.881160
 20
2.771560
 11
7.531040
 21
2.419560
 12
6.869280
 22
2.735040
 13
7.519600
 23
2.383480
  0
POLYLINE
  8
0
  6
CONTINUOUS
 66
     1
 40
0.000000
 41
0.000000
  0
VERTEX
  8
0
  6
CONTINUOUS
 10
6.881160
 20
2.771560
  0
VERTEX
  8
0
  6
CONTINUOUS
 10
7.531040
 20
2.419560
  0
VERTEX
  8
0
  6
CONTINUOUS
 10
7.519600
 20
2.383480
  0
VERTEX
  8
0
  6
CONTINUOUS
 10
6.869280
 20
2.735040
  0
VERTEX
  8
0
  6
CONTINUOUS
 10
6.881160
 20
2.771560
  0
SEQEND
  8
0
  0
SOLID
  8
0
 62
    15
 10
6.869280
 20
2.735040
 11
7.519600
 21
2.383480
 12
6.833640
 22
2.669040
 13
7.483960
 23
2.317040
  0
POLYLINE
  8
0
  6
CONTINUOUS
 66
     1
 40
0.000000
 41
0.000000
  0
VERTEX
  8
0
  6
CONTINUOUS
 10
6.869280
 20
2.735040
  0
VERTEX
  8
0
  6
CONTINUOUS
 10
7.519600
 20
2.383480
  0
VERTEX
  8
0
  6
CONTINUOUS
 10
7.483960
 20
2.317040
  0
VERTEX
  8
0
  6
CONTINUOUS
 10
6.833640
 20
2.669040
  0
VERTEX
  8
0
  6
CONTINUOUS
 10
6.869280
 20
2.735040
  0
SEQEND
  8
0
  0
SOLID
  8
0
 62
    15
 10
6.833640
 20
2.669040
 11
7.483960
 21
2.317040
 12
6.769400
 22
2.615360
 13
7.419280
 23
2.263800
  0
POLYLINE
  8
0
  6
CONTINUOUS
 66
     1
 40
0.000000
 41
0.000000
  0
VERTEX
  8
0
  6
CONTINUOUS
 10
6.833640
 20
2.669040
  0
VERTEX
  8
0
  6
CONTINUOUS
 10
7.483960
 20
2.317040
  0
VERTEX
  8
0
  6
CONTINUOUS
 10
7.419280
 20
2.263800
  0
VERTEX
  8
0
  6
CONTINUOUS
 10
6.769400
 20
2.615360
  0
VERTEX
  8
0
  6
CONTINUOUS
 10
6.833640
 20
2.669040
  0
SEQEND
  8
0
  0
SOLID
  8
0
 62
    15
 10
6.769400
 20
2.615360
 11
7.419280
 21
2.263800
 12
6.721000
 22
2.595120
 13
7.371320
 23
2.243560
  0
POLYLINE
  8
0
  6
CONTINUOUS
 66
     1
 40
0.000000
 41
0.000000
  0
VERTEX
  8
0
  6
CONTINUOUS
 10
6.769400
 20
2.615360
  0
VERTEX
  8
0
  6
CONTINUOUS
 10
7.419280
 20
2.263800
  0
VERTEX
  8
0
  6
CONTINUOUS
 10
7.371320
 20
2.243560
  0
VERTEX
  8
0
  6
CONTINUOUS
 10
6.721000
 20
2.595120
  0
VERTEX
  8
0
  6
CONTINUOUS
 10
6.769400
 20
2.615360
  0
SEQEND
  8
0
  0
SOLID
  8
0
 62
    15
 10
6.721000
 20
2.595120
 11
7.371320
 21
2.243560
 12
6.660280
 22
2.579720
 13
7.310160
 23
2.228160
  0
POLYLINE
  8
0
  6
CONTINUOUS
 66
     1
 40
0.000000
 41
0.000000
  0
VERTEX
  8
0
  6
CONTINUOUS
 10
6.721000
 20
2.595120
  0
VERTEX
  8
0
  6
CONTINUOUS
 10
7.371320
 20
2.243560
  0
VERTEX
  8
0
  6
CONTINUOUS
 10
7.310160
 20
2.228160
  0
VERTEX
  8
0
  6
CONTINUOUS
 10
6.660280
 20
2.579720
  0
VERTEX
  8
0
  6
CONTINUOUS
 10
6.721000
 20
2.595120
  0
SEQEND
  8
0
  0
SOLID
  8
0
 62
    15
 10
6.660280
 20
2.579720
 11
7.310160
 21
2.228160
 12
6.659400
 22
2.578840
 13
7.309280
 23
2.227280
  0
POLYLINE
  8
0
  6
CONTINUOUS
 66
     1
 40
0.000000
 41
0.000000
  0
VERTEX
  8
0
  6
CONTINUOUS
 10
6.660280
 20
2.579720
  0
VERTEX
  8
0
  6
CONTINUOUS
 10
7.310160
 20
2.228160
  0
VERTEX
  8
0
  6
CONTINUOUS
 10
7.309280
 20
2.227280
  0
VERTEX
  8
0
  6
CONTINUOUS
 10
6.659400
 20
2.578840
  0
VERTEX
  8
0
  6
CONTINUOUS
 10
6.660280
 20
2.579720
  0
SEQEND
  8
0
  0
SOLID
  8
0
 62
    15
 10
6.659400
 20
2.578840
 11
7.309280
 21
2.227280
 12
6.663360
 22
2.507120
 13
7.313680
 23
2.155560
  0
POLYLINE
  8
0
  6
CONTINUOUS
 66
     1
 40
0.000000
 41
0.000000
  0
VERTEX
  8
0
  6
CONTINUOUS
 10
6.659400
 20
2.578840
  0
VERTEX
  8
0
  6
CONTINUOUS
 10
7.309280
 20
2.227280
  0
VERTEX
  8
0
  6
CONTINUOUS
 10
7.313680
 20
2.155560
  0
VERTEX
  8
0
  6
CONTINUOUS
 10
6.663360
 20
2.507120
  0
VERTEX
  8
0
  6
CONTINUOUS
 10
6.659400
 20
2.578840
  0
SEQEND
  8
0
  0
SOLID
  8
0
 62
    15
 10
6.663360
 20
2.507120
 11
7.313680
 21
2.155560
 12
6.564800
 22
2.489960
 13
7.215120
 23
2.138400
  0
POLYLINE
  8
0
  6
CONTINUOUS
 66
     1
 40
0.000000
 41
0.000000
  0
VERTEX
  8
0
  6
CONTINUOUS
 10
6.663360
 20
2.507120
  0
VERTEX
  8
0
  6
CONTINUOUS
 10
7.313680
 20
2.155560
  0
VERTEX
  8
0
  6
CONTINUOUS
 10
7.215120
 20
2.138400
  0
VERTEX
  8
0
  6
CONTINUOUS
 10
6.564800
 20
2.489960
  0
VERTEX
  8
0
  6
CONTINUOUS
 10
6.663360
 20
2.507120
  0
SEQEND
  8
0
  0
SOLID
  8
0
 62
    15
 10
6.559080
 20
2.372920
 11
7.209400
 21
2.021360
 12
6.421800
 22
2.334200
 13
7.072120
 23
1.982640
  0
POLYLINE
  8
0
  6
CONTINUOUS
 66
     1
 40
0.000000
 41
0.000000
  0
VERTEX
  8
0
  6
CONTINUOUS
 10
6.559080
 20
2.372920
  0
VERTEX
  8
0
  6
CONTINUOUS
 10
7.209400
 20
2.021360
  0
VERTEX
  8
0
  6
CONTINUOUS
 10
7.072120
 20
1.982640
  0
VERTEX
  8
0
  6
CONTINUOUS
 10
6.421800
 20
2.334200
  0
VERTEX
  8
0
  6
CONTINUOUS
 10
6.559080
 20
2.372920
  0
SEQEND
  8
0
  0
SOLID
  8
0
 62
    15
 10
6.564800
 20
2.489960
 11
7.215120
 21
2.138400
 12
6.559960
 22
2.372040
 13
7.210280
 23
2.020480
  0
POLYLINE
  8
0
  6
CONTINUOUS
 66
     1
 40
0.000000
 41
0.000000
  0
VERTEX
  8
0
  6
CONTINUOUS
 10
6.564800
 20
2.489960
  0
VERTEX
  8
0
  6
CONTINUOUS
 10
7.215120
 20
2.138400
  0
VERTEX
  8
0
  6
CONTINUOUS
 10
7.210280
 20
2.020480
  0
VERTEX
  8
0
  6
CONTINUOUS
 10
6.559960
 20
2.372040
  0
VERTEX
  8
0
  6
CONTINUOUS
 10
6.564800
 20
2.489960
  0
SEQEND
  8
0
  0
SOLID
  8
0
 62
    15
 10
6.421800
 20
2.334200
 11
7.072120
 21
1.982640
 12
6.308720
 22
2.285800
 13
6.959040
 23
1.934240
  0
POLYLINE
  8
0
  6
CONTINUOUS
 66
     1
 40
0.000000
 41
0.000000
  0
VERTEX
  8
0
  6
CONTINUOUS
 10
6.421800
 20
2.334200
  0
VERTEX
  8
0
  6
CONTINUOUS
 10
7.072120
 20
1.982640
  0
VERTEX
  8
0
  6
CONTINUOUS
 10
6.959040
 20
1.934240
  0
VERTEX
  8
0
  6
CONTINUOUS
 10
6.308720
 20
2.285800
  0
VERTEX
  8
0
  6
CONTINUOUS
 10
6.421800
 20
2.334200
  0
SEQEND
  8
0
  0
SOLID
  8
0
 62
    15
 10
6.308720
 20
2.285800
 11
6.959040
 21
1.934240
 12
6.216320
 22
2.229040
 13
6.866640
 23
1.877480
  0
POLYLINE
  8
0
  6
CONTINUOUS
 66
     1
 40
0.000000
 41
0.000000
  0
VERTEX
  8
0
  6
CONTINUOUS
 10
6.308720
 20
2.285800
  0
VERTEX
  8
0
  6
CONTINUOUS
 10
6.959040
 20
1.934240
  0
VERTEX
  8
0
  6
CONTINUOUS
 10
6.866640
 20
1.877480
  0
VERTEX
  8
0
  6
CONTINUOUS
 10
6.216320
 20
2.229040
  0
VERTEX
  8
0
  6
CONTINUOUS
 10
6.308720
 20
2.285800
  0
SEQEND
  8
0
  0
SOLID
  8
0
 62
    15
 10
6.216320
 20
2.229040
 11
6.866640
 21
1.877480
 12
6.141960
 22
2.165680
 13
6.791840
 23
1.814120
  0
POLYLINE
  8
0
  6
CONTINUOUS
 66
     1
 40
0.000000
 41
0.000000
  0
VERTEX
  8
0
  6
CONTINUOUS
 10
6.216320
 20
2.229040
  0
VERTEX
  8
0
  6
CONTINUOUS
 10
6.866640
 20
1.877480
  0
VERTEX
  8
0
  6
CONTINUOUS
 10
6.791840
 20
1.814120
  0
VERTEX
  8
0
  6
CONTINUOUS
 10
6.141960
 20
2.165680
  0
VERTEX
  8
0
  6
CONTINUOUS
 10
6.216320
 20
2.229040
  0
SEQEND
  8
0
  0
SOLID
  8
0
 62
    15
 10
6.141960
 20
2.165680
 11
6.791840
 21
1.814120
 12
6.081240
 22
2.097040
 13
6.731560
 23
1.745040
  0
POLYLINE
  8
0
  6
CONTINUOUS
 66
     1
 40
0.000000
 41
0.000000
  0
VERTEX
  8
0
  6
CONTINUOUS
 10
6.141960
 20
2.165680
  0
VERTEX
  8
0
  6
CONTINUOUS
 10
6.791840
 20
1.814120
  0
VERTEX
  8
0
  6
CONTINUOUS
 10
6.731560
 20
1.745040
  0
VERTEX
  8
0
  6
CONTINUOUS
 10
6.081240
 20
2.097040
  0
VERTEX
  8
0
  6
CONTINUOUS
 10
6.141960
 20
2.165680
  0
SEQEND
  8
0
  0
SOLID
  8
0
 62
    15
 10
7.150440
 20
3.226520
 11
7.800760
 21
2.874960
 12
7.156160
 22
3.096280
 13
7.806040
 23
2.744720
  0
POLYLINE
  8
0
  6
CONTINUOUS
 66
     1
 40
0.000000
 41
0.000000
  0
VERTEX
  8
0
  6
CONTINUOUS
 10
7.150440
 20
3.226520
  0
VERTEX
  8
0
  6
CONTINUOUS
 10
7.800760
 20
2.874960
  0
VERTEX
  8
0
  6
CONTINUOUS
 10
7.806040
 20
2.744720
  0
VERTEX
  8
0
  6
CONTINUOUS
 10
7.156160
 20
3.096280
  0
VERTEX
  8
0
  6
CONTINUOUS
 10
7.150440
 20
3.226520
  0
SEQEND
  8
0
  0
SOLID
  8
0
 62
    15
 10
6.031960
 20
2.024000
 11
6.682280
 21
1.672440
 12
5.953640
 22
1.871760
 13
6.603520
 23
1.520200
  0
POLYLINE
  8
0
  6
CONTINUOUS
 66
     1
 40
0.000000
 41
0.000000
  0
VERTEX
  8
0
  6
CONTINUOUS
 10
6.031960
 20
2.024000
  0
VERTEX
  8
0
  6
CONTINUOUS
 10
6.682280
 20
1.672440
  0
VERTEX
  8
0
  6
CONTINUOUS
 10
6.603520
 20
1.520200
  0
VERTEX
  8
0
  6
CONTINUOUS
 10
5.953640
 20
1.871760
  0
VERTEX
  8
0
  6
CONTINUOUS
 10
6.031960
 20
2.024000
  0
SEQEND
  8
0
  0
SOLID
  8
0
 62
    15
 10
5.953640
 20
1.871760
 11
6.603520
 21
1.520200
 12
5.935600
 22
1.833480
 13
6.585920
 23
1.481920
  0
POLYLINE
  8
0
  6
CONTINUOUS
 66
     1
 40
0.000000
 41
0.000000
  0
VERTEX
  8
0
  6
CONTINUOUS
 10
5.953640
 20
1.871760
  0
VERTEX
  8
0
  6
CONTINUOUS
 10
6.603520
 20
1.520200
  0
VERTEX
  8
0
  6
CONTINUOUS
 10
6.585920
 20
1.481920
  0
VERTEX
  8
0
  6
CONTINUOUS
 10
5.935600
 20
1.833480
  0
VERTEX
  8
0
  6
CONTINUOUS
 10
5.953640
 20
1.871760
  0
SEQEND
  8
0
  0
SOLID
  8
0
 62
    15
 10
5.935600
 20
1.833480
 11
6.585920
 21
1.481920
 12
5.917560
 22
1.795640
 13
6.567880
 23
1.444080
  0
POLYLINE
  8
0
  6
CONTINUOUS
 66
     1
 40
0.000000
 41
0.000000
  0
VERTEX
  8
0
  6
CONTINUOUS
 10
5.935600
 20
1.833480
  0
VERTEX
  8
0
  6
CONTINUOUS
 10
6.585920
 20
1.481920
  0
VERTEX
  8
0
  6
CONTINUOUS
 10
6.567880
 20
1.444080
  0
VERTEX
  8
0
  6
CONTINUOUS
 10
5.917560
 20
1.795640
  0
VERTEX
  8
0
  6
CONTINUOUS
 10
5.935600
 20
1.833480
  0
SEQEND
  8
0
  0
SOLID
  8
0
 62
    15
 10
5.917560
 20
1.795640
 11
6.567880
 21
1.444080
 12
5.879720
 22
1.720840
 13
6.530040
 23
1.369280
  0
POLYLINE
  8
0
  6
CONTINUOUS
 66
     1
 40
0.000000
 41
0.000000
  0
VERTEX
  8
0
  6
CONTINUOUS
 10
5.917560
 20
1.795640
  0
VERTEX
  8
0
  6
CONTINUOUS
 10
6.567880
 20
1.444080
  0
VERTEX
  8
0
  6
CONTINUOUS
 10
6.530040
 20
1.369280
  0
VERTEX
  8
0
  6
CONTINUOUS
 10
5.879720
 20
1.720840
  0
VERTEX
  8
0
  6
CONTINUOUS
 10
5.917560
 20
1.795640
  0
SEQEND
  8
0
  0
SOLID
  8
0
 62
    15
 10
5.879720
 20
1.720840
 11
6.530040
 21
1.369280
 12
5.785120
 22
1.581800
 13
6.435440
 23
1.230240
  0
POLYLINE
  8
0
  6
CONTINUOUS
 66
     1
 40
0.000000
 41
0.000000
  0
VERTEX
  8
0
  6
CONTINUOUS
 10
5.879720
 20
1.720840
  0
VERTEX
  8
0
  6
CONTINUOUS
 10
6.530040
 20
1.369280
  0
VERTEX
  8
0
  6
CONTINUOUS
 10
6.435440
 20
1.230240
  0
VERTEX
  8
0
  6
CONTINUOUS
 10
5.785120
 20
1.581800
  0
VERTEX
  8
0
  6
CONTINUOUS
 10
5.879720
 20
1.720840
  0
SEQEND
  8
0
  0
SOLID
  8
0
 62
    15
 10
5.785120
 20
1.581800
 11
6.435440
 21
1.230240
 12
5.721760
 22
1.520640
 13
6.371640
 23
1.169080
  0
POLYLINE
  8
0
  6
CONTINUOUS
 66
     1
 40
0.000000
 41
0.000000
  0
VERTEX
  8
0
  6
CONTINUOUS
 10
5.785120
 20
1.581800
  0
VERTEX
  8
0
  6
CONTINUOUS
 10
6.435440
 20
1.230240
  0
VERTEX
  8
0
  6
CONTINUOUS
 10
6.371640
 20
1.169080
  0
VERTEX
  8
0
  6
CONTINUOUS
 10
5.721760
 20
1.520640
  0
VERTEX
  8
0
  6
CONTINUOUS
 10
5.785120
 20
1.581800
  0
SEQEND
  8
0
  0
SOLID
  8
0
 62
    15
 10
5.721760
 20
1.520640
 11
6.371640
 21
1.169080
 12
5.643440
 22
1.466520
 13
6.293320
 23
1.114960
  0
POLYLINE
  8
0
  6
CONTINUOUS
 66
     1
 40
0.000000
 41
0.000000
  0
VERTEX
  8
0
  6
CONTINUOUS
 10
5.721760
 20
1.520640
  0
VERTEX
  8
0
  6
CONTINUOUS
 10
6.371640
 20
1.169080
  0
VERTEX
  8
0
  6
CONTINUOUS
 10
6.293320
 20
1.114960
  0
VERTEX
  8
0
  6
CONTINUOUS
 10
5.643440
 20
1.466520
  0
VERTEX
  8
0
  6
CONTINUOUS
 10
5.721760
 20
1.520640
  0
SEQEND
  8
0
  0
SOLID
  8
0
 62
    15
 10
5.643440
 20
1.466520
 11
6.293320
 21
1.114960
 12
5.546200
 22
1.421640
 13
6.196520
 23
1.070080
  0
POLYLINE
  8
0
  6
CONTINUOUS
 66
     1
 40
0.000000
 41
0.000000
  0
VERTEX
  8
0
  6
CONTINUOUS
 10
5.643440
 20
1.466520
  0
VERTEX
  8
0
  6
CONTINUOUS
 10
6.293320
 20
1.114960
  0
VERTEX
  8
0
  6
CONTINUOUS
 10
6.196520
 20
1.070080
  0
VERTEX
  8
0
  6
CONTINUOUS
 10
5.546200
 20
1.421640
  0
VERTEX
  8
0
  6
CONTINUOUS
 10
5.643440
 20
1.466520
  0
SEQEND
  8
0
  0
SOLID
  8
0
 62
    15
 10
5.546200
 20
1.421640
 11
6.196520
 21
1.070080
 12
5.427840
 22
1.386440
 13
6.078160
 23
1.034880
  0
POLYLINE
  8
0
  6
CONTINUOUS
 66
     1
 40
0.000000
 41
0.000000
  0
VERTEX
  8
0
  6
CONTINUOUS
 10
5.546200
 20
1.421640
  0
VERTEX
  8
0
  6
CONTINUOUS
 10
6.196520
 20
1.070080
  0
VERTEX
  8
0
  6
CONTINUOUS
 10
6.078160
 20
1.034880
  0
VERTEX
  8
0
  6
CONTINUOUS
 10
5.427840
 20
1.386440
  0
VERTEX
  8
0
  6
CONTINUOUS
 10
5.546200
 20
1.421640
  0
SEQEND
  8
0
  0
SOLID
  8
0
 62
    15
 10
5.427840
 20
1.386440
 11
6.078160
 21
1.034880
 12
5.425200
 22
1.385560
 13
6.075520
 23
1.033560
  0
POLYLINE
  8
0
  6
CONTINUOUS
 66
     1
 40
0.000000
 41
0.000000
  0
VERTEX
  8
0
  6
CONTINUOUS
 10
5.427840
 20
1.386440
  0
VERTEX
  8
0
  6
CONTINUOUS
 10
6.078160
 20
1.034880
  0
VERTEX
  8
0
  6
CONTINUOUS
 10
6.075520
 20
1.033560
  0
VERTEX
  8
0
  6
CONTINUOUS
 10
5.425200
 20
1.385560
  0
VERTEX
  8
0
  6
CONTINUOUS
 10
5.427840
 20
1.386440
  0
SEQEND
  8
0
  0
SOLID
  8
0
 62
    15
 10
5.425200
 20
1.385560
 11
6.075520
 21
1.033560
 12
5.428280
 22
1.201640
 13
6.078160
 23
0.850080
  0
POLYLINE
  8
0
  6
CONTINUOUS
 66
     1
 40
0.000000
 41
0.000000
  0
VERTEX
  8
0
  6
CONTINUOUS
 10
5.425200
 20
1.385560
  0
VERTEX
  8
0
  6
CONTINUOUS
 10
6.075520
 20
1.033560
  0
VERTEX
  8
0
  6
CONTINUOUS
 10
6.078160
 20
0.850080
  0
VERTEX
  8
0
  6
CONTINUOUS
 10
5.428280
 20
1.201640
  0
VERTEX
  8
0
  6
CONTINUOUS
 10
5.425200
 20
1.385560
  0
SEQEND
  8
0
  0
SOLID
  8
0
 62
    15
 10
5.428280
 20
1.201640
 11
6.078160
 21
0.850080
 12
5.425200
 22
1.202520
 13
6.075520
 23
0.850960
  0
POLYLINE
  8
0
  6
CONTINUOUS
 66
     1
 40
0.000000
 41
0.000000
  0
VERTEX
  8
0
  6
CONTINUOUS
 10
5.428280
 20
1.201640
  0
VERTEX
  8
0
  6
CONTINUOUS
 10
6.078160
 20
0.850080
  0
VERTEX
  8
0
  6
CONTINUOUS
 10
6.075520
 20
0.850960
  0
VERTEX
  8
0
  6
CONTINUOUS
 10
5.425200
 20
1.202520
  0
VERTEX
  8
0
  6
CONTINUOUS
 10
5.428280
 20
1.201640
  0
SEQEND
  8
0
  0
SOLID
  8
0
 62
    15
 10
5.425200
 20
1.202520
 11
6.075520
 21
0.850960
 12
5.347760
 22
1.187120
 13
5.997640
 23
0.835560
  0
POLYLINE
  8
0
  6
CONTINUOUS
 66
     1
 40
0.000000
 41
0.000000
  0
VERTEX
  8
0
  6
CONTINUOUS
 10
5.425200
 20
1.202520
  0
VERTEX
  8
0
  6
CONTINUOUS
 10
6.075520
 20
0.850960
  0
VERTEX
  8
0
  6
CONTINUOUS
 10
5.997640
 20
0.835560
  0
VERTEX
  8
0
  6
CONTINUOUS
 10
5.347760
 20
1.187120
  0
VERTEX
  8
0
  6
CONTINUOUS
 10
5.425200
 20
1.202520
  0
SEQEND
  8
0
  0
SOLID
  8
0
 62
    15
 10
5.347760
 20
1.187120
 11
5.997640
 21
0.835560
 12
5.279560
 22
1.164240
 13
5.929440
 23
0.812680
  0
POLYLINE
  8
0
  6
CONTINUOUS
 66
     1
 40
0.000000
 41
0.000000
  0
VERTEX
  8
0
  6
CONTINUOUS
 10
5.347760
 20
1.187120
  0
VERTEX
  8
0
  6
CONTINUOUS
 10
5.997640
 20
0.835560
  0
VERTEX
  8
0
  6
CONTINUOUS
 10
5.929440
 20
0.812680
  0
VERTEX
  8
0
  6
CONTINUOUS
 10
5.279560
 20
1.164240
  0
VERTEX
  8
0
  6
CONTINUOUS
 10
5.347760
 20
1.187120
  0
SEQEND
  8
0
  0
SOLID
  8
0
 62
    15
 10
5.279560
 20
1.164240
 11
5.929440
 21
0.812680
 12
5.220600
 22
1.133000
 13
5.870920
 23
0.781440
  0
POLYLINE
  8
0
  6
CONTINUOUS
 66
     1
 40
0.000000
 41
0.000000
  0
VERTEX
  8
0
  6
CONTINUOUS
 10
5.279560
 20
1.164240
  0
VERTEX
  8
0
  6
CONTINUOUS
 10
5.929440
 20
0.812680
  0
VERTEX
  8
0
  6
CONTINUOUS
 10
5.870920
 20
0.781440
  0
VERTEX
  8
0
  6
CONTINUOUS
 10
5.220600
 20
1.133000
  0
VERTEX
  8
0
  6
CONTINUOUS
 10
5.279560
 20
1.164240
  0
SEQEND
  8
0
  0
SOLID
  8
0
 62
    15
 10
5.220600
 20
1.133000
 11
5.870920
 21
0.781440
 12
5.171760
 22
1.092960
 13
5.821640
 23
0.741400
  0
POLYLINE
  8
0
  6
CONTINUOUS
 66
     1
 40
0.000000
 41
0.000000
  0
VERTEX
  8
0
  6
CONTINUOUS
 10
5.220600
 20
1.133000
  0
VERTEX
  8
0
  6
CONTINUOUS
 10
5.870920
 20
0.781440
  0
VERTEX
  8
0
  6
CONTINUOUS
 10
5.821640
 20
0.741400
  0
VERTEX
  8
0
  6
CONTINUOUS
 10
5.171760
 20
1.092960
  0
VERTEX
  8
0
  6
CONTINUOUS
 10
5.220600
 20
1.133000
  0
SEQEND
  8
0
  0
SOLID
  8
0
 62
    15
 10
5.171760
 20
1.092960
 11
5.821640
 21
0.741400
 12
5.132160
 22
1.043240
 13
5.782040
 23
0.691680
  0
POLYLINE
  8
0
  6
CONTINUOUS
 66
     1
 40
0.000000
 41
0.000000
  0
VERTEX
  8
0
  6
CONTINUOUS
 10
5.171760
 20
1.092960
  0
VERTEX
  8
0
  6
CONTINUOUS
 10
5.821640
 20
0.741400
  0
VERTEX
  8
0
  6
CONTINUOUS
 10
5.782040
 20
0.691680
  0
VERTEX
  8
0
  6
CONTINUOUS
 10
5.132160
 20
1.043240
  0
VERTEX
  8
0
  6
CONTINUOUS
 10
5.171760
 20
1.092960
  0
SEQEND
  8
0
  0
SOLID
  8
0
 62
    15
 10
5.132160
 20
1.043240
 11
5.782040
 21
0.691680
 12
5.102240
 22
0.982960
 13
5.752560
 23
0.631400
  0
POLYLINE
  8
0
  6
CONTINUOUS
 66
     1
 40
0.000000
 41
0.000000
  0
VERTEX
  8
0
  6
CONTINUOUS
 10
5.132160
 20
1.043240
  0
VERTEX
  8
0
  6
CONTINUOUS
 10
5.782040
 20
0.691680
  0
VERTEX
  8
0
  6
CONTINUOUS
 10
5.752560
 20
0.631400
  0
VERTEX
  8
0
  6
CONTINUOUS
 10
5.102240
 20
0.982960
  0
VERTEX
  8
0
  6
CONTINUOUS
 10
5.132160
 20
1.043240
  0
SEQEND
  8
0
  0
SOLID
  8
0
 62
    15
 10
5.102240
 20
0.982960
 11
5.752560
 21
0.631400
 12
5.082440
 22
0.911680
 13
5.732320
 23
0.560120
  0
POLYLINE
  8
0
  6
CONTINUOUS
 66
     1
 40
0.000000
 41
0.000000
  0
VERTEX
  8
0
  6
CONTINUOUS
 10
5.102240
 20
0.982960
  0
VERTEX
  8
0
  6
CONTINUOUS
 10
5.752560
 20
0.631400
  0
VERTEX
  8
0
  6
CONTINUOUS
 10
5.732320
 20
0.560120
  0
VERTEX
  8
0
  6
CONTINUOUS
 10
5.082440
 20
0.911680
  0
VERTEX
  8
0
  6
CONTINUOUS
 10
5.102240
 20
0.982960
  0
SEQEND
  8
0
  0
SOLID
  8
0
 62
    15
 10
5.082440
 20
0.911680
 11
5.732320
 21
0.560120
 12
5.071880
 22
0.828080
 13
5.722200
 23
0.476520
  0
POLYLINE
  8
0
  6
CONTINUOUS
 66
     1
 40
0.000000
 41
0.000000
  0
VERTEX
  8
0
  6
CONTINUOUS
 10
5.082440
 20
0.911680
  0
VERTEX
  8
0
  6
CONTINUOUS
 10
5.732320
 20
0.560120
  0
VERTEX
  8
0
  6
CONTINUOUS
 10
5.722200
 20
0.476520
  0
VERTEX
  8
0
  6
CONTINUOUS
 10
5.071880
 20
0.828080
  0
VERTEX
  8
0
  6
CONTINUOUS
 10
5.082440
 20
0.911680
  0
SEQEND
  8
0
  0
SOLID
  8
0
 62
    15
 10
5.071880
 20
0.828080
 11
5.722200
 21
0.476520
 12
5.070120
 22
0.828080
 13
5.720440
 23
0.476520
  0
POLYLINE
  8
0
  6
CONTINUOUS
 66
     1
 40
0.000000
 41
0.000000
  0
VERTEX
  8
0
  6
CONTINUOUS
 10
5.071880
 20
0.828080
  0
VERTEX
  8
0
  6
CONTINUOUS
 10
5.722200
 20
0.476520
  0
VERTEX
  8
0
  6
CONTINUOUS
 10
5.720440
 20
0.476520
  0
VERTEX
  8
0
  6
CONTINUOUS
 10
5.070120
 20
0.828080
  0
VERTEX
  8
0
  6
CONTINUOUS
 10
5.071880
 20
0.828080
  0
SEQEND
  8
0
  0
SOLID
  8
0
 62
    15
 10
5.070120
 20
0.828080
 11
5.720440
 21
0.476520
 12
4.648600
 22
0.795960
 13
5.298480
 23
0.444400
  0
POLYLINE
  8
0
  6
CONTINUOUS
 66
     1
 40
0.000000
 41
0.000000
  0
VERTEX
  8
0
  6
CONTINUOUS
 10
5.070120
 20
0.828080
  0
VERTEX
  8
0
  6
CONTINUOUS
 10
5.720440
 20
0.476520
  0
VERTEX
  8
0
  6
CONTINUOUS
 10
5.298480
 20
0.444400
  0
VERTEX
  8
0
  6
CONTINUOUS
 10
4.648600
 20
0.795960
  0
VERTEX
  8
0
  6
CONTINUOUS
 10
5.070120
 20
0.828080
  0
SEQEND
  8
0
  0
POLYLINE
  8
0
  6
CONTINUOUS
 66
     1
 40
0.000000
 41
0.000000
  0
VERTEX
  8
0
  6
CONTINUOUS
 10
4.638480
 20
1.449360
  0
VERTEX
  8
0
  6
CONTINUOUS
 10
6.322360
 20
3.242800
  0
VERTEX
  8
0
  6
CONTINUOUS
 10
7.146480
 20
3.227840
  0
VERTEX
  8
0
  6
CONTINUOUS
 10
7.150440
 20
3.226520
  0
VERTEX
  8
0
  6
CONTINUOUS
 10
7.156160
 20
3.096280
  0
VERTEX
  8
0
  6
CONTINUOUS
 10
7.154400
 20
3.094080
  0
VERTEX
  8
0
  6
CONTINUOUS
 10
7.085760
 20
3.065920
  0
VERTEX
  8
0
  6
CONTINUOUS
 10
7.031640
 20
3.034240
  0
VERTEX
  8
0
  6
CONTINUOUS
 10
6.956840
 20
2.963400
  0
VERTEX
  8
0
  6
CONTINUOUS
 10
6.915480
 20
2.886840
  0
VERTEX
  8
0
  6
CONTINUOUS
 10
6.869280
 20
2.735040
  0
VERTEX
  8
0
  6
CONTINUOUS
 10
6.833640
 20
2.669040
  0
VERTEX
  8
0
  6
CONTINUOUS
 10
6.769400
 20
2.615360
  0
VERTEX
  8
0
  6
CONTINUOUS
 10
6.721000
 20
2.595120
  0
VERTEX
  8
0
  6
CONTINUOUS
 10
6.659400
 20
2.578840
  0
VERTEX
  8
0
  6
CONTINUOUS
 10
6.663360
 20
2.507120
  0
VERTEX
  8
0
  6
CONTINUOUS
 10
6.564800
 20
2.489960
  0
VERTEX
  8
0
  6
CONTINUOUS
 10
6.559960
 20
2.372040
  0
VERTEX
  8
0
  6
CONTINUOUS
 10
6.559080
 20
2.372920
  0
VERTEX
  8
0
  6
CONTINUOUS
 10
6.421800
 20
2.334200
  0
VERTEX
  8
0
  6
CONTINUOUS
 10
6.308720
 20
2.285800
  0
VERTEX
  8
0
  6
CONTINUOUS
 10
6.216320
 20
2.229040
  0
VERTEX
  8
0
  6
CONTINUOUS
 10
6.141960
 20
2.165680
  0
VERTEX
  8
0
  6
CONTINUOUS
 10
6.081240
 20
2.097040
  0
VERTEX
  8
0
  6
CONTINUOUS
 10
6.031960
 20
2.024000
  0
VERTEX
  8
0
  6
CONTINUOUS
 10
5.953640
 20
1.871760
  0
VERTEX
  8
0
  6
CONTINUOUS
 10
5.917560
 20
1.795640
  0
VERTEX
  8
0
  6
CONTINUOUS
 10
5.879720
 20
1.720840
  0
VERTEX
  8
0
  6
CONTINUOUS
 10
5.785120
 20
1.581800
  0
VERTEX
  8
0
  6
CONTINUOUS
 10
5.721760
 20
1.520640
  0
VERTEX
  8
0
  6
CONTINUOUS
 10
5.643440
 20
1.466520
  0
VERTEX
  8
0
  6
CONTINUOUS
 10
5.546200
 20
1.421640
  0
VERTEX
  8
0
  6
CONTINUOUS
 10
5.425200
 20
1.385560
  0
VERTEX
  8
0
  6
CONTINUOUS
 10
5.428280
 20
1.201640
  0
VERTEX
  8
0
  6
CONTINUOUS
 10
5.425200
 20
1.202520
  0
VERTEX
  8
0
  6
CONTINUOUS
 10
5.347760
 20
1.187120
  0
VERTEX
  8
0
  6
CONTINUOUS
 10
5.279560
 20
1.164240
  0
VERTEX
  8
0
  6
CONTINUOUS
 10
5.220600
 20
1.133000
  0
VERTEX
  8
0
  6
CONTINUOUS
 10
5.171760
 20
1.092960
  0
VERTEX
  8
0
  6
CONTINUOUS
 10
5.132160
 20
1.043240
  0
VERTEX
  8
0
  6
CONTINUOUS
 10
5.102240
 20
0.982960
  0
VERTEX
  8
0
  6
CONTINUOUS
 10
5.082440
 20
0.911680
  0
VERTEX
  8
0
  6
CONTINUOUS
 10
5.071880
 20
0.828080
  0
VERTEX
  8
0
  6
CONTINUOUS
 10
4.648600
 20
0.795960
  0
VERTEX
  8
0
  6
CONTINUOUS
 10
4.634960
 20
1.443640
  0
VERTEX
  8
0
  6
CONTINUOUS
 10
4.638480
 20
1.449360
  0
SEQEND
  8
0
  0
TEXT
  8
0
 10
6.396720
 20
0.656040
 40
0.138164
  1
BA  230
 41
1.000000
  7
SN0
 71
     0
 72
     5
 11
6.987782
 21
0.656040
  0
TEXT
  8
0
 10
6.240520
 20
0.464640
 40
0.138164
  1
3/4" x 3-1/2"
 41
1.000000
  7
SN0
 71
     0
 72
     5
 11
7.142942
 21
0.464640
  0
TEXT
  8
0
 10
7.571080
 20
4.510880
 40
0.138164
  1
crown
 41
1.000000
  7
SN0
 71
     0
 72
     5
 11
8.014495
 21
4.510880
  0
TEXT
  8
0
 10
7.653800
 20
4.319040
 40
0.138164
  1
230
 41
1.000000
  7
SN0
 71
     0
 72
     5
 11
7.931141
 21
4.319040
  0
ENDSEC
  0
EOF
