  0
SECTION
  2
HEADER
  9
$ACADVER
  1
AC1006
  9
$EXTMIN
 10
6.200040
 20
0.331760
  9
$EXTMAX
 10
8.091160
 20
2.092640
  9
$LTSCALE
 40
0.044000
  9
$PDMODE
 70
    35
  9
$PDSIZE
 40
0.035200
  0
ENDSEC
  0
SECTION
  2
TABLES
  0
TABLE
  2
LTYPE
 70
     9
  0
LTYPE
  2
CONTINUOUS
 70
    64
  3
Solid line
 72
    65
 73
     0
 40
0.000000
  0
LTYPE
  2
DASHED
 70
    64
  3
__ __ __ __ __ __ __ __ __ __ __ __ __ __ __
 72
    65
 73
     2
 40
0.000330
 49
0.000220
 49
-0.000110
  0
LTYPE
  2
HIDDEN
 70
    64
  3
 _ _ _ _ _ _ _ _ _ _ _ _ _ _ _ _ _ _ _ _ _ _
 72
    65
 73
     2
 40
0.000165
 49
0.000110
 49
-0.000055
  0
LTYPE
  2
CENTER
 70
    64
  3
____ _ ____ _ ____ _ ____ _ ____ _ ____ _ ____
 72
    65
 73
     4
 40
0.000880
 49
0.000550
 49
-0.000110
 49
0.000110
 49
-0.000110
  0
LTYPE
  2
PHANTOM
 70
    64
  3
_____ _ _ _____ _ _ _____ _ _ _____ _ _ ____
 72
    65
 73
     6
 40
0.001100
 49
0.000550
 49
-0.000110
 49
0.000110
 49
-0.000110
 49
0.000110
 49
-0.000110
  0
LTYPE
  2
DOT
 70
    64
  3
...............................................
 72
    65
 73
     2
 40
0.000110
 49
0.000000
 49
-0.000110
  0
LTYPE
  2
DASHDOT
 70
    64
  3
__ . __ . __ . __ . __ . __ . __ . __ . __ . __
 72
    65
 73
     4
 40
0.000440
 49
0.000220
 49
-0.000110
 49
0.000000
 49
-0.000110
  0
LTYPE
  2
BORDER
 70
    64
  3
__ __ . __ __ . __ __ . __ __ . __ __ . __ __
 72
    65
 73
     6
 40
0.000770
 49
0.000220
 49
-0.000110
 49
0.000220
 49
-0.000110
 49
0.000000
 49
-0.000110
  0
LTYPE
  2
DIVIDE
 70
    64
  3
__ . . __ . . __ . . __ . . __ . . __ . . __
 72
    65
 73
     6
 40
0.000550
 49
0.000220
 49
-0.000110
 49
0.000000
 49
-0.000110
 49
0.000000
 49
-0.000110
  0
LTYPE
  2
DOTDOT
 70
    64
  3
 . .  . .  . .  . .  . .  . . 
 72
    65
 73
     5
 40
0.000242
 49
-0.000110
 49
0.000000
 49
-0.000110
 49
0.000000
 49
-0.000110
  0
ENDTAB
  0
TABLE
  2
STYLE
 70
     2
  0
STYLE
 70
     0
  2
SN0
 40
0.000000
 41
0.000440
 50
0.000000
 71
     0
 42
0.000000
  3
ROMAND
  0
STYLE
 70
    68
  2
SV0
 40
0.000000
 41
0.000440
 50
0.000000
 71
     0
 42
0.000000
  3
ROMAND
  0
ENDTAB
  0
TABLE
  2
LAYER
 70
     3
  0
LAYER
  2
FOREGROUND
 70
    64
 62
     7
  6
CONTINUOUS
  0
LAYER
  2
BACKGROUND
 70
    65
 62
    -7
  6
CONTINUOUS
  0
LAYER
  2
0
 70
    64
 62
     7
  6
CONTINUOUS
  0
ENDTAB
  0
ENDSEC
  0
SECTION
  2
ENTITIES
  0
POLYLINE
  8
FOREGROUND
  6
CONTINUOUS
 66
     1
 40
0.000000
 41
0.000000
  0
VERTEX
  8
FOREGROUND
  6
CONTINUOUS
 10
0.000000
 20
2.424400
  0
VERTEX
  8
FOREGROUND
  6
CONTINUOUS
 10
8.499920
 20
2.424400
  0
VERTEX
  8
FOREGROUND
  6
CONTINUOUS
 10
8.499920
 20
-8.575600
  0
VERTEX
  8
FOREGROUND
  6
CONTINUOUS
 10
0.000000
 20
-8.575600
  0
VERTEX
  8
FOREGROUND
  6
CONTINUOUS
 10
0.000000
 20
2.424400
  0
SEQEND
  8
0
  0
POLYLINE
  8
FOREGROUND
  6
CONTINUOUS
 66
     1
 40
0.000000
 41
0.000000
  0
VERTEX
  8
FOREGROUND
  6
CONTINUOUS
 10
0.000000
 20
2.424400
  0
VERTEX
  8
FOREGROUND
  6
CONTINUOUS
 10
8.499920
 20
2.424400
  0
VERTEX
  8
FOREGROUND
  6
CONTINUOUS
 10
8.499920
 20
-8.575600
  0
VERTEX
  8
FOREGROUND
  6
CONTINUOUS
 10
0.000000
 20
-8.575600
  0
VERTEX
  8
FOREGROUND
  6
CONTINUOUS
 10
0.000000
 20
2.424400
  0
SEQEND
  8
0
  0
POLYLINE
  8
0
  6
CONTINUOUS
 66
     1
 40
0.014080
 41
0.014080
  0
VERTEX
  8
0
  6
CONTINUOUS
 10
6.927800
 20
1.742400
  0
VERTEX
  8
0
  6
CONTINUOUS
 10
6.923840
 20
1.742400
  0
VERTEX
  8
0
  6
CONTINUOUS
 10
6.923840
 20
1.639880
  0
VERTEX
  8
0
  6
CONTINUOUS
 10
6.207520
 20
1.639880
  0
VERTEX
  8
0
  6
CONTINUOUS
 10
6.207520
 20
1.946560
  0
VERTEX
  8
0
  6
CONTINUOUS
 10
6.961240
 20
1.946560
  0
VERTEX
  8
0
  6
CONTINUOUS
 10
6.972680
 20
1.946120
  0
VERTEX
  8
0
  6
CONTINUOUS
 10
6.983240
 20
1.944360
  0
VERTEX
  8
0
  6
CONTINUOUS
 10
6.992920
 20
1.941720
  0
VERTEX
  8
0
  6
CONTINUOUS
 10
7.002160
 20
1.937760
  0
VERTEX
  8
0
  6
CONTINUOUS
 10
7.010520
 20
1.933360
  0
VERTEX
  8
0
  6
CONTINUOUS
 10
7.018000
 20
1.927640
  0
VERTEX
  8
0
  6
CONTINUOUS
 10
7.025040
 20
1.921480
  0
VERTEX
  8
0
  6
CONTINUOUS
 10
7.031200
 20
1.914440
  0
VERTEX
  8
0
  6
CONTINUOUS
 10
7.036480
 20
1.907400
  0
VERTEX
  8
0
  6
CONTINUOUS
 10
7.040880
 20
1.899040
  0
VERTEX
  8
0
  6
CONTINUOUS
 10
7.044840
 20
1.890680
  0
VERTEX
  8
0
  6
CONTINUOUS
 10
7.047920
 20
1.881880
  0
VERTEX
  8
0
  6
CONTINUOUS
 10
7.050120
 20
1.872640
  0
VERTEX
  8
0
  6
CONTINUOUS
 10
7.051440
 20
1.863400
  0
VERTEX
  8
0
  6
CONTINUOUS
 10
7.052320
 20
1.854160
  0
VERTEX
  8
0
  6
CONTINUOUS
 10
7.051880
 20
1.844480
  0
VERTEX
  8
0
  6
CONTINUOUS
 10
7.051000
 20
1.834800
  0
VERTEX
  8
0
  6
CONTINUOUS
 10
7.048800
 20
1.825560
  0
VERTEX
  8
0
  6
CONTINUOUS
 10
7.046160
 20
1.816320
  0
VERTEX
  8
0
  6
CONTINUOUS
 10
7.042640
 20
1.807080
  0
VERTEX
  8
0
  6
CONTINUOUS
 10
7.038240
 20
1.798280
  0
VERTEX
  8
0
  6
CONTINUOUS
 10
7.032960
 20
1.789920
  0
VERTEX
  8
0
  6
CONTINUOUS
 10
7.026800
 20
1.781560
  0
VERTEX
  8
0
  6
CONTINUOUS
 10
7.019320
 20
1.774080
  0
VERTEX
  8
0
  6
CONTINUOUS
 10
7.011400
 20
1.767480
  0
VERTEX
  8
0
  6
CONTINUOUS
 10
7.002600
 20
1.761320
  0
VERTEX
  8
0
  6
CONTINUOUS
 10
6.992480
 20
1.755600
  0
VERTEX
  8
0
  6
CONTINUOUS
 10
6.981920
 20
1.751200
  0
VERTEX
  8
0
  6
CONTINUOUS
 10
6.970040
 20
1.747240
  0
VERTEX
  8
0
  6
CONTINUOUS
 10
6.957280
 20
1.744600
  0
VERTEX
  8
0
  6
CONTINUOUS
 10
6.943640
 20
1.742840
  0
VERTEX
  8
0
  6
CONTINUOUS
 10
6.929120
 20
1.742400
  0
VERTEX
  8
0
  6
CONTINUOUS
 10
6.927800
 20
1.742400
  0
SEQEND
  8
0
  0
SOLID
  8
0
 62
     7
 10
7.248560
 20
1.036640
 11
7.903720
 21
1.412400
 12
7.255160
 22
1.019480
 13
7.910320
 23
1.395240
  0
POLYLINE
  8
0
  6
CONTINUOUS
 66
     1
 40
0.000000
 41
0.000000
  0
VERTEX
  8
0
  6
CONTINUOUS
 10
7.248560
 20
1.036640
  0
VERTEX
  8
0
  6
CONTINUOUS
 10
7.903720
 20
1.412400
  0
VERTEX
  8
0
  6
CONTINUOUS
 10
7.910320
 20
1.395240
  0
VERTEX
  8
0
  6
CONTINUOUS
 10
7.255160
 20
1.019480
  0
VERTEX
  8
0
  6
CONTINUOUS
 10
7.248560
 20
1.036640
  0
SEQEND
  8
0
  0
SOLID
  8
0
 62
    15
 10
6.415200
 20
1.083720
 11
7.070360
 21
1.459920
 12
7.168480
 22
1.083720
 13
7.823640
 23
1.459920
  0
POLYLINE
  8
0
  6
CONTINUOUS
 66
     1
 40
0.000000
 41
0.000000
  0
VERTEX
  8
0
  6
CONTINUOUS
 10
6.415200
 20
1.083720
  0
VERTEX
  8
0
  6
CONTINUOUS
 10
7.070360
 20
1.459920
  0
VERTEX
  8
0
  6
CONTINUOUS
 10
7.823640
 20
1.459920
  0
VERTEX
  8
0
  6
CONTINUOUS
 10
7.168480
 20
1.083720
  0
VERTEX
  8
0
  6
CONTINUOUS
 10
6.415200
 20
1.083720
  0
SEQEND
  8
0
  0
SOLID
  8
0
 62
     7
 10
7.168480
 20
1.083720
 11
7.823640
 21
1.459920
 12
7.190480
 22
1.081520
 13
7.845200
 23
1.457720
  0
POLYLINE
  8
0
  6
CONTINUOUS
 66
     1
 40
0.000000
 41
0.000000
  0
VERTEX
  8
0
  6
CONTINUOUS
 10
7.168480
 20
1.083720
  0
VERTEX
  8
0
  6
CONTINUOUS
 10
7.823640
 20
1.459920
  0
VERTEX
  8
0
  6
CONTINUOUS
 10
7.845200
 20
1.457720
  0
VERTEX
  8
0
  6
CONTINUOUS
 10
7.190480
 20
1.081520
  0
VERTEX
  8
0
  6
CONTINUOUS
 10
7.168480
 20
1.083720
  0
SEQEND
  8
0
  0
SOLID
  8
0
 62
     7
 10
7.190480
 20
1.081520
 11
7.845200
 21
1.457720
 12
7.209400
 22
1.074920
 13
7.864560
 23
1.451120
  0
POLYLINE
  8
0
  6
CONTINUOUS
 66
     1
 40
0.000000
 41
0.000000
  0
VERTEX
  8
0
  6
CONTINUOUS
 10
7.190480
 20
1.081520
  0
VERTEX
  8
0
  6
CONTINUOUS
 10
7.845200
 20
1.457720
  0
VERTEX
  8
0
  6
CONTINUOUS
 10
7.864560
 20
1.451120
  0
VERTEX
  8
0
  6
CONTINUOUS
 10
7.209400
 20
1.074920
  0
VERTEX
  8
0
  6
CONTINUOUS
 10
7.190480
 20
1.081520
  0
SEQEND
  8
0
  0
SOLID
  8
0
 62
     7
 10
7.209400
 20
1.074920
 11
7.864560
 21
1.451120
 12
7.225240
 22
1.065240
 13
7.880400
 23
1.441000
  0
POLYLINE
  8
0
  6
CONTINUOUS
 66
     1
 40
0.000000
 41
0.000000
  0
VERTEX
  8
0
  6
CONTINUOUS
 10
7.209400
 20
1.074920
  0
VERTEX
  8
0
  6
CONTINUOUS
 10
7.864560
 20
1.451120
  0
VERTEX
  8
0
  6
CONTINUOUS
 10
7.880400
 20
1.441000
  0
VERTEX
  8
0
  6
CONTINUOUS
 10
7.225240
 20
1.065240
  0
VERTEX
  8
0
  6
CONTINUOUS
 10
7.209400
 20
1.074920
  0
SEQEND
  8
0
  0
SOLID
  8
0
 62
     7
 10
7.225240
 20
1.065240
 11
7.880400
 21
1.441000
 12
7.238440
 22
1.052040
 13
7.893600
 23
1.427800
  0
POLYLINE
  8
0
  6
CONTINUOUS
 66
     1
 40
0.000000
 41
0.000000
  0
VERTEX
  8
0
  6
CONTINUOUS
 10
7.225240
 20
1.065240
  0
VERTEX
  8
0
  6
CONTINUOUS
 10
7.880400
 20
1.441000
  0
VERTEX
  8
0
  6
CONTINUOUS
 10
7.893600
 20
1.427800
  0
VERTEX
  8
0
  6
CONTINUOUS
 10
7.238440
 20
1.052040
  0
VERTEX
  8
0
  6
CONTINUOUS
 10
7.225240
 20
1.065240
  0
SEQEND
  8
0
  0
SOLID
  8
0
 62
     7
 10
7.238440
 20
1.052040
 11
7.893600
 21
1.427800
 12
7.248560
 22
1.036640
 13
7.903720
 23
1.412400
  0
POLYLINE
  8
0
  6
CONTINUOUS
 66
     1
 40
0.000000
 41
0.000000
  0
VERTEX
  8
0
  6
CONTINUOUS
 10
7.238440
 20
1.052040
  0
VERTEX
  8
0
  6
CONTINUOUS
 10
7.893600
 20
1.427800
  0
VERTEX
  8
0
  6
CONTINUOUS
 10
7.903720
 20
1.412400
  0
VERTEX
  8
0
  6
CONTINUOUS
 10
7.248560
 20
1.036640
  0
VERTEX
  8
0
  6
CONTINUOUS
 10
7.238440
 20
1.052040
  0
SEQEND
  8
0
  0
SOLID
  8
0
 62
    15
 10
7.131080
 20
0.880000
 11
7.786240
 21
1.255760
 12
7.131080
 22
0.777040
 13
7.786240
 23
1.153240
  0
POLYLINE
  8
0
  6
CONTINUOUS
 66
     1
 40
0.000000
 41
0.000000
  0
VERTEX
  8
0
  6
CONTINUOUS
 10
7.131080
 20
0.880000
  0
VERTEX
  8
0
  6
CONTINUOUS
 10
7.786240
 20
1.255760
  0
VERTEX
  8
0
  6
CONTINUOUS
 10
7.786240
 20
1.153240
  0
VERTEX
  8
0
  6
CONTINUOUS
 10
7.131080
 20
0.777040
  0
VERTEX
  8
0
  6
CONTINUOUS
 10
7.131080
 20
0.880000
  0
SEQEND
  8
0
  0
SOLID
  8
0
 62
    15
 10
7.255160
 20
1.019480
 11
7.910320
 21
1.395240
 12
7.259120
 22
1.001000
 13
7.914280
 23
1.376760
  0
POLYLINE
  8
0
  6
CONTINUOUS
 66
     1
 40
0.000000
 41
0.000000
  0
VERTEX
  8
0
  6
CONTINUOUS
 10
7.255160
 20
1.019480
  0
VERTEX
  8
0
  6
CONTINUOUS
 10
7.910320
 20
1.395240
  0
VERTEX
  8
0
  6
CONTINUOUS
 10
7.914280
 20
1.376760
  0
VERTEX
  8
0
  6
CONTINUOUS
 10
7.259120
 20
1.001000
  0
VERTEX
  8
0
  6
CONTINUOUS
 10
7.255160
 20
1.019480
  0
SEQEND
  8
0
  0
SOLID
  8
0
 62
    15
 10
7.259120
 20
1.001000
 11
7.914280
 21
1.376760
 12
7.259560
 22
0.981640
 13
7.914720
 23
1.357840
  0
POLYLINE
  8
0
  6
CONTINUOUS
 66
     1
 40
0.000000
 41
0.000000
  0
VERTEX
  8
0
  6
CONTINUOUS
 10
7.259120
 20
1.001000
  0
VERTEX
  8
0
  6
CONTINUOUS
 10
7.914280
 20
1.376760
  0
VERTEX
  8
0
  6
CONTINUOUS
 10
7.914720
 20
1.357840
  0
VERTEX
  8
0
  6
CONTINUOUS
 10
7.259560
 20
0.981640
  0
VERTEX
  8
0
  6
CONTINUOUS
 10
7.259120
 20
1.001000
  0
SEQEND
  8
0
  0
SOLID
  8
0
 62
    15
 10
7.259560
 20
0.981640
 11
7.914720
 21
1.357840
 12
7.256480
 22
0.962720
 13
7.911640
 23
1.338920
  0
POLYLINE
  8
0
  6
CONTINUOUS
 66
     1
 40
0.000000
 41
0.000000
  0
VERTEX
  8
0
  6
CONTINUOUS
 10
7.259560
 20
0.981640
  0
VERTEX
  8
0
  6
CONTINUOUS
 10
7.914720
 20
1.357840
  0
VERTEX
  8
0
  6
CONTINUOUS
 10
7.911640
 20
1.338920
  0
VERTEX
  8
0
  6
CONTINUOUS
 10
7.256480
 20
0.962720
  0
VERTEX
  8
0
  6
CONTINUOUS
 10
7.259560
 20
0.981640
  0
SEQEND
  8
0
  0
SOLID
  8
0
 62
    15
 10
7.256480
 20
0.962720
 11
7.911640
 21
1.338920
 12
7.250320
 22
0.944240
 13
7.905480
 23
1.320440
  0
POLYLINE
  8
0
  6
CONTINUOUS
 66
     1
 40
0.000000
 41
0.000000
  0
VERTEX
  8
0
  6
CONTINUOUS
 10
7.256480
 20
0.962720
  0
VERTEX
  8
0
  6
CONTINUOUS
 10
7.911640
 20
1.338920
  0
VERTEX
  8
0
  6
CONTINUOUS
 10
7.905480
 20
1.320440
  0
VERTEX
  8
0
  6
CONTINUOUS
 10
7.250320
 20
0.944240
  0
VERTEX
  8
0
  6
CONTINUOUS
 10
7.256480
 20
0.962720
  0
SEQEND
  8
0
  0
SOLID
  8
0
 62
    15
 10
7.250320
 20
0.944240
 11
7.905480
 21
1.320440
 12
7.240200
 22
0.927080
 13
7.895360
 23
1.303280
  0
POLYLINE
  8
0
  6
CONTINUOUS
 66
     1
 40
0.000000
 41
0.000000
  0
VERTEX
  8
0
  6
CONTINUOUS
 10
7.250320
 20
0.944240
  0
VERTEX
  8
0
  6
CONTINUOUS
 10
7.905480
 20
1.320440
  0
VERTEX
  8
0
  6
CONTINUOUS
 10
7.895360
 20
1.303280
  0
VERTEX
  8
0
  6
CONTINUOUS
 10
7.240200
 20
0.927080
  0
VERTEX
  8
0
  6
CONTINUOUS
 10
7.250320
 20
0.944240
  0
SEQEND
  8
0
  0
SOLID
  8
0
 62
    15
 10
7.240200
 20
0.927080
 11
7.895360
 21
1.303280
 12
7.227000
 22
0.911680
 13
7.882160
 23
1.287880
  0
POLYLINE
  8
0
  6
CONTINUOUS
 66
     1
 40
0.000000
 41
0.000000
  0
VERTEX
  8
0
  6
CONTINUOUS
 10
7.240200
 20
0.927080
  0
VERTEX
  8
0
  6
CONTINUOUS
 10
7.895360
 20
1.303280
  0
VERTEX
  8
0
  6
CONTINUOUS
 10
7.882160
 20
1.287880
  0
VERTEX
  8
0
  6
CONTINUOUS
 10
7.227000
 20
0.911680
  0
VERTEX
  8
0
  6
CONTINUOUS
 10
7.240200
 20
0.927080
  0
SEQEND
  8
0
  0
SOLID
  8
0
 62
    15
 10
7.227000
 20
0.911680
 11
7.882160
 21
1.287880
 12
7.209840
 22
0.898480
 13
7.865000
 23
1.274680
  0
POLYLINE
  8
0
  6
CONTINUOUS
 66
     1
 40
0.000000
 41
0.000000
  0
VERTEX
  8
0
  6
CONTINUOUS
 10
7.227000
 20
0.911680
  0
VERTEX
  8
0
  6
CONTINUOUS
 10
7.882160
 20
1.287880
  0
VERTEX
  8
0
  6
CONTINUOUS
 10
7.865000
 20
1.274680
  0
VERTEX
  8
0
  6
CONTINUOUS
 10
7.209840
 20
0.898480
  0
VERTEX
  8
0
  6
CONTINUOUS
 10
7.227000
 20
0.911680
  0
SEQEND
  8
0
  0
POLYLINE
  8
0
  6
CONTINUOUS
 66
     1
 40
0.000000
 41
0.000000
  0
VERTEX
  8
0
  6
CONTINUOUS
 10
7.135040
 20
0.880000
  0
VERTEX
  8
0
  6
CONTINUOUS
 10
7.131080
 20
0.880000
  0
VERTEX
  8
0
  6
CONTINUOUS
 10
7.131080
 20
0.777040
  0
VERTEX
  8
0
  6
CONTINUOUS
 10
6.415200
 20
0.777040
  0
VERTEX
  8
0
  6
CONTINUOUS
 10
6.415200
 20
1.083720
  0
VERTEX
  8
0
  6
CONTINUOUS
 10
7.168480
 20
1.083720
  0
VERTEX
  8
0
  6
CONTINUOUS
 10
7.190480
 20
1.081520
  0
VERTEX
  8
0
  6
CONTINUOUS
 10
7.209400
 20
1.074920
  0
VERTEX
  8
0
  6
CONTINUOUS
 10
7.225240
 20
1.065240
  0
VERTEX
  8
0
  6
CONTINUOUS
 10
7.238440
 20
1.052040
  0
VERTEX
  8
0
  6
CONTINUOUS
 10
7.248560
 20
1.036640
  0
VERTEX
  8
0
  6
CONTINUOUS
 10
7.255160
 20
1.019480
  0
VERTEX
  8
0
  6
CONTINUOUS
 10
7.259120
 20
1.001000
  0
VERTEX
  8
0
  6
CONTINUOUS
 10
7.259560
 20
0.981640
  0
VERTEX
  8
0
  6
CONTINUOUS
 10
7.256480
 20
0.962720
  0
VERTEX
  8
0
  6
CONTINUOUS
 10
7.250320
 20
0.944240
  0
VERTEX
  8
0
  6
CONTINUOUS
 10
7.240200
 20
0.927080
  0
VERTEX
  8
0
  6
CONTINUOUS
 10
7.227000
 20
0.911680
  0
VERTEX
  8
0
  6
CONTINUOUS
 10
7.209840
 20
0.898480
  0
VERTEX
  8
0
  6
CONTINUOUS
 10
7.189160
 20
0.888800
  0
VERTEX
  8
0
  6
CONTINUOUS
 10
7.164960
 20
0.882200
  0
VERTEX
  8
0
  6
CONTINUOUS
 10
7.151320
 20
0.880440
  0
VERTEX
  8
0
  6
CONTINUOUS
 10
7.136360
 20
0.880000
  0
VERTEX
  8
0
  6
CONTINUOUS
 10
7.135040
 20
0.880000
  0
SEQEND
  8
0
  0
TEXT
  8
0
 10
6.868840
 20
0.567160
 40
0.138080
  1
BA  229
 41
1.000000
  7
SN0
 71
     0
 72
     5
 11
7.458775
 21
0.567160
  0
TEXT
  8
0
 10
6.648400
 20
0.375760
 40
0.138080
  1
5/16" x 13/16"
 41
1.000000
  7
SN0
 71
     0
 72
     5
 11
7.677831
 21
0.375760
  0
TEXT
  8
0
 10
7.573720
 20
1.942160
 40
0.138080
  1
1/4 rnd
 41
1.000000
  7
SN0
 71
     0
 72
     5
 11
8.089618
 21
1.942160
  0
TEXT
  8
0
 10
7.693840
 20
1.750320
 40
0.138080
  1
229
 41
1.000000
  7
SN0
 71
     0
 72
     5
 11
7.970795
 21
1.750320
  0
ENDSEC
  0
EOF
