  0
SECTION
  2
HEADER
  9
$ACADVER
  1
AC1006
  9
$EXTMIN
 10
6.203120
 20
0.349800
  9
$EXTMAX
 10
8.126360
 20
2.500520
  9
$LTSCALE
 40
0.044000
  9
$PDMODE
 70
    35
  9
$PDSIZE
 40
0.035200
  0
ENDSEC
  0
SECTION
  2
TABLES
  0
TABLE
  2
LTYPE
 70
     9
  0
LTYPE
  2
CONTINUOUS
 70
    64
  3
Solid line
 72
    65
 73
     0
 40
0.000000
  0
LTYPE
  2
DASHED
 70
    64
  3
__ __ __ __ __ __ __ __ __ __ __ __ __ __ __
 72
    65
 73
     2
 40
0.000330
 49
0.000220
 49
-0.000110
  0
LTYPE
  2
HIDDEN
 70
    64
  3
 _ _ _ _ _ _ _ _ _ _ _ _ _ _ _ _ _ _ _ _ _ _
 72
    65
 73
     2
 40
0.000165
 49
0.000110
 49
-0.000055
  0
LTYPE
  2
CENTER
 70
    64
  3
____ _ ____ _ ____ _ ____ _ ____ _ ____ _ ____
 72
    65
 73
     4
 40
0.000880
 49
0.000550
 49
-0.000110
 49
0.000110
 49
-0.000110
  0
LTYPE
  2
PHANTOM
 70
    64
  3
_____ _ _ _____ _ _ _____ _ _ _____ _ _ ____
 72
    65
 73
     6
 40
0.001100
 49
0.000550
 49
-0.000110
 49
0.000110
 49
-0.000110
 49
0.000110
 49
-0.000110
  0
LTYPE
  2
DOT
 70
    64
  3
...............................................
 72
    65
 73
     2
 40
0.000110
 49
0.000000
 49
-0.000110
  0
LTYPE
  2
DASHDOT
 70
    64
  3
__ . __ . __ . __ . __ . __ . __ . __ . __ . __
 72
    65
 73
     4
 40
0.000440
 49
0.000220
 49
-0.000110
 49
0.000000
 49
-0.000110
  0
LTYPE
  2
BORDER
 70
    64
  3
__ __ . __ __ . __ __ . __ __ . __ __ . __ __
 72
    65
 73
     6
 40
0.000770
 49
0.000220
 49
-0.000110
 49
0.000220
 49
-0.000110
 49
0.000000
 49
-0.000110
  0
LTYPE
  2
DIVIDE
 70
    64
  3
__ . . __ . . __ . . __ . . __ . . __ . . __
 72
    65
 73
     6
 40
0.000550
 49
0.000220
 49
-0.000110
 49
0.000000
 49
-0.000110
 49
0.000000
 49
-0.000110
  0
LTYPE
  2
DOTDOT
 70
    64
  3
 . .  . .  . .  . .  . .  . . 
 72
    65
 73
     5
 40
0.000242
 49
-0.000110
 49
0.000000
 49
-0.000110
 49
0.000000
 49
-0.000110
  0
ENDTAB
  0
TABLE
  2
STYLE
 70
     2
  0
STYLE
 70
     0
  2
SN0
 40
0.000000
 41
0.000440
 50
0.000000
 71
     0
 42
0.000000
  3
ROMAND
  0
STYLE
 70
    68
  2
SV0
 40
0.000000
 41
0.000440
 50
0.000000
 71
     0
 42
0.000000
  3
ROMAND
  0
ENDTAB
  0
TABLE
  2
LAYER
 70
     3
  0
LAYER
  2
FOREGROUND
 70
    64
 62
     7
  6
CONTINUOUS
  0
LAYER
  2
BACKGROUND
 70
    65
 62
    -7
  6
CONTINUOUS
  0
LAYER
  2
0
 70
    64
 62
     7
  6
CONTINUOUS
  0
ENDTAB
  0
ENDSEC
  0
SECTION
  2
ENTITIES
  0
POLYLINE
  8
FOREGROUND
  6
CONTINUOUS
 66
     1
 40
0.000000
 41
0.000000
  0
VERTEX
  8
FOREGROUND
  6
CONTINUOUS
 10
0.000000
 20
2.850320
  0
VERTEX
  8
FOREGROUND
  6
CONTINUOUS
 10
8.499920
 20
2.850320
  0
VERTEX
  8
FOREGROUND
  6
CONTINUOUS
 10
8.499920
 20
-8.149680
  0
VERTEX
  8
FOREGROUND
  6
CONTINUOUS
 10
0.000000
 20
-8.149680
  0
VERTEX
  8
FOREGROUND
  6
CONTINUOUS
 10
0.000000
 20
2.850320
  0
SEQEND
  8
0
  0
POLYLINE
  8
FOREGROUND
  6
CONTINUOUS
 66
     1
 40
0.000000
 41
0.000000
  0
VERTEX
  8
FOREGROUND
  6
CONTINUOUS
 10
0.000000
 20
2.850320
  0
VERTEX
  8
FOREGROUND
  6
CONTINUOUS
 10
8.499920
 20
2.850320
  0
VERTEX
  8
FOREGROUND
  6
CONTINUOUS
 10
8.499920
 20
-8.149680
  0
VERTEX
  8
FOREGROUND
  6
CONTINUOUS
 10
0.000000
 20
-8.149680
  0
VERTEX
  8
FOREGROUND
  6
CONTINUOUS
 10
0.000000
 20
2.850320
  0
SEQEND
  8
0
  0
POLYLINE
  8
0
  6
CONTINUOUS
 66
     1
 40
0.014080
 41
0.014080
  0
VERTEX
  8
0
  6
CONTINUOUS
 10
6.659840
 20
2.405040
  0
VERTEX
  8
0
  6
CONTINUOUS
 10
6.631680
 20
2.401960
  0
VERTEX
  8
0
  6
CONTINUOUS
 10
6.605280
 20
2.394040
  0
VERTEX
  8
0
  6
CONTINUOUS
 10
6.581080
 20
2.380840
  0
VERTEX
  8
0
  6
CONTINUOUS
 10
6.560400
 20
2.363240
  0
VERTEX
  8
0
  6
CONTINUOUS
 10
6.542800
 20
2.342560
  0
VERTEX
  8
0
  6
CONTINUOUS
 10
6.529600
 20
2.318360
  0
VERTEX
  8
0
  6
CONTINUOUS
 10
6.521680
 20
2.291960
  0
VERTEX
  8
0
  6
CONTINUOUS
 10
6.518600
 20
2.263800
  0
VERTEX
  8
0
  6
CONTINUOUS
 10
6.479000
 20
2.262040
  0
VERTEX
  8
0
  6
CONTINUOUS
 10
6.446440
 20
2.256760
  0
VERTEX
  8
0
  6
CONTINUOUS
 10
6.409920
 20
2.244440
  0
VERTEX
  8
0
  6
CONTINUOUS
 10
6.381760
 20
2.226840
  0
VERTEX
  8
0
  6
CONTINUOUS
 10
6.360640
 20
2.204400
  0
VERTEX
  8
0
  6
CONTINUOUS
 10
6.352280
 20
2.191640
  0
VERTEX
  8
0
  6
CONTINUOUS
 10
6.340400
 20
2.163040
  0
VERTEX
  8
0
  6
CONTINUOUS
 10
6.334240
 20
2.131360
  0
VERTEX
  8
0
  6
CONTINUOUS
 10
6.332040
 20
2.097040
  0
VERTEX
  8
0
  6
CONTINUOUS
 10
6.332040
 20
2.095720
  0
VERTEX
  8
0
  6
CONTINUOUS
 10
6.210600
 20
2.095720
  0
VERTEX
  8
0
  6
CONTINUOUS
 10
6.210600
 20
1.963720
  0
VERTEX
  8
0
  6
CONTINUOUS
 10
7.110400
 20
1.963720
  0
VERTEX
  8
0
  6
CONTINUOUS
 10
7.110400
 20
2.095720
  0
VERTEX
  8
0
  6
CONTINUOUS
 10
6.989400
 20
2.095720
  0
VERTEX
  8
0
  6
CONTINUOUS
 10
6.988960
 20
2.114640
  0
VERTEX
  8
0
  6
CONTINUOUS
 10
6.984560
 20
2.147640
  0
VERTEX
  8
0
  6
CONTINUOUS
 10
6.981040
 20
2.163040
  0
VERTEX
  8
0
  6
CONTINUOUS
 10
6.969160
 20
2.191640
  0
VERTEX
  8
0
  6
CONTINUOUS
 10
6.951120
 20
2.215840
  0
VERTEX
  8
0
  6
CONTINUOUS
 10
6.939680
 20
2.226840
  0
VERTEX
  8
0
  6
CONTINUOUS
 10
6.911520
 20
2.244440
  0
VERTEX
  8
0
  6
CONTINUOUS
 10
6.875000
 20
2.256760
  0
VERTEX
  8
0
  6
CONTINUOUS
 10
6.842000
 20
2.262040
  0
VERTEX
  8
0
  6
CONTINUOUS
 10
6.802400
 20
2.263800
  0
VERTEX
  8
0
  6
CONTINUOUS
 10
6.799320
 20
2.291960
  0
VERTEX
  8
0
  6
CONTINUOUS
 10
6.791400
 20
2.318360
  0
VERTEX
  8
0
  6
CONTINUOUS
 10
6.778200
 20
2.342560
  0
VERTEX
  8
0
  6
CONTINUOUS
 10
6.761040
 20
2.363240
  0
VERTEX
  8
0
  6
CONTINUOUS
 10
6.739920
 20
2.380840
  0
VERTEX
  8
0
  6
CONTINUOUS
 10
6.715720
 20
2.394040
  0
VERTEX
  8
0
  6
CONTINUOUS
 10
6.689320
 20
2.401960
  0
VERTEX
  8
0
  6
CONTINUOUS
 10
6.661160
 20
2.405040
  0
VERTEX
  8
0
  6
CONTINUOUS
 10
6.659840
 20
2.405040
  0
SEQEND
  8
0
  0
SOLID
  8
0
 62
    15
 10
6.920760
 20
0.787600
 11
7.351520
 21
0.787160
 12
6.788760
 22
0.787600
 13
7.219520
 23
0.787160
  0
POLYLINE
  8
0
  6
CONTINUOUS
 66
     1
 40
0.000000
 41
0.000000
  0
VERTEX
  8
0
  6
CONTINUOUS
 10
6.920760
 20
0.787600
  0
VERTEX
  8
0
  6
CONTINUOUS
 10
7.351520
 20
0.787160
  0
VERTEX
  8
0
  6
CONTINUOUS
 10
7.219520
 20
0.787160
  0
VERTEX
  8
0
  6
CONTINUOUS
 10
6.788760
 20
0.787600
  0
VERTEX
  8
0
  6
CONTINUOUS
 10
6.920760
 20
0.787600
  0
SEQEND
  8
0
  0
SOLID
  8
0
 62
    15
 10
7.227000
 20
1.208680
 11
7.657760
 21
1.208240
 12
7.218640
 22
1.182280
 13
7.649400
 23
1.181400
  0
POLYLINE
  8
0
  6
CONTINUOUS
 66
     1
 40
0.000000
 41
0.000000
  0
VERTEX
  8
0
  6
CONTINUOUS
 10
7.227000
 20
1.208680
  0
VERTEX
  8
0
  6
CONTINUOUS
 10
7.657760
 20
1.208240
  0
VERTEX
  8
0
  6
CONTINUOUS
 10
7.649400
 20
1.181400
  0
VERTEX
  8
0
  6
CONTINUOUS
 10
7.218640
 20
1.182280
  0
VERTEX
  8
0
  6
CONTINUOUS
 10
7.227000
 20
1.208680
  0
SEQEND
  8
0
  0
SOLID
  8
0
 62
    15
 10
7.218640
 20
1.182280
 11
7.649400
 21
1.181400
 12
7.205440
 22
1.158080
 13
7.636200
 23
1.157640
  0
POLYLINE
  8
0
  6
CONTINUOUS
 66
     1
 40
0.000000
 41
0.000000
  0
VERTEX
  8
0
  6
CONTINUOUS
 10
7.218640
 20
1.182280
  0
VERTEX
  8
0
  6
CONTINUOUS
 10
7.649400
 20
1.181400
  0
VERTEX
  8
0
  6
CONTINUOUS
 10
7.636200
 20
1.157640
  0
VERTEX
  8
0
  6
CONTINUOUS
 10
7.205440
 20
1.158080
  0
VERTEX
  8
0
  6
CONTINUOUS
 10
7.218640
 20
1.182280
  0
SEQEND
  8
0
  0
SOLID
  8
0
 62
    15
 10
7.205440
 20
1.158080
 11
7.636200
 21
1.157640
 12
7.188280
 22
1.137400
 13
7.619040
 23
1.136520
  0
POLYLINE
  8
0
  6
CONTINUOUS
 66
     1
 40
0.000000
 41
0.000000
  0
VERTEX
  8
0
  6
CONTINUOUS
 10
7.205440
 20
1.158080
  0
VERTEX
  8
0
  6
CONTINUOUS
 10
7.636200
 20
1.157640
  0
VERTEX
  8
0
  6
CONTINUOUS
 10
7.619040
 20
1.136520
  0
VERTEX
  8
0
  6
CONTINUOUS
 10
7.188280
 20
1.137400
  0
VERTEX
  8
0
  6
CONTINUOUS
 10
7.205440
 20
1.158080
  0
SEQEND
  8
0
  0
SOLID
  8
0
 62
    15
 10
7.188280
 20
1.137400
 11
7.619040
 21
1.136520
 12
7.167160
 22
1.119800
 13
7.597920
 23
1.119360
  0
POLYLINE
  8
0
  6
CONTINUOUS
 66
     1
 40
0.000000
 41
0.000000
  0
VERTEX
  8
0
  6
CONTINUOUS
 10
7.188280
 20
1.137400
  0
VERTEX
  8
0
  6
CONTINUOUS
 10
7.619040
 20
1.136520
  0
VERTEX
  8
0
  6
CONTINUOUS
 10
7.597920
 20
1.119360
  0
VERTEX
  8
0
  6
CONTINUOUS
 10
7.167160
 20
1.119800
  0
VERTEX
  8
0
  6
CONTINUOUS
 10
7.188280
 20
1.137400
  0
SEQEND
  8
0
  0
SOLID
  8
0
 62
    15
 10
7.167160
 20
1.119800
 11
7.597920
 21
1.119360
 12
7.143400
 22
1.106600
 13
7.574160
 23
1.106160
  0
POLYLINE
  8
0
  6
CONTINUOUS
 66
     1
 40
0.000000
 41
0.000000
  0
VERTEX
  8
0
  6
CONTINUOUS
 10
7.167160
 20
1.119800
  0
VERTEX
  8
0
  6
CONTINUOUS
 10
7.597920
 20
1.119360
  0
VERTEX
  8
0
  6
CONTINUOUS
 10
7.574160
 20
1.106160
  0
VERTEX
  8
0
  6
CONTINUOUS
 10
7.143400
 20
1.106600
  0
VERTEX
  8
0
  6
CONTINUOUS
 10
7.167160
 20
1.119800
  0
SEQEND
  8
0
  0
SOLID
  8
0
 62
    15
 10
7.143400
 20
1.106600
 11
7.574160
 21
1.106160
 12
7.117000
 22
1.098680
 13
7.547760
 23
1.097800
  0
POLYLINE
  8
0
  6
CONTINUOUS
 66
     1
 40
0.000000
 41
0.000000
  0
VERTEX
  8
0
  6
CONTINUOUS
 10
7.143400
 20
1.106600
  0
VERTEX
  8
0
  6
CONTINUOUS
 10
7.574160
 20
1.106160
  0
VERTEX
  8
0
  6
CONTINUOUS
 10
7.547760
 20
1.097800
  0
VERTEX
  8
0
  6
CONTINUOUS
 10
7.117000
 20
1.098680
  0
VERTEX
  8
0
  6
CONTINUOUS
 10
7.143400
 20
1.106600
  0
SEQEND
  8
0
  0
SOLID
  8
0
 62
    15
 10
7.117000
 20
1.098680
 11
7.547760
 21
1.097800
 12
7.088400
 22
1.095600
 13
7.519600
 23
1.095160
  0
POLYLINE
  8
0
  6
CONTINUOUS
 66
     1
 40
0.000000
 41
0.000000
  0
VERTEX
  8
0
  6
CONTINUOUS
 10
7.117000
 20
1.098680
  0
VERTEX
  8
0
  6
CONTINUOUS
 10
7.547760
 20
1.097800
  0
VERTEX
  8
0
  6
CONTINUOUS
 10
7.519600
 20
1.095160
  0
VERTEX
  8
0
  6
CONTINUOUS
 10
7.088400
 20
1.095600
  0
VERTEX
  8
0
  6
CONTINUOUS
 10
7.117000
 20
1.098680
  0
SEQEND
  8
0
  0
SOLID
  8
0
 62
    15
 10
7.088400
 20
1.095600
 11
7.519600
 21
1.095160
 12
7.087520
 22
1.068320
 13
7.518720
 23
1.067440
  0
POLYLINE
  8
0
  6
CONTINUOUS
 66
     1
 40
0.000000
 41
0.000000
  0
VERTEX
  8
0
  6
CONTINUOUS
 10
7.088400
 20
1.095600
  0
VERTEX
  8
0
  6
CONTINUOUS
 10
7.519600
 20
1.095160
  0
VERTEX
  8
0
  6
CONTINUOUS
 10
7.518720
 20
1.067440
  0
VERTEX
  8
0
  6
CONTINUOUS
 10
7.087520
 20
1.068320
  0
VERTEX
  8
0
  6
CONTINUOUS
 10
7.088400
 20
1.095600
  0
SEQEND
  8
0
  0
SOLID
  8
0
 62
    15
 10
7.087520
 20
1.068320
 11
7.518720
 21
1.067440
 12
7.085320
 22
1.044560
 13
7.516080
 23
1.044120
  0
POLYLINE
  8
0
  6
CONTINUOUS
 66
     1
 40
0.000000
 41
0.000000
  0
VERTEX
  8
0
  6
CONTINUOUS
 10
7.087520
 20
1.068320
  0
VERTEX
  8
0
  6
CONTINUOUS
 10
7.518720
 20
1.067440
  0
VERTEX
  8
0
  6
CONTINUOUS
 10
7.516080
 20
1.044120
  0
VERTEX
  8
0
  6
CONTINUOUS
 10
7.085320
 20
1.044560
  0
VERTEX
  8
0
  6
CONTINUOUS
 10
7.087520
 20
1.068320
  0
SEQEND
  8
0
  0
SOLID
  8
0
 62
    15
 10
7.085320
 20
1.044560
 11
7.516080
 21
1.044120
 12
7.081360
 22
1.023000
 13
7.512120
 23
1.022560
  0
POLYLINE
  8
0
  6
CONTINUOUS
 66
     1
 40
0.000000
 41
0.000000
  0
VERTEX
  8
0
  6
CONTINUOUS
 10
7.085320
 20
1.044560
  0
VERTEX
  8
0
  6
CONTINUOUS
 10
7.516080
 20
1.044120
  0
VERTEX
  8
0
  6
CONTINUOUS
 10
7.512120
 20
1.022560
  0
VERTEX
  8
0
  6
CONTINUOUS
 10
7.081360
 20
1.023000
  0
VERTEX
  8
0
  6
CONTINUOUS
 10
7.085320
 20
1.044560
  0
SEQEND
  8
0
  0
SOLID
  8
0
 62
    15
 10
7.081360
 20
1.023000
 11
7.512120
 21
1.022560
 12
7.075640
 22
1.004080
 13
7.506840
 23
1.003200
  0
POLYLINE
  8
0
  6
CONTINUOUS
 66
     1
 40
0.000000
 41
0.000000
  0
VERTEX
  8
0
  6
CONTINUOUS
 10
7.081360
 20
1.023000
  0
VERTEX
  8
0
  6
CONTINUOUS
 10
7.512120
 20
1.022560
  0
VERTEX
  8
0
  6
CONTINUOUS
 10
7.506840
 20
1.003200
  0
VERTEX
  8
0
  6
CONTINUOUS
 10
7.075640
 20
1.004080
  0
VERTEX
  8
0
  6
CONTINUOUS
 10
7.081360
 20
1.023000
  0
SEQEND
  8
0
  0
SOLID
  8
0
 62
    15
 10
7.075640
 20
1.004080
 11
7.506840
 21
1.003200
 12
7.069040
 22
0.986920
 13
7.499800
 23
0.986480
  0
POLYLINE
  8
0
  6
CONTINUOUS
 66
     1
 40
0.000000
 41
0.000000
  0
VERTEX
  8
0
  6
CONTINUOUS
 10
7.075640
 20
1.004080
  0
VERTEX
  8
0
  6
CONTINUOUS
 10
7.506840
 20
1.003200
  0
VERTEX
  8
0
  6
CONTINUOUS
 10
7.499800
 20
0.986480
  0
VERTEX
  8
0
  6
CONTINUOUS
 10
7.069040
 20
0.986920
  0
VERTEX
  8
0
  6
CONTINUOUS
 10
7.075640
 20
1.004080
  0
SEQEND
  8
0
  0
SOLID
  8
0
 62
    15
 10
7.069040
 20
0.986920
 11
7.499800
 21
0.986480
 12
7.060680
 22
0.971520
 13
7.491440
 23
0.971080
  0
POLYLINE
  8
0
  6
CONTINUOUS
 66
     1
 40
0.000000
 41
0.000000
  0
VERTEX
  8
0
  6
CONTINUOUS
 10
7.069040
 20
0.986920
  0
VERTEX
  8
0
  6
CONTINUOUS
 10
7.499800
 20
0.986480
  0
VERTEX
  8
0
  6
CONTINUOUS
 10
7.491440
 20
0.971080
  0
VERTEX
  8
0
  6
CONTINUOUS
 10
7.060680
 20
0.971520
  0
VERTEX
  8
0
  6
CONTINUOUS
 10
7.069040
 20
0.986920
  0
SEQEND
  8
0
  0
SOLID
  8
0
 62
    15
 10
7.060680
 20
0.971520
 11
7.491440
 21
0.971080
 12
7.051440
 22
0.958320
 13
7.482200
 23
0.957880
  0
POLYLINE
  8
0
  6
CONTINUOUS
 66
     1
 40
0.000000
 41
0.000000
  0
VERTEX
  8
0
  6
CONTINUOUS
 10
7.060680
 20
0.971520
  0
VERTEX
  8
0
  6
CONTINUOUS
 10
7.491440
 20
0.971080
  0
VERTEX
  8
0
  6
CONTINUOUS
 10
7.482200
 20
0.957880
  0
VERTEX
  8
0
  6
CONTINUOUS
 10
7.051440
 20
0.958320
  0
VERTEX
  8
0
  6
CONTINUOUS
 10
7.060680
 20
0.971520
  0
SEQEND
  8
0
  0
SOLID
  8
0
 62
    15
 10
7.051440
 20
0.958320
 11
7.482200
 21
0.957880
 12
7.040880
 22
0.946880
 13
7.471640
 23
0.946440
  0
POLYLINE
  8
0
  6
CONTINUOUS
 66
     1
 40
0.000000
 41
0.000000
  0
VERTEX
  8
0
  6
CONTINUOUS
 10
7.051440
 20
0.958320
  0
VERTEX
  8
0
  6
CONTINUOUS
 10
7.482200
 20
0.957880
  0
VERTEX
  8
0
  6
CONTINUOUS
 10
7.471640
 20
0.946440
  0
VERTEX
  8
0
  6
CONTINUOUS
 10
7.040880
 20
0.946880
  0
VERTEX
  8
0
  6
CONTINUOUS
 10
7.051440
 20
0.958320
  0
SEQEND
  8
0
  0
SOLID
  8
0
 62
    15
 10
7.040880
 20
0.946880
 11
7.471640
 21
0.946440
 12
7.016240
 22
0.929280
 13
7.447000
 23
0.928840
  0
POLYLINE
  8
0
  6
CONTINUOUS
 66
     1
 40
0.000000
 41
0.000000
  0
VERTEX
  8
0
  6
CONTINUOUS
 10
7.040880
 20
0.946880
  0
VERTEX
  8
0
  6
CONTINUOUS
 10
7.471640
 20
0.946440
  0
VERTEX
  8
0
  6
CONTINUOUS
 10
7.447000
 20
0.928840
  0
VERTEX
  8
0
  6
CONTINUOUS
 10
7.016240
 20
0.929280
  0
VERTEX
  8
0
  6
CONTINUOUS
 10
7.040880
 20
0.946880
  0
SEQEND
  8
0
  0
SOLID
  8
0
 62
    15
 10
7.016240
 20
0.929280
 11
7.447000
 21
0.928840
 12
6.988080
 22
0.917400
 13
7.418840
 23
0.916960
  0
POLYLINE
  8
0
  6
CONTINUOUS
 66
     1
 40
0.000000
 41
0.000000
  0
VERTEX
  8
0
  6
CONTINUOUS
 10
7.016240
 20
0.929280
  0
VERTEX
  8
0
  6
CONTINUOUS
 10
7.447000
 20
0.928840
  0
VERTEX
  8
0
  6
CONTINUOUS
 10
7.418840
 20
0.916960
  0
VERTEX
  8
0
  6
CONTINUOUS
 10
6.988080
 20
0.917400
  0
VERTEX
  8
0
  6
CONTINUOUS
 10
7.016240
 20
0.929280
  0
SEQEND
  8
0
  0
SOLID
  8
0
 62
    15
 10
6.988080
 20
0.917400
 11
7.418840
 21
0.916960
 12
6.956400
 22
0.910800
 13
7.387160
 23
0.910360
  0
POLYLINE
  8
0
  6
CONTINUOUS
 66
     1
 40
0.000000
 41
0.000000
  0
VERTEX
  8
0
  6
CONTINUOUS
 10
6.988080
 20
0.917400
  0
VERTEX
  8
0
  6
CONTINUOUS
 10
7.418840
 20
0.916960
  0
VERTEX
  8
0
  6
CONTINUOUS
 10
7.387160
 20
0.910360
  0
VERTEX
  8
0
  6
CONTINUOUS
 10
6.956400
 20
0.910800
  0
VERTEX
  8
0
  6
CONTINUOUS
 10
6.988080
 20
0.917400
  0
SEQEND
  8
0
  0
SOLID
  8
0
 62
    15
 10
6.920760
 20
0.909040
 11
7.351520
 21
0.908160
 12
6.920760
 22
0.787600
 13
7.351520
 23
0.787160
  0
POLYLINE
  8
0
  6
CONTINUOUS
 66
     1
 40
0.000000
 41
0.000000
  0
VERTEX
  8
0
  6
CONTINUOUS
 10
6.920760
 20
0.909040
  0
VERTEX
  8
0
  6
CONTINUOUS
 10
7.351520
 20
0.908160
  0
VERTEX
  8
0
  6
CONTINUOUS
 10
7.351520
 20
0.787160
  0
VERTEX
  8
0
  6
CONTINUOUS
 10
6.920760
 20
0.787600
  0
VERTEX
  8
0
  6
CONTINUOUS
 10
6.920760
 20
0.909040
  0
SEQEND
  8
0
  0
SOLID
  8
0
 62
    15
 10
6.922080
 20
0.909040
 11
7.352840
 21
0.908160
 12
6.920760
 22
0.909040
 13
7.351520
 23
0.908160
  0
POLYLINE
  8
0
  6
CONTINUOUS
 66
     1
 40
0.000000
 41
0.000000
  0
VERTEX
  8
0
  6
CONTINUOUS
 10
6.922080
 20
0.909040
  0
VERTEX
  8
0
  6
CONTINUOUS
 10
7.352840
 20
0.908160
  0
VERTEX
  8
0
  6
CONTINUOUS
 10
7.351520
 20
0.908160
  0
VERTEX
  8
0
  6
CONTINUOUS
 10
6.920760
 20
0.909040
  0
VERTEX
  8
0
  6
CONTINUOUS
 10
6.922080
 20
0.909040
  0
SEQEND
  8
0
  0
SOLID
  8
0
 62
    15
 10
6.956400
 20
0.910800
 11
7.387160
 21
0.910360
 12
6.922080
 22
0.909040
 13
7.352840
 23
0.908160
  0
POLYLINE
  8
0
  6
CONTINUOUS
 66
     1
 40
0.000000
 41
0.000000
  0
VERTEX
  8
0
  6
CONTINUOUS
 10
6.956400
 20
0.910800
  0
VERTEX
  8
0
  6
CONTINUOUS
 10
7.387160
 20
0.910360
  0
VERTEX
  8
0
  6
CONTINUOUS
 10
7.352840
 20
0.908160
  0
VERTEX
  8
0
  6
CONTINUOUS
 10
6.922080
 20
0.909040
  0
VERTEX
  8
0
  6
CONTINUOUS
 10
6.956400
 20
0.910800
  0
SEQEND
  8
0
  0
SOLID
  8
0
 62
    15
 10
7.230080
 20
1.236840
 11
7.660840
 21
1.236400
 12
7.227000
 22
1.208680
 13
7.657760
 23
1.208240
  0
POLYLINE
  8
0
  6
CONTINUOUS
 66
     1
 40
0.000000
 41
0.000000
  0
VERTEX
  8
0
  6
CONTINUOUS
 10
7.230080
 20
1.236840
  0
VERTEX
  8
0
  6
CONTINUOUS
 10
7.660840
 20
1.236400
  0
VERTEX
  8
0
  6
CONTINUOUS
 10
7.657760
 20
1.208240
  0
VERTEX
  8
0
  6
CONTINUOUS
 10
7.227000
 20
1.208680
  0
VERTEX
  8
0
  6
CONTINUOUS
 10
7.230080
 20
1.236840
  0
SEQEND
  8
0
  0
SOLID
  8
0
 62
     7
 10
6.920760
 20
1.687400
 11
7.351520
 21
1.686960
 12
6.920760
 22
1.566400
 13
7.351520
 23
1.565520
  0
POLYLINE
  8
0
  6
CONTINUOUS
 66
     1
 40
0.000000
 41
0.000000
  0
VERTEX
  8
0
  6
CONTINUOUS
 10
6.920760
 20
1.687400
  0
VERTEX
  8
0
  6
CONTINUOUS
 10
7.351520
 20
1.686960
  0
VERTEX
  8
0
  6
CONTINUOUS
 10
7.351520
 20
1.565520
  0
VERTEX
  8
0
  6
CONTINUOUS
 10
6.920760
 20
1.566400
  0
VERTEX
  8
0
  6
CONTINUOUS
 10
6.920760
 20
1.687400
  0
SEQEND
  8
0
  0
SOLID
  8
0
 62
    15
 10
6.922080
 20
1.566400
 11
7.352840
 21
1.565520
 12
6.956400
 22
1.564200
 13
7.387160
 23
1.563760
  0
POLYLINE
  8
0
  6
CONTINUOUS
 66
     1
 40
0.000000
 41
0.000000
  0
VERTEX
  8
0
  6
CONTINUOUS
 10
6.922080
 20
1.566400
  0
VERTEX
  8
0
  6
CONTINUOUS
 10
7.352840
 20
1.565520
  0
VERTEX
  8
0
  6
CONTINUOUS
 10
7.387160
 20
1.563760
  0
VERTEX
  8
0
  6
CONTINUOUS
 10
6.956400
 20
1.564200
  0
VERTEX
  8
0
  6
CONTINUOUS
 10
6.922080
 20
1.566400
  0
SEQEND
  8
0
  0
SOLID
  8
0
 62
    15
 10
6.956400
 20
1.564200
 11
7.387160
 21
1.563760
 12
6.988080
 22
1.557600
 13
7.418840
 23
1.557160
  0
POLYLINE
  8
0
  6
CONTINUOUS
 66
     1
 40
0.000000
 41
0.000000
  0
VERTEX
  8
0
  6
CONTINUOUS
 10
6.956400
 20
1.564200
  0
VERTEX
  8
0
  6
CONTINUOUS
 10
7.387160
 20
1.563760
  0
VERTEX
  8
0
  6
CONTINUOUS
 10
7.418840
 20
1.557160
  0
VERTEX
  8
0
  6
CONTINUOUS
 10
6.988080
 20
1.557600
  0
VERTEX
  8
0
  6
CONTINUOUS
 10
6.956400
 20
1.564200
  0
SEQEND
  8
0
  0
SOLID
  8
0
 62
    15
 10
6.988080
 20
1.557600
 11
7.418840
 21
1.557160
 12
7.016240
 22
1.545720
 13
7.447000
 23
1.545280
  0
POLYLINE
  8
0
  6
CONTINUOUS
 66
     1
 40
0.000000
 41
0.000000
  0
VERTEX
  8
0
  6
CONTINUOUS
 10
6.988080
 20
1.557600
  0
VERTEX
  8
0
  6
CONTINUOUS
 10
7.418840
 20
1.557160
  0
VERTEX
  8
0
  6
CONTINUOUS
 10
7.447000
 20
1.545280
  0
VERTEX
  8
0
  6
CONTINUOUS
 10
7.016240
 20
1.545720
  0
VERTEX
  8
0
  6
CONTINUOUS
 10
6.988080
 20
1.557600
  0
SEQEND
  8
0
  0
SOLID
  8
0
 62
    15
 10
7.016240
 20
1.545720
 11
7.447000
 21
1.545280
 12
7.040880
 22
1.528120
 13
7.471640
 23
1.527680
  0
POLYLINE
  8
0
  6
CONTINUOUS
 66
     1
 40
0.000000
 41
0.000000
  0
VERTEX
  8
0
  6
CONTINUOUS
 10
7.016240
 20
1.545720
  0
VERTEX
  8
0
  6
CONTINUOUS
 10
7.447000
 20
1.545280
  0
VERTEX
  8
0
  6
CONTINUOUS
 10
7.471640
 20
1.527680
  0
VERTEX
  8
0
  6
CONTINUOUS
 10
7.040880
 20
1.528120
  0
VERTEX
  8
0
  6
CONTINUOUS
 10
7.016240
 20
1.545720
  0
SEQEND
  8
0
  0
SOLID
  8
0
 62
     7
 10
7.040880
 20
1.528120
 11
7.471640
 21
1.527680
 12
7.051440
 22
1.516680
 13
7.482200
 23
1.516240
  0
POLYLINE
  8
0
  6
CONTINUOUS
 66
     1
 40
0.000000
 41
0.000000
  0
VERTEX
  8
0
  6
CONTINUOUS
 10
7.040880
 20
1.528120
  0
VERTEX
  8
0
  6
CONTINUOUS
 10
7.471640
 20
1.527680
  0
VERTEX
  8
0
  6
CONTINUOUS
 10
7.482200
 20
1.516240
  0
VERTEX
  8
0
  6
CONTINUOUS
 10
7.051440
 20
1.516680
  0
VERTEX
  8
0
  6
CONTINUOUS
 10
7.040880
 20
1.528120
  0
SEQEND
  8
0
  0
SOLID
  8
0
 62
     7
 10
7.051440
 20
1.516680
 11
7.482200
 21
1.516240
 12
7.060680
 22
1.503480
 13
7.491440
 23
1.503040
  0
POLYLINE
  8
0
  6
CONTINUOUS
 66
     1
 40
0.000000
 41
0.000000
  0
VERTEX
  8
0
  6
CONTINUOUS
 10
7.051440
 20
1.516680
  0
VERTEX
  8
0
  6
CONTINUOUS
 10
7.482200
 20
1.516240
  0
VERTEX
  8
0
  6
CONTINUOUS
 10
7.491440
 20
1.503040
  0
VERTEX
  8
0
  6
CONTINUOUS
 10
7.060680
 20
1.503480
  0
VERTEX
  8
0
  6
CONTINUOUS
 10
7.051440
 20
1.516680
  0
SEQEND
  8
0
  0
SOLID
  8
0
 62
     7
 10
7.060680
 20
1.503480
 11
7.491440
 21
1.503040
 12
7.069040
 22
1.488080
 13
7.499800
 23
1.487640
  0
POLYLINE
  8
0
  6
CONTINUOUS
 66
     1
 40
0.000000
 41
0.000000
  0
VERTEX
  8
0
  6
CONTINUOUS
 10
7.060680
 20
1.503480
  0
VERTEX
  8
0
  6
CONTINUOUS
 10
7.491440
 20
1.503040
  0
VERTEX
  8
0
  6
CONTINUOUS
 10
7.499800
 20
1.487640
  0
VERTEX
  8
0
  6
CONTINUOUS
 10
7.069040
 20
1.488080
  0
VERTEX
  8
0
  6
CONTINUOUS
 10
7.060680
 20
1.503480
  0
SEQEND
  8
0
  0
SOLID
  8
0
 62
     7
 10
7.069040
 20
1.488080
 11
7.499800
 21
1.487640
 12
7.075640
 22
1.471360
 13
7.506840
 23
1.470480
  0
POLYLINE
  8
0
  6
CONTINUOUS
 66
     1
 40
0.000000
 41
0.000000
  0
VERTEX
  8
0
  6
CONTINUOUS
 10
7.069040
 20
1.488080
  0
VERTEX
  8
0
  6
CONTINUOUS
 10
7.499800
 20
1.487640
  0
VERTEX
  8
0
  6
CONTINUOUS
 10
7.506840
 20
1.470480
  0
VERTEX
  8
0
  6
CONTINUOUS
 10
7.075640
 20
1.471360
  0
VERTEX
  8
0
  6
CONTINUOUS
 10
7.069040
 20
1.488080
  0
SEQEND
  8
0
  0
SOLID
  8
0
 62
     7
 10
7.075640
 20
1.471360
 11
7.506840
 21
1.470480
 12
7.081360
 22
1.452000
 13
7.512120
 23
1.451560
  0
POLYLINE
  8
0
  6
CONTINUOUS
 66
     1
 40
0.000000
 41
0.000000
  0
VERTEX
  8
0
  6
CONTINUOUS
 10
7.075640
 20
1.471360
  0
VERTEX
  8
0
  6
CONTINUOUS
 10
7.506840
 20
1.470480
  0
VERTEX
  8
0
  6
CONTINUOUS
 10
7.512120
 20
1.451560
  0
VERTEX
  8
0
  6
CONTINUOUS
 10
7.081360
 20
1.452000
  0
VERTEX
  8
0
  6
CONTINUOUS
 10
7.075640
 20
1.471360
  0
SEQEND
  8
0
  0
SOLID
  8
0
 62
     7
 10
7.081360
 20
1.452000
 11
7.512120
 21
1.451560
 12
7.085320
 22
1.430440
 13
7.516080
 23
1.430000
  0
POLYLINE
  8
0
  6
CONTINUOUS
 66
     1
 40
0.000000
 41
0.000000
  0
VERTEX
  8
0
  6
CONTINUOUS
 10
7.081360
 20
1.452000
  0
VERTEX
  8
0
  6
CONTINUOUS
 10
7.512120
 20
1.451560
  0
VERTEX
  8
0
  6
CONTINUOUS
 10
7.516080
 20
1.430000
  0
VERTEX
  8
0
  6
CONTINUOUS
 10
7.085320
 20
1.430440
  0
VERTEX
  8
0
  6
CONTINUOUS
 10
7.081360
 20
1.452000
  0
SEQEND
  8
0
  0
SOLID
  8
0
 62
    15
 10
7.085320
 20
1.430440
 11
7.516080
 21
1.430000
 12
7.087520
 22
1.407120
 13
7.518720
 23
1.406240
  0
POLYLINE
  8
0
  6
CONTINUOUS
 66
     1
 40
0.000000
 41
0.000000
  0
VERTEX
  8
0
  6
CONTINUOUS
 10
7.085320
 20
1.430440
  0
VERTEX
  8
0
  6
CONTINUOUS
 10
7.516080
 20
1.430000
  0
VERTEX
  8
0
  6
CONTINUOUS
 10
7.518720
 20
1.406240
  0
VERTEX
  8
0
  6
CONTINUOUS
 10
7.087520
 20
1.407120
  0
VERTEX
  8
0
  6
CONTINUOUS
 10
7.085320
 20
1.430440
  0
SEQEND
  8
0
  0
SOLID
  8
0
 62
    15
 10
7.087520
 20
1.407120
 11
7.518720
 21
1.406240
 12
7.088400
 22
1.379400
 13
7.519600
 23
1.378960
  0
POLYLINE
  8
0
  6
CONTINUOUS
 66
     1
 40
0.000000
 41
0.000000
  0
VERTEX
  8
0
  6
CONTINUOUS
 10
7.087520
 20
1.407120
  0
VERTEX
  8
0
  6
CONTINUOUS
 10
7.518720
 20
1.406240
  0
VERTEX
  8
0
  6
CONTINUOUS
 10
7.519600
 20
1.378960
  0
VERTEX
  8
0
  6
CONTINUOUS
 10
7.088400
 20
1.379400
  0
VERTEX
  8
0
  6
CONTINUOUS
 10
7.087520
 20
1.407120
  0
SEQEND
  8
0
  0
SOLID
  8
0
 62
    15
 10
7.088400
 20
1.379400
 11
7.519600
 21
1.378960
 12
7.117000
 22
1.376760
 13
7.547760
 23
1.376320
  0
POLYLINE
  8
0
  6
CONTINUOUS
 66
     1
 40
0.000000
 41
0.000000
  0
VERTEX
  8
0
  6
CONTINUOUS
 10
7.088400
 20
1.379400
  0
VERTEX
  8
0
  6
CONTINUOUS
 10
7.519600
 20
1.378960
  0
VERTEX
  8
0
  6
CONTINUOUS
 10
7.547760
 20
1.376320
  0
VERTEX
  8
0
  6
CONTINUOUS
 10
7.117000
 20
1.376760
  0
VERTEX
  8
0
  6
CONTINUOUS
 10
7.088400
 20
1.379400
  0
SEQEND
  8
0
  0
SOLID
  8
0
 62
    15
 10
7.117000
 20
1.376760
 11
7.547760
 21
1.376320
 12
7.143400
 22
1.368400
 13
7.574160
 23
1.367960
  0
POLYLINE
  8
0
  6
CONTINUOUS
 66
     1
 40
0.000000
 41
0.000000
  0
VERTEX
  8
0
  6
CONTINUOUS
 10
7.117000
 20
1.376760
  0
VERTEX
  8
0
  6
CONTINUOUS
 10
7.547760
 20
1.376320
  0
VERTEX
  8
0
  6
CONTINUOUS
 10
7.574160
 20
1.367960
  0
VERTEX
  8
0
  6
CONTINUOUS
 10
7.143400
 20
1.368400
  0
VERTEX
  8
0
  6
CONTINUOUS
 10
7.117000
 20
1.376760
  0
SEQEND
  8
0
  0
SOLID
  8
0
 62
    15
 10
7.143400
 20
1.368400
 11
7.574160
 21
1.367960
 12
7.167160
 22
1.355200
 13
7.597920
 23
1.354760
  0
POLYLINE
  8
0
  6
CONTINUOUS
 66
     1
 40
0.000000
 41
0.000000
  0
VERTEX
  8
0
  6
CONTINUOUS
 10
7.143400
 20
1.368400
  0
VERTEX
  8
0
  6
CONTINUOUS
 10
7.574160
 20
1.367960
  0
VERTEX
  8
0
  6
CONTINUOUS
 10
7.597920
 20
1.354760
  0
VERTEX
  8
0
  6
CONTINUOUS
 10
7.167160
 20
1.355200
  0
VERTEX
  8
0
  6
CONTINUOUS
 10
7.143400
 20
1.368400
  0
SEQEND
  8
0
  0
SOLID
  8
0
 62
    15
 10
7.167160
 20
1.355200
 11
7.597920
 21
1.354760
 12
7.188280
 22
1.338040
 13
7.619040
 23
1.337160
  0
POLYLINE
  8
0
  6
CONTINUOUS
 66
     1
 40
0.000000
 41
0.000000
  0
VERTEX
  8
0
  6
CONTINUOUS
 10
7.167160
 20
1.355200
  0
VERTEX
  8
0
  6
CONTINUOUS
 10
7.597920
 20
1.354760
  0
VERTEX
  8
0
  6
CONTINUOUS
 10
7.619040
 20
1.337160
  0
VERTEX
  8
0
  6
CONTINUOUS
 10
7.188280
 20
1.338040
  0
VERTEX
  8
0
  6
CONTINUOUS
 10
7.167160
 20
1.355200
  0
SEQEND
  8
0
  0
SOLID
  8
0
 62
     7
 10
7.188280
 20
1.338040
 11
7.619040
 21
1.337160
 12
7.205440
 22
1.316920
 13
7.636200
 23
1.316480
  0
POLYLINE
  8
0
  6
CONTINUOUS
 66
     1
 40
0.000000
 41
0.000000
  0
VERTEX
  8
0
  6
CONTINUOUS
 10
7.188280
 20
1.338040
  0
VERTEX
  8
0
  6
CONTINUOUS
 10
7.619040
 20
1.337160
  0
VERTEX
  8
0
  6
CONTINUOUS
 10
7.636200
 20
1.316480
  0
VERTEX
  8
0
  6
CONTINUOUS
 10
7.205440
 20
1.316920
  0
VERTEX
  8
0
  6
CONTINUOUS
 10
7.188280
 20
1.338040
  0
SEQEND
  8
0
  0
SOLID
  8
0
 62
     7
 10
7.205440
 20
1.316920
 11
7.636200
 21
1.316480
 12
7.218640
 22
1.293160
 13
7.649400
 23
1.292280
  0
POLYLINE
  8
0
  6
CONTINUOUS
 66
     1
 40
0.000000
 41
0.000000
  0
VERTEX
  8
0
  6
CONTINUOUS
 10
7.205440
 20
1.316920
  0
VERTEX
  8
0
  6
CONTINUOUS
 10
7.636200
 20
1.316480
  0
VERTEX
  8
0
  6
CONTINUOUS
 10
7.649400
 20
1.292280
  0
VERTEX
  8
0
  6
CONTINUOUS
 10
7.218640
 20
1.293160
  0
VERTEX
  8
0
  6
CONTINUOUS
 10
7.205440
 20
1.316920
  0
SEQEND
  8
0
  0
SOLID
  8
0
 62
     7
 10
7.218640
 20
1.293160
 11
7.649400
 21
1.292280
 12
7.227000
 22
1.266760
 13
7.657760
 23
1.265880
  0
POLYLINE
  8
0
  6
CONTINUOUS
 66
     1
 40
0.000000
 41
0.000000
  0
VERTEX
  8
0
  6
CONTINUOUS
 10
7.218640
 20
1.293160
  0
VERTEX
  8
0
  6
CONTINUOUS
 10
7.649400
 20
1.292280
  0
VERTEX
  8
0
  6
CONTINUOUS
 10
7.657760
 20
1.265880
  0
VERTEX
  8
0
  6
CONTINUOUS
 10
7.227000
 20
1.266760
  0
VERTEX
  8
0
  6
CONTINUOUS
 10
7.218640
 20
1.293160
  0
SEQEND
  8
0
  0
SOLID
  8
0
 62
    15
 10
7.227000
 20
1.266760
 11
7.657760
 21
1.265880
 12
7.230080
 22
1.238160
 13
7.660840
 23
1.237720
  0
POLYLINE
  8
0
  6
CONTINUOUS
 66
     1
 40
0.000000
 41
0.000000
  0
VERTEX
  8
0
  6
CONTINUOUS
 10
7.227000
 20
1.266760
  0
VERTEX
  8
0
  6
CONTINUOUS
 10
7.657760
 20
1.265880
  0
VERTEX
  8
0
  6
CONTINUOUS
 10
7.660840
 20
1.237720
  0
VERTEX
  8
0
  6
CONTINUOUS
 10
7.230080
 20
1.238160
  0
VERTEX
  8
0
  6
CONTINUOUS
 10
7.227000
 20
1.266760
  0
SEQEND
  8
0
  0
SOLID
  8
0
 62
    15
 10
7.230080
 20
1.238160
 11
7.660840
 21
1.237720
 12
7.230080
 22
1.236840
 13
7.660840
 23
1.236400
  0
POLYLINE
  8
0
  6
CONTINUOUS
 66
     1
 40
0.000000
 41
0.000000
  0
VERTEX
  8
0
  6
CONTINUOUS
 10
7.230080
 20
1.238160
  0
VERTEX
  8
0
  6
CONTINUOUS
 10
7.660840
 20
1.237720
  0
VERTEX
  8
0
  6
CONTINUOUS
 10
7.660840
 20
1.236400
  0
VERTEX
  8
0
  6
CONTINUOUS
 10
7.230080
 20
1.236840
  0
VERTEX
  8
0
  6
CONTINUOUS
 10
7.230080
 20
1.238160
  0
SEQEND
  8
0
  0
POLYLINE
  8
0
  6
CONTINUOUS
 66
     1
 40
0.000000
 41
0.000000
  0
VERTEX
  8
0
  6
CONTINUOUS
 10
7.230080
 20
1.236840
  0
VERTEX
  8
0
  6
CONTINUOUS
 10
7.227000
 20
1.208680
  0
VERTEX
  8
0
  6
CONTINUOUS
 10
7.218640
 20
1.182280
  0
VERTEX
  8
0
  6
CONTINUOUS
 10
7.205440
 20
1.158080
  0
VERTEX
  8
0
  6
CONTINUOUS
 10
7.188280
 20
1.137400
  0
VERTEX
  8
0
  6
CONTINUOUS
 10
7.167160
 20
1.119800
  0
VERTEX
  8
0
  6
CONTINUOUS
 10
7.143400
 20
1.106600
  0
VERTEX
  8
0
  6
CONTINUOUS
 10
7.117000
 20
1.098680
  0
VERTEX
  8
0
  6
CONTINUOUS
 10
7.088400
 20
1.095600
  0
VERTEX
  8
0
  6
CONTINUOUS
 10
7.087520
 20
1.068320
  0
VERTEX
  8
0
  6
CONTINUOUS
 10
7.085320
 20
1.044560
  0
VERTEX
  8
0
  6
CONTINUOUS
 10
7.081360
 20
1.023000
  0
VERTEX
  8
0
  6
CONTINUOUS
 10
7.075640
 20
1.004080
  0
VERTEX
  8
0
  6
CONTINUOUS
 10
7.069040
 20
0.986920
  0
VERTEX
  8
0
  6
CONTINUOUS
 10
7.060680
 20
0.971520
  0
VERTEX
  8
0
  6
CONTINUOUS
 10
7.051440
 20
0.958320
  0
VERTEX
  8
0
  6
CONTINUOUS
 10
7.040880
 20
0.946880
  0
VERTEX
  8
0
  6
CONTINUOUS
 10
7.016240
 20
0.929280
  0
VERTEX
  8
0
  6
CONTINUOUS
 10
6.988080
 20
0.917400
  0
VERTEX
  8
0
  6
CONTINUOUS
 10
6.956400
 20
0.910800
  0
VERTEX
  8
0
  6
CONTINUOUS
 10
6.922080
 20
0.909040
  0
VERTEX
  8
0
  6
CONTINUOUS
 10
6.920760
 20
0.909040
  0
VERTEX
  8
0
  6
CONTINUOUS
 10
6.920760
 20
0.787600
  0
VERTEX
  8
0
  6
CONTINUOUS
 10
6.788760
 20
0.787600
  0
VERTEX
  8
0
  6
CONTINUOUS
 10
6.788760
 20
1.687400
  0
VERTEX
  8
0
  6
CONTINUOUS
 10
6.920760
 20
1.687400
  0
VERTEX
  8
0
  6
CONTINUOUS
 10
6.920760
 20
1.566400
  0
VERTEX
  8
0
  6
CONTINUOUS
 10
6.922080
 20
1.566400
  0
VERTEX
  8
0
  6
CONTINUOUS
 10
6.956400
 20
1.564200
  0
VERTEX
  8
0
  6
CONTINUOUS
 10
6.988080
 20
1.557600
  0
VERTEX
  8
0
  6
CONTINUOUS
 10
7.016240
 20
1.545720
  0
VERTEX
  8
0
  6
CONTINUOUS
 10
7.040880
 20
1.528120
  0
VERTEX
  8
0
  6
CONTINUOUS
 10
7.051440
 20
1.516680
  0
VERTEX
  8
0
  6
CONTINUOUS
 10
7.060680
 20
1.503480
  0
VERTEX
  8
0
  6
CONTINUOUS
 10
7.069040
 20
1.488080
  0
VERTEX
  8
0
  6
CONTINUOUS
 10
7.075640
 20
1.471360
  0
VERTEX
  8
0
  6
CONTINUOUS
 10
7.081360
 20
1.452000
  0
VERTEX
  8
0
  6
CONTINUOUS
 10
7.085320
 20
1.430440
  0
VERTEX
  8
0
  6
CONTINUOUS
 10
7.087520
 20
1.407120
  0
VERTEX
  8
0
  6
CONTINUOUS
 10
7.088400
 20
1.379400
  0
VERTEX
  8
0
  6
CONTINUOUS
 10
7.117000
 20
1.376760
  0
VERTEX
  8
0
  6
CONTINUOUS
 10
7.143400
 20
1.368400
  0
VERTEX
  8
0
  6
CONTINUOUS
 10
7.167160
 20
1.355200
  0
VERTEX
  8
0
  6
CONTINUOUS
 10
7.188280
 20
1.338040
  0
VERTEX
  8
0
  6
CONTINUOUS
 10
7.205440
 20
1.316920
  0
VERTEX
  8
0
  6
CONTINUOUS
 10
7.218640
 20
1.293160
  0
VERTEX
  8
0
  6
CONTINUOUS
 10
7.227000
 20
1.266760
  0
VERTEX
  8
0
  6
CONTINUOUS
 10
7.230080
 20
1.238160
  0
VERTEX
  8
0
  6
CONTINUOUS
 10
7.230080
 20
1.236840
  0
SEQEND
  8
0
  0
TEXT
  8
0
 10
6.929120
 20
0.585200
 40
0.138108
  1
BA  228
 41
1.000000
  7
SN0
 71
     0
 72
     5
 11
7.518955
 21
0.585200
  0
TEXT
  8
0
 10
6.801080
 20
0.393360
 40
0.138108
  1
7/16" x 7/8"
 41
1.000000
  7
SN0
 71
     0
 72
     5
 11
7.645775
 21
0.393360
  0
TEXT
  8
0
 10
7.536760
 20
2.349600
 40
0.138108
  1
astragal
 41
1.000000
  7
SN0
 71
     0
 72
     5
 11
8.125950
 21
2.349600
  0
TEXT
  8
0
 10
7.693840
 20
2.158200
 40
0.138108
  1
228
 41
1.000000
  7
SN0
 71
     0
 72
     5
 11
7.970745
 21
2.158200
  0
ENDSEC
  0
EOF
