  0
SECTION
  2
HEADER
  9
$ACADVER
  1
AC1006
  9
$EXTMIN
 10
1.056000
 20
0.341880
  9
$EXTMAX
 10
8.102600
 20
7.065080
  9
$LTSCALE
 40
0.044000
  9
$PDMODE
 70
    35
  9
$PDSIZE
 40
0.035200
  0
ENDSEC
  0
SECTION
  2
TABLES
  0
TABLE
  2
LTYPE
 70
     9
  0
LTYPE
  2
CONTINUOUS
 70
    64
  3
Solid line
 72
    65
 73
     0
 40
0.000000
  0
LTYPE
  2
DASHED
 70
    64
  3
__ __ __ __ __ __ __ __ __ __ __ __ __ __ __
 72
    65
 73
     2
 40
0.000330
 49
0.000220
 49
-0.000110
  0
LTYPE
  2
HIDDEN
 70
    64
  3
 _ _ _ _ _ _ _ _ _ _ _ _ _ _ _ _ _ _ _ _ _ _
 72
    65
 73
     2
 40
0.000165
 49
0.000110
 49
-0.000055
  0
LTYPE
  2
CENTER
 70
    64
  3
____ _ ____ _ ____ _ ____ _ ____ _ ____ _ ____
 72
    65
 73
     4
 40
0.000880
 49
0.000550
 49
-0.000110
 49
0.000110
 49
-0.000110
  0
LTYPE
  2
PHANTOM
 70
    64
  3
_____ _ _ _____ _ _ _____ _ _ _____ _ _ ____
 72
    65
 73
     6
 40
0.001100
 49
0.000550
 49
-0.000110
 49
0.000110
 49
-0.000110
 49
0.000110
 49
-0.000110
  0
LTYPE
  2
DOT
 70
    64
  3
...............................................
 72
    65
 73
     2
 40
0.000110
 49
0.000000
 49
-0.000110
  0
LTYPE
  2
DASHDOT
 70
    64
  3
__ . __ . __ . __ . __ . __ . __ . __ . __ . __
 72
    65
 73
     4
 40
0.000440
 49
0.000220
 49
-0.000110
 49
0.000000
 49
-0.000110
  0
LTYPE
  2
BORDER
 70
    64
  3
__ __ . __ __ . __ __ . __ __ . __ __ . __ __
 72
    65
 73
     6
 40
0.000770
 49
0.000220
 49
-0.000110
 49
0.000220
 49
-0.000110
 49
0.000000
 49
-0.000110
  0
LTYPE
  2
DIVIDE
 70
    64
  3
__ . . __ . . __ . . __ . . __ . . __ . . __
 72
    65
 73
     6
 40
0.000550
 49
0.000220
 49
-0.000110
 49
0.000000
 49
-0.000110
 49
0.000000
 49
-0.000110
  0
LTYPE
  2
DOTDOT
 70
    64
  3
 . .  . .  . .  . .  . .  . . 
 72
    65
 73
     5
 40
0.000242
 49
-0.000110
 49
0.000000
 49
-0.000110
 49
0.000000
 49
-0.000110
  0
ENDTAB
  0
TABLE
  2
STYLE
 70
     2
  0
STYLE
 70
     0
  2
SN0
 40
0.000000
 41
0.000440
 50
0.000000
 71
     0
 42
0.000000
  3
ROMAND
  0
STYLE
 70
    68
  2
SV0
 40
0.000000
 41
0.000440
 50
0.000000
 71
     0
 42
0.000000
  3
ROMAND
  0
ENDTAB
  0
TABLE
  2
LAYER
 70
     3
  0
LAYER
  2
FOREGROUND
 70
    64
 62
     7
  6
CONTINUOUS
  0
LAYER
  2
BACKGROUND
 70
    65
 62
    -7
  6
CONTINUOUS
  0
LAYER
  2
0
 70
    64
 62
     7
  6
CONTINUOUS
  0
ENDTAB
  0
ENDSEC
  0
SECTION
  2
ENTITIES
  0
POLYLINE
  8
FOREGROUND
  6
CONTINUOUS
 66
     1
 40
0.000000
 41
0.000000
  0
VERTEX
  8
FOREGROUND
  6
CONTINUOUS
 10
0.000000
 20
7.406960
  0
VERTEX
  8
FOREGROUND
  6
CONTINUOUS
 10
8.499920
 20
7.406960
  0
VERTEX
  8
FOREGROUND
  6
CONTINUOUS
 10
8.499920
 20
-3.593040
  0
VERTEX
  8
FOREGROUND
  6
CONTINUOUS
 10
0.000000
 20
-3.593040
  0
VERTEX
  8
FOREGROUND
  6
CONTINUOUS
 10
0.000000
 20
7.406960
  0
SEQEND
  8
0
  0
POLYLINE
  8
FOREGROUND
  6
CONTINUOUS
 66
     1
 40
0.000000
 41
0.000000
  0
VERTEX
  8
FOREGROUND
  6
CONTINUOUS
 10
0.000000
 20
7.406960
  0
VERTEX
  8
FOREGROUND
  6
CONTINUOUS
 10
8.499920
 20
7.406960
  0
VERTEX
  8
FOREGROUND
  6
CONTINUOUS
 10
8.499920
 20
-3.593040
  0
VERTEX
  8
FOREGROUND
  6
CONTINUOUS
 10
0.000000
 20
-3.593040
  0
VERTEX
  8
FOREGROUND
  6
CONTINUOUS
 10
0.000000
 20
7.406960
  0
SEQEND
  8
0
  0
POLYLINE
  8
0
  6
CONTINUOUS
 66
     1
 40
0.014080
 41
0.014080
  0
VERTEX
  8
0
  6
CONTINUOUS
 10
6.539720
 20
5.652680
  0
VERTEX
  8
0
  6
CONTINUOUS
 10
1.846680
 20
5.654880
  0
VERTEX
  8
0
  6
CONTINUOUS
 10
1.849320
 20
5.654440
  0
VERTEX
  8
0
  6
CONTINUOUS
 10
1.061720
 20
6.571840
  0
VERTEX
  8
0
  6
CONTINUOUS
 10
1.061720
 20
6.574480
  0
VERTEX
  8
0
  6
CONTINUOUS
 10
1.295800
 20
6.847280
  0
VERTEX
  8
0
  6
CONTINUOUS
 10
1.413720
 20
6.769400
  0
VERTEX
  8
0
  6
CONTINUOUS
 10
1.527680
 20
6.702080
  0
VERTEX
  8
0
  6
CONTINUOUS
 10
1.638120
 20
6.644000
  0
VERTEX
  8
0
  6
CONTINUOUS
 10
1.709840
 20
6.610560
  0
VERTEX
  8
0
  6
CONTINUOUS
 10
1.814120
 20
6.567880
  0
VERTEX
  8
0
  6
CONTINUOUS
 10
1.915760
 20
6.533560
  0
VERTEX
  8
0
  6
CONTINUOUS
 10
1.981760
 20
6.514640
  0
VERTEX
  8
0
  6
CONTINUOUS
 10
2.046440
 20
6.499240
  0
VERTEX
  8
0
  6
CONTINUOUS
 10
2.141480
 20
6.482080
  0
VERTEX
  8
0
  6
CONTINUOUS
 10
2.203080
 20
6.474600
  0
VERTEX
  8
0
  6
CONTINUOUS
 10
2.263800
 20
6.469760
  0
VERTEX
  8
0
  6
CONTINUOUS
 10
2.353120
 20
6.467120
  0
VERTEX
  8
0
  6
CONTINUOUS
 10
2.439800
 20
6.470200
  0
VERTEX
  8
0
  6
CONTINUOUS
 10
2.497000
 20
6.475040
  0
VERTEX
  8
0
  6
CONTINUOUS
 10
2.552880
 20
6.482080
  0
VERTEX
  8
0
  6
CONTINUOUS
 10
2.607880
 20
6.490880
  0
VERTEX
  8
0
  6
CONTINUOUS
 10
2.716560
 20
6.513320
  0
VERTEX
  8
0
  6
CONTINUOUS
 10
2.822160
 20
6.541920
  0
VERTEX
  8
0
  6
CONTINUOUS
 10
2.926000
 20
6.574920
  0
VERTEX
  8
0
  6
CONTINUOUS
 10
3.028520
 20
6.611440
  0
VERTEX
  8
0
  6
CONTINUOUS
 10
3.429360
 20
6.768080
  0
VERTEX
  8
0
  6
CONTINUOUS
 10
3.529680
 20
6.803720
  0
VERTEX
  8
0
  6
CONTINUOUS
 10
3.630880
 20
6.835400
  0
VERTEX
  8
0
  6
CONTINUOUS
 10
3.681920
 20
6.849920
  0
VERTEX
  8
0
  6
CONTINUOUS
 10
3.733400
 20
6.862680
  0
VERTEX
  8
0
  6
CONTINUOUS
 10
3.837680
 20
6.883360
  0
VERTEX
  8
0
  6
CONTINUOUS
 10
3.944160
 20
6.897000
  0
VERTEX
  8
0
  6
CONTINUOUS
 10
4.025560
 20
6.901400
  0
VERTEX
  8
0
  6
CONTINUOUS
 10
4.080560
 20
6.901400
  0
VERTEX
  8
0
  6
CONTINUOUS
 10
4.136880
 20
6.899200
  0
VERTEX
  8
0
  6
CONTINUOUS
 10
4.222240
 20
6.890400
  0
VERTEX
  8
0
  6
CONTINUOUS
 10
4.309800
 20
6.875440
  0
VERTEX
  8
0
  6
CONTINUOUS
 10
4.399560
 20
6.853440
  0
VERTEX
  8
0
  6
CONTINUOUS
 10
4.460720
 20
6.834520
  0
VERTEX
  8
0
  6
CONTINUOUS
 10
4.554880
 20
6.799760
  0
VERTEX
  8
0
  6
CONTINUOUS
 10
4.651240
 20
6.756200
  0
VERTEX
  8
0
  6
CONTINUOUS
 10
4.717240
 20
6.722760
  0
VERTEX
  8
0
  6
CONTINUOUS
 10
4.784560
 20
6.684920
  0
VERTEX
  8
0
  6
CONTINUOUS
 10
4.887960
 20
6.620240
  0
VERTEX
  8
0
  6
CONTINUOUS
 10
4.994880
 20
6.545440
  0
VERTEX
  8
0
  6
CONTINUOUS
 10
5.067920
 20
6.490000
  0
VERTEX
  8
0
  6
CONTINUOUS
 10
5.069240
 20
6.487360
  0
VERTEX
  8
0
  6
CONTINUOUS
 10
5.440600
 20
6.714400
  0
VERTEX
  8
0
  6
CONTINUOUS
 10
5.440160
 20
6.711760
  0
VERTEX
  8
0
  6
CONTINUOUS
 10
5.638160
 20
6.510680
  0
VERTEX
  8
0
  6
CONTINUOUS
 10
5.705920
 20
6.547640
  0
VERTEX
  8
0
  6
CONTINUOUS
 10
5.769720
 20
6.578440
  0
VERTEX
  8
0
  6
CONTINUOUS
 10
5.830000
 20
6.602640
  0
VERTEX
  8
0
  6
CONTINUOUS
 10
5.886760
 20
6.621560
  0
VERTEX
  8
0
  6
CONTINUOUS
 10
5.940440
 20
6.635200
  0
VERTEX
  8
0
  6
CONTINUOUS
 10
5.991040
 20
6.644440
  0
VERTEX
  8
0
  6
CONTINUOUS
 10
6.039000
 20
6.648840
  0
VERTEX
  8
0
  6
CONTINUOUS
 10
6.084760
 20
6.649720
  0
VERTEX
  8
0
  6
CONTINUOUS
 10
6.127880
 20
6.647080
  0
VERTEX
  8
0
  6
CONTINUOUS
 10
6.169240
 20
6.641800
  0
VERTEX
  8
0
  6
CONTINUOUS
 10
6.209280
 20
6.633880
  0
VERTEX
  8
0
  6
CONTINUOUS
 10
6.247560
 20
6.624200
  0
VERTEX
  8
0
  6
CONTINUOUS
 10
6.321040
 20
6.600440
  0
VERTEX
  8
0
  6
CONTINUOUS
 10
6.462280
 20
6.549400
  0
VERTEX
  8
0
  6
CONTINUOUS
 10
6.497920
 20
6.538400
  0
VERTEX
  8
0
  6
CONTINUOUS
 10
6.552920
 20
6.525640
  0
VERTEX
  8
0
  6
CONTINUOUS
 10
6.609680
 20
6.517720
  0
VERTEX
  8
0
  6
CONTINUOUS
 10
6.649280
 20
6.516400
  0
VERTEX
  8
0
  6
CONTINUOUS
 10
6.690640
 20
6.518600
  0
VERTEX
  8
0
  6
CONTINUOUS
 10
6.733760
 20
6.524760
  0
VERTEX
  8
0
  6
CONTINUOUS
 10
6.756200
 20
6.529160
  0
VERTEX
  8
0
  6
CONTINUOUS
 10
6.802840
 20
6.542360
  0
VERTEX
  8
0
  6
CONTINUOUS
 10
6.851680
 20
6.560400
  0
VERTEX
  8
0
  6
CONTINUOUS
 10
6.903600
 20
6.583720
  0
VERTEX
  8
0
  6
CONTINUOUS
 10
6.987200
 20
6.630360
  0
VERTEX
  8
0
  6
CONTINUOUS
 10
7.047040
 20
6.669960
  0
VERTEX
  8
0
  6
CONTINUOUS
 10
7.110400
 20
6.716600
  0
VERTEX
  8
0
  6
CONTINUOUS
 10
7.110840
 20
6.720560
  0
VERTEX
  8
0
  6
CONTINUOUS
 10
7.378360
 20
6.413440
  0
VERTEX
  8
0
  6
CONTINUOUS
 10
7.377040
 20
6.408160
  0
VERTEX
  8
0
  6
CONTINUOUS
 10
6.568760
 20
5.651800
  0
VERTEX
  8
0
  6
CONTINUOUS
 10
6.539720
 20
5.652680
  0
SEQEND
  8
0
  0
SOLID
  8
0
 62
    15
 10
4.095960
 20
2.611400
 11
4.746720
 21
2.200880
 12
3.825360
 22
2.504480
 13
4.476560
 23
2.094400
  0
POLYLINE
  8
0
  6
CONTINUOUS
 66
     1
 40
0.000000
 41
0.000000
  0
VERTEX
  8
0
  6
CONTINUOUS
 10
4.095960
 20
2.611400
  0
VERTEX
  8
0
  6
CONTINUOUS
 10
4.746720
 20
2.200880
  0
VERTEX
  8
0
  6
CONTINUOUS
 10
4.476560
 20
2.094400
  0
VERTEX
  8
0
  6
CONTINUOUS
 10
3.825360
 20
2.504480
  0
VERTEX
  8
0
  6
CONTINUOUS
 10
4.095960
 20
2.611400
  0
SEQEND
  8
0
  0
SOLID
  8
0
 62
    15
 10
5.050760
 20
5.366240
 11
5.701520
 21
4.956160
 12
5.049000
 22
5.364480
 13
5.699760
 23
4.953960
  0
POLYLINE
  8
0
  6
CONTINUOUS
 66
     1
 40
0.000000
 41
0.000000
  0
VERTEX
  8
0
  6
CONTINUOUS
 10
5.050760
 20
5.366240
  0
VERTEX
  8
0
  6
CONTINUOUS
 10
5.701520
 20
4.956160
  0
VERTEX
  8
0
  6
CONTINUOUS
 10
5.699760
 20
4.953960
  0
VERTEX
  8
0
  6
CONTINUOUS
 10
5.049000
 20
5.364480
  0
VERTEX
  8
0
  6
CONTINUOUS
 10
5.050760
 20
5.366240
  0
SEQEND
  8
0
  0
SOLID
  8
0
 62
    15
 10
6.257240
 20
5.325760
 11
6.908000
 21
4.915240
 12
6.259000
 22
5.323560
 13
6.909760
 23
4.913040
  0
POLYLINE
  8
0
  6
CONTINUOUS
 66
     1
 40
0.000000
 41
0.000000
  0
VERTEX
  8
0
  6
CONTINUOUS
 10
6.257240
 20
5.325760
  0
VERTEX
  8
0
  6
CONTINUOUS
 10
6.908000
 20
4.915240
  0
VERTEX
  8
0
  6
CONTINUOUS
 10
6.909760
 20
4.913040
  0
VERTEX
  8
0
  6
CONTINUOUS
 10
6.259000
 20
5.323560
  0
VERTEX
  8
0
  6
CONTINUOUS
 10
6.257240
 20
5.325760
  0
SEQEND
  8
0
  0
SOLID
  8
0
 62
    15
 10
6.259000
 20
5.323560
 11
6.909760
 21
4.913040
 12
6.302120
 22
4.968920
 13
6.952880
 23
4.558400
  0
POLYLINE
  8
0
  6
CONTINUOUS
 66
     1
 40
0.000000
 41
0.000000
  0
VERTEX
  8
0
  6
CONTINUOUS
 10
6.259000
 20
5.323560
  0
VERTEX
  8
0
  6
CONTINUOUS
 10
6.909760
 20
4.913040
  0
VERTEX
  8
0
  6
CONTINUOUS
 10
6.952880
 20
4.558400
  0
VERTEX
  8
0
  6
CONTINUOUS
 10
6.302120
 20
4.968920
  0
VERTEX
  8
0
  6
CONTINUOUS
 10
6.259000
 20
5.323560
  0
SEQEND
  8
0
  0
SOLID
  8
0
 62
    15
 10
6.302120
 20
4.968920
 11
6.952880
 21
4.558400
 12
6.302120
 22
4.966720
 13
6.952880
 23
4.556200
  0
POLYLINE
  8
0
  6
CONTINUOUS
 66
     1
 40
0.000000
 41
0.000000
  0
VERTEX
  8
0
  6
CONTINUOUS
 10
6.302120
 20
4.968920
  0
VERTEX
  8
0
  6
CONTINUOUS
 10
6.952880
 20
4.558400
  0
VERTEX
  8
0
  6
CONTINUOUS
 10
6.952880
 20
4.556200
  0
VERTEX
  8
0
  6
CONTINUOUS
 10
6.302120
 20
4.966720
  0
VERTEX
  8
0
  6
CONTINUOUS
 10
6.302120
 20
4.968920
  0
SEQEND
  8
0
  0
SOLID
  8
0
 62
    15
 10
6.302120
 20
4.966720
 11
6.952880
 21
4.556200
 12
5.959360
 22
4.866400
 13
6.610120
 23
4.455880
  0
POLYLINE
  8
0
  6
CONTINUOUS
 66
     1
 40
0.000000
 41
0.000000
  0
VERTEX
  8
0
  6
CONTINUOUS
 10
6.302120
 20
4.966720
  0
VERTEX
  8
0
  6
CONTINUOUS
 10
6.952880
 20
4.556200
  0
VERTEX
  8
0
  6
CONTINUOUS
 10
6.610120
 20
4.455880
  0
VERTEX
  8
0
  6
CONTINUOUS
 10
5.959360
 20
4.866400
  0
VERTEX
  8
0
  6
CONTINUOUS
 10
6.302120
 20
4.966720
  0
SEQEND
  8
0
  0
SOLID
  8
0
 62
    15
 10
5.959360
 20
4.866400
 11
6.610120
 21
4.455880
 12
5.682160
 22
4.739240
 13
6.332920
 23
4.328720
  0
POLYLINE
  8
0
  6
CONTINUOUS
 66
     1
 40
0.000000
 41
0.000000
  0
VERTEX
  8
0
  6
CONTINUOUS
 10
5.959360
 20
4.866400
  0
VERTEX
  8
0
  6
CONTINUOUS
 10
6.610120
 20
4.455880
  0
VERTEX
  8
0
  6
CONTINUOUS
 10
6.332920
 20
4.328720
  0
VERTEX
  8
0
  6
CONTINUOUS
 10
5.682160
 20
4.739240
  0
VERTEX
  8
0
  6
CONTINUOUS
 10
5.959360
 20
4.866400
  0
SEQEND
  8
0
  0
SOLID
  8
0
 62
    15
 10
5.682160
 20
4.739240
 11
6.332920
 21
4.328720
 12
5.461720
 22
4.590080
 13
6.112480
 23
4.179560
  0
POLYLINE
  8
0
  6
CONTINUOUS
 66
     1
 40
0.000000
 41
0.000000
  0
VERTEX
  8
0
  6
CONTINUOUS
 10
5.682160
 20
4.739240
  0
VERTEX
  8
0
  6
CONTINUOUS
 10
6.332920
 20
4.328720
  0
VERTEX
  8
0
  6
CONTINUOUS
 10
6.112480
 20
4.179560
  0
VERTEX
  8
0
  6
CONTINUOUS
 10
5.461720
 20
4.590080
  0
VERTEX
  8
0
  6
CONTINUOUS
 10
5.682160
 20
4.739240
  0
SEQEND
  8
0
  0
SOLID
  8
0
 62
    15
 10
5.461720
 20
4.590080
 11
6.112480
 21
4.179560
 12
5.288360
 22
4.422440
 13
5.939120
 23
4.011920
  0
POLYLINE
  8
0
  6
CONTINUOUS
 66
     1
 40
0.000000
 41
0.000000
  0
VERTEX
  8
0
  6
CONTINUOUS
 10
5.461720
 20
4.590080
  0
VERTEX
  8
0
  6
CONTINUOUS
 10
6.112480
 20
4.179560
  0
VERTEX
  8
0
  6
CONTINUOUS
 10
5.939120
 20
4.011920
  0
VERTEX
  8
0
  6
CONTINUOUS
 10
5.288360
 20
4.422440
  0
VERTEX
  8
0
  6
CONTINUOUS
 10
5.461720
 20
4.590080
  0
SEQEND
  8
0
  0
SOLID
  8
0
 62
    15
 10
5.288360
 20
4.422440
 11
5.939120
 21
4.011920
 12
5.152840
 22
4.240280
 13
5.803600
 23
3.829760
  0
POLYLINE
  8
0
  6
CONTINUOUS
 66
     1
 40
0.000000
 41
0.000000
  0
VERTEX
  8
0
  6
CONTINUOUS
 10
5.288360
 20
4.422440
  0
VERTEX
  8
0
  6
CONTINUOUS
 10
5.939120
 20
4.011920
  0
VERTEX
  8
0
  6
CONTINUOUS
 10
5.803600
 20
3.829760
  0
VERTEX
  8
0
  6
CONTINUOUS
 10
5.152840
 20
4.240280
  0
VERTEX
  8
0
  6
CONTINUOUS
 10
5.288360
 20
4.422440
  0
SEQEND
  8
0
  0
SOLID
  8
0
 62
    15
 10
5.152840
 20
4.240280
 11
5.803600
 21
3.829760
 12
5.045480
 22
4.047560
 13
5.696680
 23
3.637480
  0
POLYLINE
  8
0
  6
CONTINUOUS
 66
     1
 40
0.000000
 41
0.000000
  0
VERTEX
  8
0
  6
CONTINUOUS
 10
5.152840
 20
4.240280
  0
VERTEX
  8
0
  6
CONTINUOUS
 10
5.803600
 20
3.829760
  0
VERTEX
  8
0
  6
CONTINUOUS
 10
5.696680
 20
3.637480
  0
VERTEX
  8
0
  6
CONTINUOUS
 10
5.045480
 20
4.047560
  0
VERTEX
  8
0
  6
CONTINUOUS
 10
5.152840
 20
4.240280
  0
SEQEND
  8
0
  0
SOLID
  8
0
 62
    15
 10
5.045480
 20
4.047560
 11
5.696680
 21
3.637480
 12
4.879600
 22
3.647600
 13
5.530800
 23
3.237080
  0
POLYLINE
  8
0
  6
CONTINUOUS
 66
     1
 40
0.000000
 41
0.000000
  0
VERTEX
  8
0
  6
CONTINUOUS
 10
5.045480
 20
4.047560
  0
VERTEX
  8
0
  6
CONTINUOUS
 10
5.696680
 20
3.637480
  0
VERTEX
  8
0
  6
CONTINUOUS
 10
5.530800
 20
3.237080
  0
VERTEX
  8
0
  6
CONTINUOUS
 10
4.879600
 20
3.647600
  0
VERTEX
  8
0
  6
CONTINUOUS
 10
5.045480
 20
4.047560
  0
SEQEND
  8
0
  0
SOLID
  8
0
 62
    15
 10
4.879600
 20
3.647600
 11
5.530800
 21
3.237080
 12
4.715920
 22
3.253360
 13
5.366680
 23
2.842840
  0
POLYLINE
  8
0
  6
CONTINUOUS
 66
     1
 40
0.000000
 41
0.000000
  0
VERTEX
  8
0
  6
CONTINUOUS
 10
4.879600
 20
3.647600
  0
VERTEX
  8
0
  6
CONTINUOUS
 10
5.530800
 20
3.237080
  0
VERTEX
  8
0
  6
CONTINUOUS
 10
5.366680
 20
2.842840
  0
VERTEX
  8
0
  6
CONTINUOUS
 10
4.715920
 20
3.253360
  0
VERTEX
  8
0
  6
CONTINUOUS
 10
4.879600
 20
3.647600
  0
SEQEND
  8
0
  0
SOLID
  8
0
 62
    15
 10
4.715920
 20
3.253360
 11
5.366680
 21
2.842840
 12
4.611200
 22
3.068560
 13
5.262400
 23
2.658040
  0
POLYLINE
  8
0
  6
CONTINUOUS
 66
     1
 40
0.000000
 41
0.000000
  0
VERTEX
  8
0
  6
CONTINUOUS
 10
4.715920
 20
3.253360
  0
VERTEX
  8
0
  6
CONTINUOUS
 10
5.366680
 20
2.842840
  0
VERTEX
  8
0
  6
CONTINUOUS
 10
5.262400
 20
2.658040
  0
VERTEX
  8
0
  6
CONTINUOUS
 10
4.611200
 20
3.068560
  0
VERTEX
  8
0
  6
CONTINUOUS
 10
4.715920
 20
3.253360
  0
SEQEND
  8
0
  0
SOLID
  8
0
 62
    15
 10
4.611200
 20
3.068560
 11
5.262400
 21
2.658040
 12
4.479640
 22
2.897400
 13
5.130400
 23
2.486880
  0
POLYLINE
  8
0
  6
CONTINUOUS
 66
     1
 40
0.000000
 41
0.000000
  0
VERTEX
  8
0
  6
CONTINUOUS
 10
4.611200
 20
3.068560
  0
VERTEX
  8
0
  6
CONTINUOUS
 10
5.262400
 20
2.658040
  0
VERTEX
  8
0
  6
CONTINUOUS
 10
5.130400
 20
2.486880
  0
VERTEX
  8
0
  6
CONTINUOUS
 10
4.479640
 20
2.897400
  0
VERTEX
  8
0
  6
CONTINUOUS
 10
4.611200
 20
3.068560
  0
SEQEND
  8
0
  0
SOLID
  8
0
 62
    15
 10
4.479640
 20
2.897400
 11
5.130400
 21
2.486880
 12
4.310680
 22
2.743840
 13
4.961440
 23
2.333320
  0
POLYLINE
  8
0
  6
CONTINUOUS
 66
     1
 40
0.000000
 41
0.000000
  0
VERTEX
  8
0
  6
CONTINUOUS
 10
4.479640
 20
2.897400
  0
VERTEX
  8
0
  6
CONTINUOUS
 10
5.130400
 20
2.486880
  0
VERTEX
  8
0
  6
CONTINUOUS
 10
4.961440
 20
2.333320
  0
VERTEX
  8
0
  6
CONTINUOUS
 10
4.310680
 20
2.743840
  0
VERTEX
  8
0
  6
CONTINUOUS
 10
4.479640
 20
2.897400
  0
SEQEND
  8
0
  0
SOLID
  8
0
 62
    15
 10
4.310680
 20
2.743840
 11
4.961440
 21
2.333320
 12
4.095960
 22
2.611400
 13
4.746720
 23
2.200880
  0
POLYLINE
  8
0
  6
CONTINUOUS
 66
     1
 40
0.000000
 41
0.000000
  0
VERTEX
  8
0
  6
CONTINUOUS
 10
4.310680
 20
2.743840
  0
VERTEX
  8
0
  6
CONTINUOUS
 10
4.961440
 20
2.333320
  0
VERTEX
  8
0
  6
CONTINUOUS
 10
4.746720
 20
2.200880
  0
VERTEX
  8
0
  6
CONTINUOUS
 10
4.095960
 20
2.611400
  0
VERTEX
  8
0
  6
CONTINUOUS
 10
4.310680
 20
2.743840
  0
SEQEND
  8
0
  0
SOLID
  8
0
 62
    15
 10
2.272160
 20
0.766920
 11
2.922920
 21
0.356400
 12
1.857240
 22
0.766920
 13
2.508440
 23
0.356400
  0
POLYLINE
  8
0
  6
CONTINUOUS
 66
     1
 40
0.000000
 41
0.000000
  0
VERTEX
  8
0
  6
CONTINUOUS
 10
2.272160
 20
0.766920
  0
VERTEX
  8
0
  6
CONTINUOUS
 10
2.922920
 20
0.356400
  0
VERTEX
  8
0
  6
CONTINUOUS
 10
2.508440
 20
0.356400
  0
VERTEX
  8
0
  6
CONTINUOUS
 10
1.857240
 20
0.766920
  0
VERTEX
  8
0
  6
CONTINUOUS
 10
2.272160
 20
0.766920
  0
SEQEND
  8
0
  0
SOLID
  8
0
 62
    15
 10
3.825360
 20
2.504480
 11
4.476560
 21
2.094400
 12
3.490520
 22
2.427480
 13
4.141280
 23
2.016960
  0
POLYLINE
  8
0
  6
CONTINUOUS
 66
     1
 40
0.000000
 41
0.000000
  0
VERTEX
  8
0
  6
CONTINUOUS
 10
3.825360
 20
2.504480
  0
VERTEX
  8
0
  6
CONTINUOUS
 10
4.476560
 20
2.094400
  0
VERTEX
  8
0
  6
CONTINUOUS
 10
4.141280
 20
2.016960
  0
VERTEX
  8
0
  6
CONTINUOUS
 10
3.490520
 20
2.427480
  0
VERTEX
  8
0
  6
CONTINUOUS
 10
3.825360
 20
2.504480
  0
SEQEND
  8
0
  0
SOLID
  8
0
 62
    15
 10
3.490520
 20
2.427480
 11
4.141280
 21
2.016960
 12
3.487440
 22
2.428360
 13
4.138200
 23
2.017840
  0
POLYLINE
  8
0
  6
CONTINUOUS
 66
     1
 40
0.000000
 41
0.000000
  0
VERTEX
  8
0
  6
CONTINUOUS
 10
3.490520
 20
2.427480
  0
VERTEX
  8
0
  6
CONTINUOUS
 10
4.141280
 20
2.016960
  0
VERTEX
  8
0
  6
CONTINUOUS
 10
4.138200
 20
2.017840
  0
VERTEX
  8
0
  6
CONTINUOUS
 10
3.487440
 20
2.428360
  0
VERTEX
  8
0
  6
CONTINUOUS
 10
3.490520
 20
2.427480
  0
SEQEND
  8
0
  0
SOLID
  8
0
 62
    15
 10
3.402080
 20
2.002880
 11
4.053280
 21
1.592360
 12
3.128840
 22
1.993640
 13
3.779600
 23
1.583560
  0
POLYLINE
  8
0
  6
CONTINUOUS
 66
     1
 40
0.000000
 41
0.000000
  0
VERTEX
  8
0
  6
CONTINUOUS
 10
3.402080
 20
2.002880
  0
VERTEX
  8
0
  6
CONTINUOUS
 10
4.053280
 20
1.592360
  0
VERTEX
  8
0
  6
CONTINUOUS
 10
3.779600
 20
1.583560
  0
VERTEX
  8
0
  6
CONTINUOUS
 10
3.128840
 20
1.993640
  0
VERTEX
  8
0
  6
CONTINUOUS
 10
3.402080
 20
2.002880
  0
SEQEND
  8
0
  0
SOLID
  8
0
 62
    15
 10
3.487440
 20
2.428360
 11
4.138200
 21
2.017840
 12
3.404280
 22
2.001120
 13
4.055040
 23
1.590600
  0
POLYLINE
  8
0
  6
CONTINUOUS
 66
     1
 40
0.000000
 41
0.000000
  0
VERTEX
  8
0
  6
CONTINUOUS
 10
3.487440
 20
2.428360
  0
VERTEX
  8
0
  6
CONTINUOUS
 10
4.138200
 20
2.017840
  0
VERTEX
  8
0
  6
CONTINUOUS
 10
4.055040
 20
1.590600
  0
VERTEX
  8
0
  6
CONTINUOUS
 10
3.404280
 20
2.001120
  0
VERTEX
  8
0
  6
CONTINUOUS
 10
3.487440
 20
2.428360
  0
SEQEND
  8
0
  0
SOLID
  8
0
 62
    15
 10
3.128840
 20
1.993640
 11
3.779600
 21
1.583560
 12
3.120480
 22
1.992760
 13
3.771240
 23
1.582240
  0
POLYLINE
  8
0
  6
CONTINUOUS
 66
     1
 40
0.000000
 41
0.000000
  0
VERTEX
  8
0
  6
CONTINUOUS
 10
3.128840
 20
1.993640
  0
VERTEX
  8
0
  6
CONTINUOUS
 10
3.779600
 20
1.583560
  0
VERTEX
  8
0
  6
CONTINUOUS
 10
3.771240
 20
1.582240
  0
VERTEX
  8
0
  6
CONTINUOUS
 10
3.120480
 20
1.992760
  0
VERTEX
  8
0
  6
CONTINUOUS
 10
3.128840
 20
1.993640
  0
SEQEND
  8
0
  0
SOLID
  8
0
 62
    15
 10
3.120480
 20
1.992760
 11
3.771240
 21
1.582240
 12
3.081320
 22
1.849760
 13
3.732080
 23
1.439680
  0
POLYLINE
  8
0
  6
CONTINUOUS
 66
     1
 40
0.000000
 41
0.000000
  0
VERTEX
  8
0
  6
CONTINUOUS
 10
3.120480
 20
1.992760
  0
VERTEX
  8
0
  6
CONTINUOUS
 10
3.771240
 20
1.582240
  0
VERTEX
  8
0
  6
CONTINUOUS
 10
3.732080
 20
1.439680
  0
VERTEX
  8
0
  6
CONTINUOUS
 10
3.081320
 20
1.849760
  0
VERTEX
  8
0
  6
CONTINUOUS
 10
3.120480
 20
1.992760
  0
SEQEND
  8
0
  0
SOLID
  8
0
 62
    15
 10
3.081320
 20
1.849760
 11
3.732080
 21
1.439680
 12
3.034240
 22
1.734480
 13
3.685000
 23
1.323960
  0
POLYLINE
  8
0
  6
CONTINUOUS
 66
     1
 40
0.000000
 41
0.000000
  0
VERTEX
  8
0
  6
CONTINUOUS
 10
3.081320
 20
1.849760
  0
VERTEX
  8
0
  6
CONTINUOUS
 10
3.732080
 20
1.439680
  0
VERTEX
  8
0
  6
CONTINUOUS
 10
3.685000
 20
1.323960
  0
VERTEX
  8
0
  6
CONTINUOUS
 10
3.034240
 20
1.734480
  0
VERTEX
  8
0
  6
CONTINUOUS
 10
3.081320
 20
1.849760
  0
SEQEND
  8
0
  0
SOLID
  8
0
 62
    15
 10
3.034240
 20
1.734480
 11
3.685000
 21
1.323960
 12
2.921160
 22
1.569480
 13
3.572360
 23
1.158960
  0
POLYLINE
  8
0
  6
CONTINUOUS
 66
     1
 40
0.000000
 41
0.000000
  0
VERTEX
  8
0
  6
CONTINUOUS
 10
3.034240
 20
1.734480
  0
VERTEX
  8
0
  6
CONTINUOUS
 10
3.685000
 20
1.323960
  0
VERTEX
  8
0
  6
CONTINUOUS
 10
3.572360
 20
1.158960
  0
VERTEX
  8
0
  6
CONTINUOUS
 10
2.921160
 20
1.569480
  0
VERTEX
  8
0
  6
CONTINUOUS
 10
3.034240
 20
1.734480
  0
SEQEND
  8
0
  0
SOLID
  8
0
 62
    15
 10
2.921160
 20
1.569480
 11
3.572360
 21
1.158960
 12
2.792240
 22
1.466520
 13
3.443440
 23
1.056000
  0
POLYLINE
  8
0
  6
CONTINUOUS
 66
     1
 40
0.000000
 41
0.000000
  0
VERTEX
  8
0
  6
CONTINUOUS
 10
2.921160
 20
1.569480
  0
VERTEX
  8
0
  6
CONTINUOUS
 10
3.572360
 20
1.158960
  0
VERTEX
  8
0
  6
CONTINUOUS
 10
3.443440
 20
1.056000
  0
VERTEX
  8
0
  6
CONTINUOUS
 10
2.792240
 20
1.466520
  0
VERTEX
  8
0
  6
CONTINUOUS
 10
2.921160
 20
1.569480
  0
SEQEND
  8
0
  0
SOLID
  8
0
 62
    15
 10
2.792240
 20
1.466520
 11
3.443440
 21
1.056000
 12
2.658040
 22
1.393920
 13
3.308800
 23
0.983400
  0
POLYLINE
  8
0
  6
CONTINUOUS
 66
     1
 40
0.000000
 41
0.000000
  0
VERTEX
  8
0
  6
CONTINUOUS
 10
2.792240
 20
1.466520
  0
VERTEX
  8
0
  6
CONTINUOUS
 10
3.443440
 20
1.056000
  0
VERTEX
  8
0
  6
CONTINUOUS
 10
3.308800
 20
0.983400
  0
VERTEX
  8
0
  6
CONTINUOUS
 10
2.658040
 20
1.393920
  0
VERTEX
  8
0
  6
CONTINUOUS
 10
2.792240
 20
1.466520
  0
SEQEND
  8
0
  0
SOLID
  8
0
 62
    15
 10
2.658040
 20
1.393920
 11
3.308800
 21
0.983400
 12
2.528680
 22
1.319120
 13
3.179440
 23
0.909040
  0
POLYLINE
  8
0
  6
CONTINUOUS
 66
     1
 40
0.000000
 41
0.000000
  0
VERTEX
  8
0
  6
CONTINUOUS
 10
2.658040
 20
1.393920
  0
VERTEX
  8
0
  6
CONTINUOUS
 10
3.308800
 20
0.983400
  0
VERTEX
  8
0
  6
CONTINUOUS
 10
3.179440
 20
0.909040
  0
VERTEX
  8
0
  6
CONTINUOUS
 10
2.528680
 20
1.319120
  0
VERTEX
  8
0
  6
CONTINUOUS
 10
2.658040
 20
1.393920
  0
SEQEND
  8
0
  0
SOLID
  8
0
 62
    15
 10
2.528680
 20
1.319120
 11
3.179440
 21
0.909040
 12
2.415160
 22
1.211320
 13
3.065920
 23
0.800800
  0
POLYLINE
  8
0
  6
CONTINUOUS
 66
     1
 40
0.000000
 41
0.000000
  0
VERTEX
  8
0
  6
CONTINUOUS
 10
2.528680
 20
1.319120
  0
VERTEX
  8
0
  6
CONTINUOUS
 10
3.179440
 20
0.909040
  0
VERTEX
  8
0
  6
CONTINUOUS
 10
3.065920
 20
0.800800
  0
VERTEX
  8
0
  6
CONTINUOUS
 10
2.415160
 20
1.211320
  0
VERTEX
  8
0
  6
CONTINUOUS
 10
2.528680
 20
1.319120
  0
SEQEND
  8
0
  0
SOLID
  8
0
 62
    15
 10
2.415160
 20
1.211320
 11
3.065920
 21
0.800800
 12
2.367640
 22
1.134760
 13
3.018400
 23
0.724680
  0
POLYLINE
  8
0
  6
CONTINUOUS
 66
     1
 40
0.000000
 41
0.000000
  0
VERTEX
  8
0
  6
CONTINUOUS
 10
2.415160
 20
1.211320
  0
VERTEX
  8
0
  6
CONTINUOUS
 10
3.065920
 20
0.800800
  0
VERTEX
  8
0
  6
CONTINUOUS
 10
3.018400
 20
0.724680
  0
VERTEX
  8
0
  6
CONTINUOUS
 10
2.367640
 20
1.134760
  0
VERTEX
  8
0
  6
CONTINUOUS
 10
2.415160
 20
1.211320
  0
SEQEND
  8
0
  0
SOLID
  8
0
 62
    15
 10
2.367640
 20
1.134760
 11
3.018400
 21
0.724680
 12
2.327600
 22
1.038400
 13
2.978800
 23
0.627880
  0
POLYLINE
  8
0
  6
CONTINUOUS
 66
     1
 40
0.000000
 41
0.000000
  0
VERTEX
  8
0
  6
CONTINUOUS
 10
2.367640
 20
1.134760
  0
VERTEX
  8
0
  6
CONTINUOUS
 10
3.018400
 20
0.724680
  0
VERTEX
  8
0
  6
CONTINUOUS
 10
2.978800
 20
0.627880
  0
VERTEX
  8
0
  6
CONTINUOUS
 10
2.327600
 20
1.038400
  0
VERTEX
  8
0
  6
CONTINUOUS
 10
2.367640
 20
1.134760
  0
SEQEND
  8
0
  0
SOLID
  8
0
 62
    15
 10
2.327600
 20
1.038400
 11
2.978800
 21
0.627880
 12
2.297240
 22
0.917400
 13
2.948000
 23
0.506880
  0
POLYLINE
  8
0
  6
CONTINUOUS
 66
     1
 40
0.000000
 41
0.000000
  0
VERTEX
  8
0
  6
CONTINUOUS
 10
2.327600
 20
1.038400
  0
VERTEX
  8
0
  6
CONTINUOUS
 10
2.978800
 20
0.627880
  0
VERTEX
  8
0
  6
CONTINUOUS
 10
2.948000
 20
0.506880
  0
VERTEX
  8
0
  6
CONTINUOUS
 10
2.297240
 20
0.917400
  0
VERTEX
  8
0
  6
CONTINUOUS
 10
2.327600
 20
1.038400
  0
SEQEND
  8
0
  0
SOLID
  8
0
 62
    15
 10
2.297240
 20
0.917400
 11
2.948000
 21
0.506880
 12
2.277440
 22
0.768240
 13
2.928200
 23
0.357720
  0
POLYLINE
  8
0
  6
CONTINUOUS
 66
     1
 40
0.000000
 41
0.000000
  0
VERTEX
  8
0
  6
CONTINUOUS
 10
2.297240
 20
0.917400
  0
VERTEX
  8
0
  6
CONTINUOUS
 10
2.948000
 20
0.506880
  0
VERTEX
  8
0
  6
CONTINUOUS
 10
2.928200
 20
0.357720
  0
VERTEX
  8
0
  6
CONTINUOUS
 10
2.277440
 20
0.768240
  0
VERTEX
  8
0
  6
CONTINUOUS
 10
2.297240
 20
0.917400
  0
SEQEND
  8
0
  0
SOLID
  8
0
 62
    15
 10
2.277440
 20
0.768240
 11
2.928200
 21
0.357720
 12
2.272160
 22
0.766920
 13
2.922920
 23
0.356400
  0
POLYLINE
  8
0
  6
CONTINUOUS
 66
     1
 40
0.000000
 41
0.000000
  0
VERTEX
  8
0
  6
CONTINUOUS
 10
2.277440
 20
0.768240
  0
VERTEX
  8
0
  6
CONTINUOUS
 10
2.928200
 20
0.357720
  0
VERTEX
  8
0
  6
CONTINUOUS
 10
2.922920
 20
0.356400
  0
VERTEX
  8
0
  6
CONTINUOUS
 10
2.272160
 20
0.766920
  0
VERTEX
  8
0
  6
CONTINUOUS
 10
2.277440
 20
0.768240
  0
SEQEND
  8
0
  0
POLYLINE
  8
0
  6
CONTINUOUS
 66
     1
 40
0.000000
 41
0.000000
  0
VERTEX
  8
0
  6
CONTINUOUS
 10
2.272160
 20
0.766920
  0
VERTEX
  8
0
  6
CONTINUOUS
 10
1.857240
 20
0.766920
  0
VERTEX
  8
0
  6
CONTINUOUS
 10
1.858120
 20
1.886720
  0
VERTEX
  8
0
  6
CONTINUOUS
 10
1.878800
 20
1.907840
  0
VERTEX
  8
0
  6
CONTINUOUS
 10
5.050760
 20
5.366240
  0
VERTEX
  8
0
  6
CONTINUOUS
 10
5.049000
 20
5.364480
  0
VERTEX
  8
0
  6
CONTINUOUS
 10
6.257240
 20
5.325760
  0
VERTEX
  8
0
  6
CONTINUOUS
 10
6.259000
 20
5.323560
  0
VERTEX
  8
0
  6
CONTINUOUS
 10
6.302120
 20
4.968920
  0
VERTEX
  8
0
  6
CONTINUOUS
 10
6.302120
 20
4.966720
  0
VERTEX
  8
0
  6
CONTINUOUS
 10
5.959360
 20
4.866400
  0
VERTEX
  8
0
  6
CONTINUOUS
 10
5.682160
 20
4.739240
  0
VERTEX
  8
0
  6
CONTINUOUS
 10
5.461720
 20
4.590080
  0
VERTEX
  8
0
  6
CONTINUOUS
 10
5.288360
 20
4.422440
  0
VERTEX
  8
0
  6
CONTINUOUS
 10
5.152840
 20
4.240280
  0
VERTEX
  8
0
  6
CONTINUOUS
 10
5.045480
 20
4.047560
  0
VERTEX
  8
0
  6
CONTINUOUS
 10
4.879600
 20
3.647600
  0
VERTEX
  8
0
  6
CONTINUOUS
 10
4.715920
 20
3.253360
  0
VERTEX
  8
0
  6
CONTINUOUS
 10
4.611200
 20
3.068560
  0
VERTEX
  8
0
  6
CONTINUOUS
 10
4.479640
 20
2.897400
  0
VERTEX
  8
0
  6
CONTINUOUS
 10
4.310680
 20
2.743840
  0
VERTEX
  8
0
  6
CONTINUOUS
 10
4.095960
 20
2.611400
  0
VERTEX
  8
0
  6
CONTINUOUS
 10
3.825360
 20
2.504480
  0
VERTEX
  8
0
  6
CONTINUOUS
 10
3.490520
 20
2.427480
  0
VERTEX
  8
0
  6
CONTINUOUS
 10
3.487440
 20
2.428360
  0
VERTEX
  8
0
  6
CONTINUOUS
 10
3.404280
 20
2.001120
  0
VERTEX
  8
0
  6
CONTINUOUS
 10
3.402080
 20
2.002880
  0
VERTEX
  8
0
  6
CONTINUOUS
 10
3.128840
 20
1.993640
  0
VERTEX
  8
0
  6
CONTINUOUS
 10
3.120480
 20
1.992760
  0
VERTEX
  8
0
  6
CONTINUOUS
 10
3.081320
 20
1.849760
  0
VERTEX
  8
0
  6
CONTINUOUS
 10
3.034240
 20
1.734480
  0
VERTEX
  8
0
  6
CONTINUOUS
 10
2.921160
 20
1.569480
  0
VERTEX
  8
0
  6
CONTINUOUS
 10
2.792240
 20
1.466520
  0
VERTEX
  8
0
  6
CONTINUOUS
 10
2.658040
 20
1.393920
  0
VERTEX
  8
0
  6
CONTINUOUS
 10
2.528680
 20
1.319120
  0
VERTEX
  8
0
  6
CONTINUOUS
 10
2.415160
 20
1.211320
  0
VERTEX
  8
0
  6
CONTINUOUS
 10
2.367640
 20
1.134760
  0
VERTEX
  8
0
  6
CONTINUOUS
 10
2.327600
 20
1.038400
  0
VERTEX
  8
0
  6
CONTINUOUS
 10
2.297240
 20
0.917400
  0
VERTEX
  8
0
  6
CONTINUOUS
 10
2.277440
 20
0.768240
  0
VERTEX
  8
0
  6
CONTINUOUS
 10
2.272160
 20
0.766920
  0
SEQEND
  8
0
  0
TEXT
  8
0
 10
3.726360
 20
0.576840
 40
0.137913
  1
BA  227
 41
1.000000
  7
SN0
 71
     0
 72
     5
 11
4.316513
 21
0.576840
  0
TEXT
  8
0
 10
3.450480
 20
0.385000
 40
0.137913
  1
1-1/4" x 6-5/16"
 41
1.000000
  7
SN0
 71
     0
 72
     5
 11
4.590620
 21
0.385000
  0
TEXT
  8
0
 10
7.659520
 20
6.913720
 40
0.137913
  1
crown
 41
1.000000
  7
SN0
 71
     0
 72
     5
 11
8.102046
 21
6.913720
  0
TEXT
  8
0
 10
7.742680
 20
6.722320
 40
0.137913
  1
227
 41
1.000000
  7
SN0
 71
     0
 72
     5
 11
8.019964
 21
6.722320
  0
ENDSEC
  0
EOF
