  0
SECTION
  2
HEADER
  9
$ACADVER
  1
AC1006
  9
$EXTMIN
 10
3.560040
 20
0.454080
  9
$EXTMAX
 10
8.030000
 20
3.963520
  9
$LTSCALE
 40
0.044000
  9
$PDMODE
 70
    35
  9
$PDSIZE
 40
0.035200
  0
ENDSEC
  0
SECTION
  2
TABLES
  0
TABLE
  2
LTYPE
 70
     9
  0
LTYPE
  2
CONTINUOUS
 70
    64
  3
Solid line
 72
    65
 73
     0
 40
0.000000
  0
LTYPE
  2
DASHED
 70
    64
  3
__ __ __ __ __ __ __ __ __ __ __ __ __ __ __
 72
    65
 73
     2
 40
0.000330
 49
0.000220
 49
-0.000110
  0
LTYPE
  2
HIDDEN
 70
    64
  3
 _ _ _ _ _ _ _ _ _ _ _ _ _ _ _ _ _ _ _ _ _ _
 72
    65
 73
     2
 40
0.000165
 49
0.000110
 49
-0.000055
  0
LTYPE
  2
CENTER
 70
    64
  3
____ _ ____ _ ____ _ ____ _ ____ _ ____ _ ____
 72
    65
 73
     4
 40
0.000880
 49
0.000550
 49
-0.000110
 49
0.000110
 49
-0.000110
  0
LTYPE
  2
PHANTOM
 70
    64
  3
_____ _ _ _____ _ _ _____ _ _ _____ _ _ ____
 72
    65
 73
     6
 40
0.001100
 49
0.000550
 49
-0.000110
 49
0.000110
 49
-0.000110
 49
0.000110
 49
-0.000110
  0
LTYPE
  2
DOT
 70
    64
  3
...............................................
 72
    65
 73
     2
 40
0.000110
 49
0.000000
 49
-0.000110
  0
LTYPE
  2
DASHDOT
 70
    64
  3
__ . __ . __ . __ . __ . __ . __ . __ . __ . __
 72
    65
 73
     4
 40
0.000440
 49
0.000220
 49
-0.000110
 49
0.000000
 49
-0.000110
  0
LTYPE
  2
BORDER
 70
    64
  3
__ __ . __ __ . __ __ . __ __ . __ __ . __ __
 72
    65
 73
     6
 40
0.000770
 49
0.000220
 49
-0.000110
 49
0.000220
 49
-0.000110
 49
0.000000
 49
-0.000110
  0
LTYPE
  2
DIVIDE
 70
    64
  3
__ . . __ . . __ . . __ . . __ . . __ . . __
 72
    65
 73
     6
 40
0.000550
 49
0.000220
 49
-0.000110
 49
0.000000
 49
-0.000110
 49
0.000000
 49
-0.000110
  0
LTYPE
  2
DOTDOT
 70
    64
  3
 . .  . .  . .  . .  . .  . . 
 72
    65
 73
     5
 40
0.000242
 49
-0.000110
 49
0.000000
 49
-0.000110
 49
0.000000
 49
-0.000110
  0
ENDTAB
  0
TABLE
  2
STYLE
 70
     2
  0
STYLE
 70
     0
  2
SN0
 40
0.000000
 41
0.000440
 50
0.000000
 71
     0
 42
0.000000
  3
ROMAND
  0
STYLE
 70
    68
  2
SV0
 40
0.000000
 41
0.000440
 50
0.000000
 71
     0
 42
0.000000
  3
ROMAND
  0
ENDTAB
  0
TABLE
  2
LAYER
 70
     3
  0
LAYER
  2
FOREGROUND
 70
    64
 62
     7
  6
CONTINUOUS
  0
LAYER
  2
BACKGROUND
 70
    65
 62
    -7
  6
CONTINUOUS
  0
LAYER
  2
0
 70
    64
 62
     7
  6
CONTINUOUS
  0
ENDTAB
  0
ENDSEC
  0
SECTION
  2
ENTITIES
  0
POLYLINE
  8
FOREGROUND
  6
CONTINUOUS
 66
     1
 40
0.000000
 41
0.000000
  0
VERTEX
  8
FOREGROUND
  6
CONTINUOUS
 10
0.000000
 20
4.417600
  0
VERTEX
  8
FOREGROUND
  6
CONTINUOUS
 10
8.499920
 20
4.417600
  0
VERTEX
  8
FOREGROUND
  6
CONTINUOUS
 10
8.499920
 20
-6.582400
  0
VERTEX
  8
FOREGROUND
  6
CONTINUOUS
 10
0.000000
 20
-6.582400
  0
VERTEX
  8
FOREGROUND
  6
CONTINUOUS
 10
0.000000
 20
4.417600
  0
SEQEND
  8
0
  0
POLYLINE
  8
FOREGROUND
  6
CONTINUOUS
 66
     1
 40
0.000000
 41
0.000000
  0
VERTEX
  8
FOREGROUND
  6
CONTINUOUS
 10
0.000000
 20
4.417600
  0
VERTEX
  8
FOREGROUND
  6
CONTINUOUS
 10
8.499920
 20
4.417600
  0
VERTEX
  8
FOREGROUND
  6
CONTINUOUS
 10
8.499920
 20
-6.582400
  0
VERTEX
  8
FOREGROUND
  6
CONTINUOUS
 10
0.000000
 20
-6.582400
  0
VERTEX
  8
FOREGROUND
  6
CONTINUOUS
 10
0.000000
 20
4.417600
  0
SEQEND
  8
0
  0
SOLID
  8
0
 62
    15
 10
6.733320
 20
1.133000
 11
6.736400
 21
1.883200
 12
6.803720
 22
1.133000
 13
6.806800
 23
1.883200
  0
POLYLINE
  8
0
  6
CONTINUOUS
 66
     1
 40
0.000000
 41
0.000000
  0
VERTEX
  8
0
  6
CONTINUOUS
 10
6.733320
 20
1.133000
  0
VERTEX
  8
0
  6
CONTINUOUS
 10
6.736400
 20
1.883200
  0
VERTEX
  8
0
  6
CONTINUOUS
 10
6.806800
 20
1.883200
  0
VERTEX
  8
0
  6
CONTINUOUS
 10
6.803720
 20
1.133000
  0
VERTEX
  8
0
  6
CONTINUOUS
 10
6.733320
 20
1.133000
  0
SEQEND
  8
0
  0
SOLID
  8
0
 62
    15
 10
4.146560
 20
1.643840
 11
4.149640
 21
2.394040
 12
4.182200
 22
1.640760
 13
4.185280
 23
2.390960
  0
POLYLINE
  8
0
  6
CONTINUOUS
 66
     1
 40
0.000000
 41
0.000000
  0
VERTEX
  8
0
  6
CONTINUOUS
 10
4.146560
 20
1.643840
  0
VERTEX
  8
0
  6
CONTINUOUS
 10
4.149640
 20
2.394040
  0
VERTEX
  8
0
  6
CONTINUOUS
 10
4.185280
 20
2.390960
  0
VERTEX
  8
0
  6
CONTINUOUS
 10
4.182200
 20
1.640760
  0
VERTEX
  8
0
  6
CONTINUOUS
 10
4.146560
 20
1.643840
  0
SEQEND
  8
0
  0
SOLID
  8
0
 62
    15
 10
4.182200
 20
1.640760
 11
4.185280
 21
2.390960
 12
4.243800
 22
1.629320
 13
4.246880
 23
2.379520
  0
POLYLINE
  8
0
  6
CONTINUOUS
 66
     1
 40
0.000000
 41
0.000000
  0
VERTEX
  8
0
  6
CONTINUOUS
 10
4.182200
 20
1.640760
  0
VERTEX
  8
0
  6
CONTINUOUS
 10
4.185280
 20
2.390960
  0
VERTEX
  8
0
  6
CONTINUOUS
 10
4.246880
 20
2.379520
  0
VERTEX
  8
0
  6
CONTINUOUS
 10
4.243800
 20
1.629320
  0
VERTEX
  8
0
  6
CONTINUOUS
 10
4.182200
 20
1.640760
  0
SEQEND
  8
0
  0
SOLID
  8
0
 62
    15
 10
4.243800
 20
1.629320
 11
4.246880
 21
2.379520
 12
4.293520
 22
1.612600
 13
4.296600
 23
2.362800
  0
POLYLINE
  8
0
  6
CONTINUOUS
 66
     1
 40
0.000000
 41
0.000000
  0
VERTEX
  8
0
  6
CONTINUOUS
 10
4.243800
 20
1.629320
  0
VERTEX
  8
0
  6
CONTINUOUS
 10
4.246880
 20
2.379520
  0
VERTEX
  8
0
  6
CONTINUOUS
 10
4.296600
 20
2.362800
  0
VERTEX
  8
0
  6
CONTINUOUS
 10
4.293520
 20
1.612600
  0
VERTEX
  8
0
  6
CONTINUOUS
 10
4.243800
 20
1.629320
  0
SEQEND
  8
0
  0
SOLID
  8
0
 62
    15
 10
4.293520
 20
1.612600
 11
4.296600
 21
2.362800
 12
4.333120
 22
1.591480
 13
4.336200
 23
2.341680
  0
POLYLINE
  8
0
  6
CONTINUOUS
 66
     1
 40
0.000000
 41
0.000000
  0
VERTEX
  8
0
  6
CONTINUOUS
 10
4.293520
 20
1.612600
  0
VERTEX
  8
0
  6
CONTINUOUS
 10
4.296600
 20
2.362800
  0
VERTEX
  8
0
  6
CONTINUOUS
 10
4.336200
 20
2.341680
  0
VERTEX
  8
0
  6
CONTINUOUS
 10
4.333120
 20
1.591480
  0
VERTEX
  8
0
  6
CONTINUOUS
 10
4.293520
 20
1.612600
  0
SEQEND
  8
0
  0
SOLID
  8
0
 62
    15
 10
4.333120
 20
1.591480
 11
4.336200
 21
2.341680
 12
4.365240
 22
1.567720
 13
4.368320
 23
2.317920
  0
POLYLINE
  8
0
  6
CONTINUOUS
 66
     1
 40
0.000000
 41
0.000000
  0
VERTEX
  8
0
  6
CONTINUOUS
 10
4.333120
 20
1.591480
  0
VERTEX
  8
0
  6
CONTINUOUS
 10
4.336200
 20
2.341680
  0
VERTEX
  8
0
  6
CONTINUOUS
 10
4.368320
 20
2.317920
  0
VERTEX
  8
0
  6
CONTINUOUS
 10
4.365240
 20
1.567720
  0
VERTEX
  8
0
  6
CONTINUOUS
 10
4.333120
 20
1.591480
  0
SEQEND
  8
0
  0
SOLID
  8
0
 62
    15
 10
4.365240
 20
1.567720
 11
4.368320
 21
2.317920
 12
4.391640
 22
1.543080
 13
4.394720
 23
2.293280
  0
POLYLINE
  8
0
  6
CONTINUOUS
 66
     1
 40
0.000000
 41
0.000000
  0
VERTEX
  8
0
  6
CONTINUOUS
 10
4.365240
 20
1.567720
  0
VERTEX
  8
0
  6
CONTINUOUS
 10
4.368320
 20
2.317920
  0
VERTEX
  8
0
  6
CONTINUOUS
 10
4.394720
 20
2.293280
  0
VERTEX
  8
0
  6
CONTINUOUS
 10
4.391640
 20
1.543080
  0
VERTEX
  8
0
  6
CONTINUOUS
 10
4.365240
 20
1.567720
  0
SEQEND
  8
0
  0
SOLID
  8
0
 62
    15
 10
4.391640
 20
1.543080
 11
4.394720
 21
2.293280
 12
4.435200
 22
1.496000
 13
4.438280
 23
2.246200
  0
POLYLINE
  8
0
  6
CONTINUOUS
 66
     1
 40
0.000000
 41
0.000000
  0
VERTEX
  8
0
  6
CONTINUOUS
 10
4.391640
 20
1.543080
  0
VERTEX
  8
0
  6
CONTINUOUS
 10
4.394720
 20
2.293280
  0
VERTEX
  8
0
  6
CONTINUOUS
 10
4.438280
 20
2.246200
  0
VERTEX
  8
0
  6
CONTINUOUS
 10
4.435200
 20
1.496000
  0
VERTEX
  8
0
  6
CONTINUOUS
 10
4.391640
 20
1.543080
  0
SEQEND
  8
0
  0
SOLID
  8
0
 62
    15
 10
4.435200
 20
1.496000
 11
4.438280
 21
2.246200
 12
4.458080
 22
1.473560
 13
4.461160
 23
2.223760
  0
POLYLINE
  8
0
  6
CONTINUOUS
 66
     1
 40
0.000000
 41
0.000000
  0
VERTEX
  8
0
  6
CONTINUOUS
 10
4.435200
 20
1.496000
  0
VERTEX
  8
0
  6
CONTINUOUS
 10
4.438280
 20
2.246200
  0
VERTEX
  8
0
  6
CONTINUOUS
 10
4.461160
 20
2.223760
  0
VERTEX
  8
0
  6
CONTINUOUS
 10
4.458080
 20
1.473560
  0
VERTEX
  8
0
  6
CONTINUOUS
 10
4.435200
 20
1.496000
  0
SEQEND
  8
0
  0
SOLID
  8
0
 62
    15
 10
4.458080
 20
1.473560
 11
4.461160
 21
2.223760
 12
4.484480
 22
1.449800
 13
4.487560
 23
2.200000
  0
POLYLINE
  8
0
  6
CONTINUOUS
 66
     1
 40
0.000000
 41
0.000000
  0
VERTEX
  8
0
  6
CONTINUOUS
 10
4.458080
 20
1.473560
  0
VERTEX
  8
0
  6
CONTINUOUS
 10
4.461160
 20
2.223760
  0
VERTEX
  8
0
  6
CONTINUOUS
 10
4.487560
 20
2.200000
  0
VERTEX
  8
0
  6
CONTINUOUS
 10
4.484480
 20
1.449800
  0
VERTEX
  8
0
  6
CONTINUOUS
 10
4.458080
 20
1.473560
  0
SEQEND
  8
0
  0
SOLID
  8
0
 62
    15
 10
4.484480
 20
1.449800
 11
4.487560
 21
2.200000
 12
4.514400
 22
1.425600
 13
4.517480
 23
2.175800
  0
POLYLINE
  8
0
  6
CONTINUOUS
 66
     1
 40
0.000000
 41
0.000000
  0
VERTEX
  8
0
  6
CONTINUOUS
 10
4.484480
 20
1.449800
  0
VERTEX
  8
0
  6
CONTINUOUS
 10
4.487560
 20
2.200000
  0
VERTEX
  8
0
  6
CONTINUOUS
 10
4.517480
 20
2.175800
  0
VERTEX
  8
0
  6
CONTINUOUS
 10
4.514400
 20
1.425600
  0
VERTEX
  8
0
  6
CONTINUOUS
 10
4.484480
 20
1.449800
  0
SEQEND
  8
0
  0
SOLID
  8
0
 62
    15
 10
4.514400
 20
1.425600
 11
4.517480
 21
2.175800
 12
4.548280
 22
1.402720
 13
4.551360
 23
2.152920
  0
POLYLINE
  8
0
  6
CONTINUOUS
 66
     1
 40
0.000000
 41
0.000000
  0
VERTEX
  8
0
  6
CONTINUOUS
 10
4.514400
 20
1.425600
  0
VERTEX
  8
0
  6
CONTINUOUS
 10
4.517480
 20
2.175800
  0
VERTEX
  8
0
  6
CONTINUOUS
 10
4.551360
 20
2.152920
  0
VERTEX
  8
0
  6
CONTINUOUS
 10
4.548280
 20
1.402720
  0
VERTEX
  8
0
  6
CONTINUOUS
 10
4.514400
 20
1.425600
  0
SEQEND
  8
0
  0
SOLID
  8
0
 62
    15
 10
4.548280
 20
1.402720
 11
4.551360
 21
2.152920
 12
4.586120
 22
1.382480
 13
4.589200
 23
2.132680
  0
POLYLINE
  8
0
  6
CONTINUOUS
 66
     1
 40
0.000000
 41
0.000000
  0
VERTEX
  8
0
  6
CONTINUOUS
 10
4.548280
 20
1.402720
  0
VERTEX
  8
0
  6
CONTINUOUS
 10
4.551360
 20
2.152920
  0
VERTEX
  8
0
  6
CONTINUOUS
 10
4.589200
 20
2.132680
  0
VERTEX
  8
0
  6
CONTINUOUS
 10
4.586120
 20
1.382480
  0
VERTEX
  8
0
  6
CONTINUOUS
 10
4.548280
 20
1.402720
  0
SEQEND
  8
0
  0
SOLID
  8
0
 62
    15
 10
4.586120
 20
1.382480
 11
4.589200
 21
2.132680
 12
4.627920
 22
1.365760
 13
4.631440
 23
2.116400
  0
POLYLINE
  8
0
  6
CONTINUOUS
 66
     1
 40
0.000000
 41
0.000000
  0
VERTEX
  8
0
  6
CONTINUOUS
 10
4.586120
 20
1.382480
  0
VERTEX
  8
0
  6
CONTINUOUS
 10
4.589200
 20
2.132680
  0
VERTEX
  8
0
  6
CONTINUOUS
 10
4.631440
 20
2.116400
  0
VERTEX
  8
0
  6
CONTINUOUS
 10
4.627920
 20
1.365760
  0
VERTEX
  8
0
  6
CONTINUOUS
 10
4.586120
 20
1.382480
  0
SEQEND
  8
0
  0
SOLID
  8
0
 62
    15
 10
4.627920
 20
1.365760
 11
4.631440
 21
2.116400
 12
4.674120
 22
1.354760
 13
4.677200
 23
2.104960
  0
POLYLINE
  8
0
  6
CONTINUOUS
 66
     1
 40
0.000000
 41
0.000000
  0
VERTEX
  8
0
  6
CONTINUOUS
 10
4.627920
 20
1.365760
  0
VERTEX
  8
0
  6
CONTINUOUS
 10
4.631440
 20
2.116400
  0
VERTEX
  8
0
  6
CONTINUOUS
 10
4.677200
 20
2.104960
  0
VERTEX
  8
0
  6
CONTINUOUS
 10
4.674120
 20
1.354760
  0
VERTEX
  8
0
  6
CONTINUOUS
 10
4.627920
 20
1.365760
  0
SEQEND
  8
0
  0
SOLID
  8
0
 62
    15
 10
4.674120
 20
1.354760
 11
4.677200
 21
2.104960
 12
4.724720
 22
1.349920
 13
4.727800
 23
2.100120
  0
POLYLINE
  8
0
  6
CONTINUOUS
 66
     1
 40
0.000000
 41
0.000000
  0
VERTEX
  8
0
  6
CONTINUOUS
 10
4.674120
 20
1.354760
  0
VERTEX
  8
0
  6
CONTINUOUS
 10
4.677200
 20
2.104960
  0
VERTEX
  8
0
  6
CONTINUOUS
 10
4.727800
 20
2.100120
  0
VERTEX
  8
0
  6
CONTINUOUS
 10
4.724720
 20
1.349920
  0
VERTEX
  8
0
  6
CONTINUOUS
 10
4.674120
 20
1.354760
  0
SEQEND
  8
0
  0
SOLID
  8
0
 62
    15
 10
4.724720
 20
1.349920
 11
4.727800
 21
2.100120
 12
4.744080
 22
1.346400
 13
4.747160
 23
2.096600
  0
POLYLINE
  8
0
  6
CONTINUOUS
 66
     1
 40
0.000000
 41
0.000000
  0
VERTEX
  8
0
  6
CONTINUOUS
 10
4.724720
 20
1.349920
  0
VERTEX
  8
0
  6
CONTINUOUS
 10
4.727800
 20
2.100120
  0
VERTEX
  8
0
  6
CONTINUOUS
 10
4.747160
 20
2.096600
  0
VERTEX
  8
0
  6
CONTINUOUS
 10
4.744080
 20
1.346400
  0
VERTEX
  8
0
  6
CONTINUOUS
 10
4.724720
 20
1.349920
  0
SEQEND
  8
0
  0
SOLID
  8
0
 62
    15
 10
4.744080
 20
1.346400
 11
4.747160
 21
2.096600
 12
4.758600
 22
1.342000
 13
4.761680
 23
2.092200
  0
POLYLINE
  8
0
  6
CONTINUOUS
 66
     1
 40
0.000000
 41
0.000000
  0
VERTEX
  8
0
  6
CONTINUOUS
 10
4.744080
 20
1.346400
  0
VERTEX
  8
0
  6
CONTINUOUS
 10
4.747160
 20
2.096600
  0
VERTEX
  8
0
  6
CONTINUOUS
 10
4.761680
 20
2.092200
  0
VERTEX
  8
0
  6
CONTINUOUS
 10
4.758600
 20
1.342000
  0
VERTEX
  8
0
  6
CONTINUOUS
 10
4.744080
 20
1.346400
  0
SEQEND
  8
0
  0
SOLID
  8
0
 62
    15
 10
4.758600
 20
1.342000
 11
4.761680
 21
2.092200
 12
4.768720
 22
1.335840
 13
4.771800
 23
2.086480
  0
POLYLINE
  8
0
  6
CONTINUOUS
 66
     1
 40
0.000000
 41
0.000000
  0
VERTEX
  8
0
  6
CONTINUOUS
 10
4.758600
 20
1.342000
  0
VERTEX
  8
0
  6
CONTINUOUS
 10
4.761680
 20
2.092200
  0
VERTEX
  8
0
  6
CONTINUOUS
 10
4.771800
 20
2.086480
  0
VERTEX
  8
0
  6
CONTINUOUS
 10
4.768720
 20
1.335840
  0
VERTEX
  8
0
  6
CONTINUOUS
 10
4.758600
 20
1.342000
  0
SEQEND
  8
0
  0
SOLID
  8
0
 62
    15
 10
4.768720
 20
1.335840
 11
4.771800
 21
2.086480
 12
4.775320
 22
1.328800
 13
4.778400
 23
2.079000
  0
POLYLINE
  8
0
  6
CONTINUOUS
 66
     1
 40
0.000000
 41
0.000000
  0
VERTEX
  8
0
  6
CONTINUOUS
 10
4.768720
 20
1.335840
  0
VERTEX
  8
0
  6
CONTINUOUS
 10
4.771800
 20
2.086480
  0
VERTEX
  8
0
  6
CONTINUOUS
 10
4.778400
 20
2.079000
  0
VERTEX
  8
0
  6
CONTINUOUS
 10
4.775320
 20
1.328800
  0
VERTEX
  8
0
  6
CONTINUOUS
 10
4.768720
 20
1.335840
  0
SEQEND
  8
0
  0
SOLID
  8
0
 62
    15
 10
4.775320
 20
1.328800
 11
4.778400
 21
2.079000
 12
4.780600
 22
1.309880
 13
4.783680
 23
2.060080
  0
POLYLINE
  8
0
  6
CONTINUOUS
 66
     1
 40
0.000000
 41
0.000000
  0
VERTEX
  8
0
  6
CONTINUOUS
 10
4.775320
 20
1.328800
  0
VERTEX
  8
0
  6
CONTINUOUS
 10
4.778400
 20
2.079000
  0
VERTEX
  8
0
  6
CONTINUOUS
 10
4.783680
 20
2.060080
  0
VERTEX
  8
0
  6
CONTINUOUS
 10
4.780600
 20
1.309880
  0
VERTEX
  8
0
  6
CONTINUOUS
 10
4.775320
 20
1.328800
  0
SEQEND
  8
0
  0
SOLID
  8
0
 62
    15
 10
6.724960
 20
1.285240
 11
6.728040
 21
2.035440
 12
6.733320
 22
1.133000
 13
6.736400
 23
1.883200
  0
POLYLINE
  8
0
  6
CONTINUOUS
 66
     1
 40
0.000000
 41
0.000000
  0
VERTEX
  8
0
  6
CONTINUOUS
 10
6.724960
 20
1.285240
  0
VERTEX
  8
0
  6
CONTINUOUS
 10
6.728040
 20
2.035440
  0
VERTEX
  8
0
  6
CONTINUOUS
 10
6.736400
 20
1.883200
  0
VERTEX
  8
0
  6
CONTINUOUS
 10
6.733320
 20
1.133000
  0
VERTEX
  8
0
  6
CONTINUOUS
 10
6.724960
 20
1.285240
  0
SEQEND
  8
0
  0
SOLID
  8
0
 62
    15
 10
4.781040
 20
1.285240
 11
4.784120
 21
2.035440
 12
6.724960
 22
1.285240
 13
6.728040
 23
2.035440
  0
POLYLINE
  8
0
  6
CONTINUOUS
 66
     1
 40
0.000000
 41
0.000000
  0
VERTEX
  8
0
  6
CONTINUOUS
 10
4.781040
 20
1.285240
  0
VERTEX
  8
0
  6
CONTINUOUS
 10
4.784120
 20
2.035440
  0
VERTEX
  8
0
  6
CONTINUOUS
 10
6.728040
 20
2.035440
  0
VERTEX
  8
0
  6
CONTINUOUS
 10
6.724960
 20
1.285240
  0
VERTEX
  8
0
  6
CONTINUOUS
 10
4.781040
 20
1.285240
  0
SEQEND
  8
0
  0
SOLID
  8
0
 62
    15
 10
4.780600
 20
1.309880
 11
4.783680
 21
2.060080
 12
4.781040
 22
1.298440
 13
4.784120
 23
2.048640
  0
POLYLINE
  8
0
  6
CONTINUOUS
 66
     1
 40
0.000000
 41
0.000000
  0
VERTEX
  8
0
  6
CONTINUOUS
 10
4.780600
 20
1.309880
  0
VERTEX
  8
0
  6
CONTINUOUS
 10
4.783680
 20
2.060080
  0
VERTEX
  8
0
  6
CONTINUOUS
 10
4.784120
 20
2.048640
  0
VERTEX
  8
0
  6
CONTINUOUS
 10
4.781040
 20
1.298440
  0
VERTEX
  8
0
  6
CONTINUOUS
 10
4.780600
 20
1.309880
  0
SEQEND
  8
0
  0
SOLID
  8
0
 62
    15
 10
4.106960
 20
1.644720
 11
4.110040
 21
2.394920
 12
4.146560
 22
1.643840
 13
4.149640
 23
2.394040
  0
POLYLINE
  8
0
  6
CONTINUOUS
 66
     1
 40
0.000000
 41
0.000000
  0
VERTEX
  8
0
  6
CONTINUOUS
 10
4.106960
 20
1.644720
  0
VERTEX
  8
0
  6
CONTINUOUS
 10
4.110040
 20
2.394920
  0
VERTEX
  8
0
  6
CONTINUOUS
 10
4.149640
 20
2.394040
  0
VERTEX
  8
0
  6
CONTINUOUS
 10
4.146560
 20
1.643840
  0
VERTEX
  8
0
  6
CONTINUOUS
 10
4.106960
 20
1.644720
  0
SEQEND
  8
0
  0
SOLID
  8
0
 62
    15
 10
6.803720
 20
1.133000
 11
6.806800
 21
1.883200
 12
6.816920
 22
1.169960
 13
6.820000
 23
1.920160
  0
POLYLINE
  8
0
  6
CONTINUOUS
 66
     1
 40
0.000000
 41
0.000000
  0
VERTEX
  8
0
  6
CONTINUOUS
 10
6.803720
 20
1.133000
  0
VERTEX
  8
0
  6
CONTINUOUS
 10
6.806800
 20
1.883200
  0
VERTEX
  8
0
  6
CONTINUOUS
 10
6.820000
 20
1.920160
  0
VERTEX
  8
0
  6
CONTINUOUS
 10
6.816920
 20
1.169960
  0
VERTEX
  8
0
  6
CONTINUOUS
 10
6.803720
 20
1.133000
  0
SEQEND
  8
0
  0
SOLID
  8
0
 62
    15
 10
6.816920
 20
1.169960
 11
6.820000
 21
1.920160
 12
6.834960
 22
1.199880
 13
6.838040
 23
1.950520
  0
POLYLINE
  8
0
  6
CONTINUOUS
 66
     1
 40
0.000000
 41
0.000000
  0
VERTEX
  8
0
  6
CONTINUOUS
 10
6.816920
 20
1.169960
  0
VERTEX
  8
0
  6
CONTINUOUS
 10
6.820000
 20
1.920160
  0
VERTEX
  8
0
  6
CONTINUOUS
 10
6.838040
 20
1.950520
  0
VERTEX
  8
0
  6
CONTINUOUS
 10
6.834960
 20
1.199880
  0
VERTEX
  8
0
  6
CONTINUOUS
 10
6.816920
 20
1.169960
  0
SEQEND
  8
0
  0
SOLID
  8
0
 62
    15
 10
6.834960
 20
1.199880
 11
6.838040
 21
1.950520
 12
6.857400
 22
1.224520
 13
6.860480
 23
1.974720
  0
POLYLINE
  8
0
  6
CONTINUOUS
 66
     1
 40
0.000000
 41
0.000000
  0
VERTEX
  8
0
  6
CONTINUOUS
 10
6.834960
 20
1.199880
  0
VERTEX
  8
0
  6
CONTINUOUS
 10
6.838040
 20
1.950520
  0
VERTEX
  8
0
  6
CONTINUOUS
 10
6.860480
 20
1.974720
  0
VERTEX
  8
0
  6
CONTINUOUS
 10
6.857400
 20
1.224520
  0
VERTEX
  8
0
  6
CONTINUOUS
 10
6.834960
 20
1.199880
  0
SEQEND
  8
0
  0
SOLID
  8
0
 62
    15
 10
6.857400
 20
1.224520
 11
6.860480
 21
1.974720
 12
6.882920
 22
1.242560
 13
6.886000
 23
1.992760
  0
POLYLINE
  8
0
  6
CONTINUOUS
 66
     1
 40
0.000000
 41
0.000000
  0
VERTEX
  8
0
  6
CONTINUOUS
 10
6.857400
 20
1.224520
  0
VERTEX
  8
0
  6
CONTINUOUS
 10
6.860480
 20
1.974720
  0
VERTEX
  8
0
  6
CONTINUOUS
 10
6.886000
 20
1.992760
  0
VERTEX
  8
0
  6
CONTINUOUS
 10
6.882920
 20
1.242560
  0
VERTEX
  8
0
  6
CONTINUOUS
 10
6.857400
 20
1.224520
  0
SEQEND
  8
0
  0
SOLID
  8
0
 62
    15
 10
6.882920
 20
1.242560
 11
6.886000
 21
1.992760
 12
6.911080
 22
1.255760
 13
6.914160
 23
2.005960
  0
POLYLINE
  8
0
  6
CONTINUOUS
 66
     1
 40
0.000000
 41
0.000000
  0
VERTEX
  8
0
  6
CONTINUOUS
 10
6.882920
 20
1.242560
  0
VERTEX
  8
0
  6
CONTINUOUS
 10
6.886000
 20
1.992760
  0
VERTEX
  8
0
  6
CONTINUOUS
 10
6.914160
 20
2.005960
  0
VERTEX
  8
0
  6
CONTINUOUS
 10
6.911080
 20
1.255760
  0
VERTEX
  8
0
  6
CONTINUOUS
 10
6.882920
 20
1.242560
  0
SEQEND
  8
0
  0
SOLID
  8
0
 62
    15
 10
6.911080
 20
1.255760
 11
6.914160
 21
2.005960
 12
6.941000
 22
1.263240
 13
6.944080
 23
2.013440
  0
POLYLINE
  8
0
  6
CONTINUOUS
 66
     1
 40
0.000000
 41
0.000000
  0
VERTEX
  8
0
  6
CONTINUOUS
 10
6.911080
 20
1.255760
  0
VERTEX
  8
0
  6
CONTINUOUS
 10
6.914160
 20
2.005960
  0
VERTEX
  8
0
  6
CONTINUOUS
 10
6.944080
 20
2.013440
  0
VERTEX
  8
0
  6
CONTINUOUS
 10
6.941000
 20
1.263240
  0
VERTEX
  8
0
  6
CONTINUOUS
 10
6.911080
 20
1.255760
  0
SEQEND
  8
0
  0
SOLID
  8
0
 62
    15
 10
6.941000
 20
1.263240
 11
6.944080
 21
2.013440
 12
6.971800
 22
1.266320
 13
6.975320
 23
2.016520
  0
POLYLINE
  8
0
  6
CONTINUOUS
 66
     1
 40
0.000000
 41
0.000000
  0
VERTEX
  8
0
  6
CONTINUOUS
 10
6.941000
 20
1.263240
  0
VERTEX
  8
0
  6
CONTINUOUS
 10
6.944080
 20
2.013440
  0
VERTEX
  8
0
  6
CONTINUOUS
 10
6.975320
 20
2.016520
  0
VERTEX
  8
0
  6
CONTINUOUS
 10
6.971800
 20
1.266320
  0
VERTEX
  8
0
  6
CONTINUOUS
 10
6.941000
 20
1.263240
  0
SEQEND
  8
0
  0
SOLID
  8
0
 62
    15
 10
6.971800
 20
1.266320
 11
6.975320
 21
2.016520
 12
7.003040
 22
1.264120
 13
7.006120
 23
2.014760
  0
POLYLINE
  8
0
  6
CONTINUOUS
 66
     1
 40
0.000000
 41
0.000000
  0
VERTEX
  8
0
  6
CONTINUOUS
 10
6.971800
 20
1.266320
  0
VERTEX
  8
0
  6
CONTINUOUS
 10
6.975320
 20
2.016520
  0
VERTEX
  8
0
  6
CONTINUOUS
 10
7.006120
 20
2.014760
  0
VERTEX
  8
0
  6
CONTINUOUS
 10
7.003040
 20
1.264120
  0
VERTEX
  8
0
  6
CONTINUOUS
 10
6.971800
 20
1.266320
  0
SEQEND
  8
0
  0
SOLID
  8
0
 62
    15
 10
7.003040
 20
1.264120
 11
7.006120
 21
2.014760
 12
7.033400
 22
1.258400
 13
7.036480
 23
2.008600
  0
POLYLINE
  8
0
  6
CONTINUOUS
 66
     1
 40
0.000000
 41
0.000000
  0
VERTEX
  8
0
  6
CONTINUOUS
 10
7.003040
 20
1.264120
  0
VERTEX
  8
0
  6
CONTINUOUS
 10
7.006120
 20
2.014760
  0
VERTEX
  8
0
  6
CONTINUOUS
 10
7.036480
 20
2.008600
  0
VERTEX
  8
0
  6
CONTINUOUS
 10
7.033400
 20
1.258400
  0
VERTEX
  8
0
  6
CONTINUOUS
 10
7.003040
 20
1.264120
  0
SEQEND
  8
0
  0
SOLID
  8
0
 62
    15
 10
7.033400
 20
1.258400
 11
7.036480
 21
2.008600
 12
7.062440
 22
1.248280
 13
7.065520
 23
1.998480
  0
POLYLINE
  8
0
  6
CONTINUOUS
 66
     1
 40
0.000000
 41
0.000000
  0
VERTEX
  8
0
  6
CONTINUOUS
 10
7.033400
 20
1.258400
  0
VERTEX
  8
0
  6
CONTINUOUS
 10
7.036480
 20
2.008600
  0
VERTEX
  8
0
  6
CONTINUOUS
 10
7.065520
 20
1.998480
  0
VERTEX
  8
0
  6
CONTINUOUS
 10
7.062440
 20
1.248280
  0
VERTEX
  8
0
  6
CONTINUOUS
 10
7.033400
 20
1.258400
  0
SEQEND
  8
0
  0
SOLID
  8
0
 62
    15
 10
7.062440
 20
1.248280
 11
7.065520
 21
1.998480
 12
7.088840
 22
1.234640
 13
7.091920
 23
1.984840
  0
POLYLINE
  8
0
  6
CONTINUOUS
 66
     1
 40
0.000000
 41
0.000000
  0
VERTEX
  8
0
  6
CONTINUOUS
 10
7.062440
 20
1.248280
  0
VERTEX
  8
0
  6
CONTINUOUS
 10
7.065520
 20
1.998480
  0
VERTEX
  8
0
  6
CONTINUOUS
 10
7.091920
 20
1.984840
  0
VERTEX
  8
0
  6
CONTINUOUS
 10
7.088840
 20
1.234640
  0
VERTEX
  8
0
  6
CONTINUOUS
 10
7.062440
 20
1.248280
  0
SEQEND
  8
0
  0
SOLID
  8
0
 62
    15
 10
7.088840
 20
1.234640
 11
7.091920
 21
1.984840
 12
7.112600
 22
1.217480
 13
7.115680
 23
1.967680
  0
POLYLINE
  8
0
  6
CONTINUOUS
 66
     1
 40
0.000000
 41
0.000000
  0
VERTEX
  8
0
  6
CONTINUOUS
 10
7.088840
 20
1.234640
  0
VERTEX
  8
0
  6
CONTINUOUS
 10
7.091920
 20
1.984840
  0
VERTEX
  8
0
  6
CONTINUOUS
 10
7.115680
 20
1.967680
  0
VERTEX
  8
0
  6
CONTINUOUS
 10
7.112600
 20
1.217480
  0
VERTEX
  8
0
  6
CONTINUOUS
 10
7.088840
 20
1.234640
  0
SEQEND
  8
0
  0
SOLID
  8
0
 62
    15
 10
7.112600
 20
1.217480
 11
7.115680
 21
1.967680
 12
7.132400
 22
1.197680
 13
7.135480
 23
1.947880
  0
POLYLINE
  8
0
  6
CONTINUOUS
 66
     1
 40
0.000000
 41
0.000000
  0
VERTEX
  8
0
  6
CONTINUOUS
 10
7.112600
 20
1.217480
  0
VERTEX
  8
0
  6
CONTINUOUS
 10
7.115680
 20
1.967680
  0
VERTEX
  8
0
  6
CONTINUOUS
 10
7.135480
 20
1.947880
  0
VERTEX
  8
0
  6
CONTINUOUS
 10
7.132400
 20
1.197680
  0
VERTEX
  8
0
  6
CONTINUOUS
 10
7.112600
 20
1.217480
  0
SEQEND
  8
0
  0
SOLID
  8
0
 62
    15
 10
7.132400
 20
1.197680
 11
7.135480
 21
1.947880
 12
7.147360
 22
1.174800
 13
7.150440
 23
1.925000
  0
POLYLINE
  8
0
  6
CONTINUOUS
 66
     1
 40
0.000000
 41
0.000000
  0
VERTEX
  8
0
  6
CONTINUOUS
 10
7.132400
 20
1.197680
  0
VERTEX
  8
0
  6
CONTINUOUS
 10
7.135480
 20
1.947880
  0
VERTEX
  8
0
  6
CONTINUOUS
 10
7.150440
 20
1.925000
  0
VERTEX
  8
0
  6
CONTINUOUS
 10
7.147360
 20
1.174800
  0
VERTEX
  8
0
  6
CONTINUOUS
 10
7.132400
 20
1.197680
  0
SEQEND
  8
0
  0
SOLID
  8
0
 62
    15
 10
7.157040
 20
1.149280
 11
7.160120
 21
1.899480
 12
7.160560
 22
1.121560
 13
7.163640
 23
1.871760
  0
POLYLINE
  8
0
  6
CONTINUOUS
 66
     1
 40
0.000000
 41
0.000000
  0
VERTEX
  8
0
  6
CONTINUOUS
 10
7.157040
 20
1.149280
  0
VERTEX
  8
0
  6
CONTINUOUS
 10
7.160120
 20
1.899480
  0
VERTEX
  8
0
  6
CONTINUOUS
 10
7.163640
 20
1.871760
  0
VERTEX
  8
0
  6
CONTINUOUS
 10
7.160560
 20
1.121560
  0
VERTEX
  8
0
  6
CONTINUOUS
 10
7.157040
 20
1.149280
  0
SEQEND
  8
0
  0
SOLID
  8
0
 62
    15
 10
7.147360
 20
1.174800
 11
7.150440
 21
1.925000
 12
7.157040
 22
1.149280
 13
7.160120
 23
1.899480
  0
POLYLINE
  8
0
  6
CONTINUOUS
 66
     1
 40
0.000000
 41
0.000000
  0
VERTEX
  8
0
  6
CONTINUOUS
 10
7.147360
 20
1.174800
  0
VERTEX
  8
0
  6
CONTINUOUS
 10
7.150440
 20
1.925000
  0
VERTEX
  8
0
  6
CONTINUOUS
 10
7.160120
 20
1.899480
  0
VERTEX
  8
0
  6
CONTINUOUS
 10
7.157040
 20
1.149280
  0
VERTEX
  8
0
  6
CONTINUOUS
 10
7.147360
 20
1.174800
  0
SEQEND
  8
0
  0
SOLID
  8
0
 62
    15
 10
7.160560
 20
1.121560
 11
7.163640
 21
1.871760
 12
7.160560
 22
0.908160
 13
7.163640
 23
1.658360
  0
POLYLINE
  8
0
  6
CONTINUOUS
 66
     1
 40
0.000000
 41
0.000000
  0
VERTEX
  8
0
  6
CONTINUOUS
 10
7.160560
 20
1.121560
  0
VERTEX
  8
0
  6
CONTINUOUS
 10
7.163640
 20
1.871760
  0
VERTEX
  8
0
  6
CONTINUOUS
 10
7.163640
 20
1.658360
  0
VERTEX
  8
0
  6
CONTINUOUS
 10
7.160560
 20
0.908160
  0
VERTEX
  8
0
  6
CONTINUOUS
 10
7.160560
 20
1.121560
  0
SEQEND
  8
0
  0
SOLID
  8
0
 62
    15
 10
3.645400
 20
1.740200
 11
3.648480
 21
2.490400
 12
4.055920
 22
1.740640
 13
4.059000
 23
2.490840
  0
POLYLINE
  8
0
  6
CONTINUOUS
 66
     1
 40
0.000000
 41
0.000000
  0
VERTEX
  8
0
  6
CONTINUOUS
 10
3.645400
 20
1.740200
  0
VERTEX
  8
0
  6
CONTINUOUS
 10
3.648480
 20
2.490400
  0
VERTEX
  8
0
  6
CONTINUOUS
 10
4.059000
 20
2.490840
  0
VERTEX
  8
0
  6
CONTINUOUS
 10
4.055920
 20
1.740640
  0
VERTEX
  8
0
  6
CONTINUOUS
 10
3.645400
 20
1.740200
  0
SEQEND
  8
0
  0
SOLID
  8
0
 62
    15
 10
4.055920
 20
1.740640
 11
4.059000
 21
2.490840
 12
4.081000
 22
1.736680
 13
4.084080
 23
2.486880
  0
POLYLINE
  8
0
  6
CONTINUOUS
 66
     1
 40
0.000000
 41
0.000000
  0
VERTEX
  8
0
  6
CONTINUOUS
 10
4.055920
 20
1.740640
  0
VERTEX
  8
0
  6
CONTINUOUS
 10
4.059000
 20
2.490840
  0
VERTEX
  8
0
  6
CONTINUOUS
 10
4.084080
 20
2.486880
  0
VERTEX
  8
0
  6
CONTINUOUS
 10
4.081000
 20
1.736680
  0
VERTEX
  8
0
  6
CONTINUOUS
 10
4.055920
 20
1.740640
  0
SEQEND
  8
0
  0
SOLID
  8
0
 62
    15
 10
4.081000
 20
1.736680
 11
4.084080
 21
2.486880
 12
4.096400
 22
1.726120
 13
4.099480
 23
2.476320
  0
POLYLINE
  8
0
  6
CONTINUOUS
 66
     1
 40
0.000000
 41
0.000000
  0
VERTEX
  8
0
  6
CONTINUOUS
 10
4.081000
 20
1.736680
  0
VERTEX
  8
0
  6
CONTINUOUS
 10
4.084080
 20
2.486880
  0
VERTEX
  8
0
  6
CONTINUOUS
 10
4.099480
 20
2.476320
  0
VERTEX
  8
0
  6
CONTINUOUS
 10
4.096400
 20
1.726120
  0
VERTEX
  8
0
  6
CONTINUOUS
 10
4.081000
 20
1.736680
  0
SEQEND
  8
0
  0
SOLID
  8
0
 62
    15
 10
4.096400
 20
1.726120
 11
4.099480
 21
2.476320
 12
4.104320
 22
1.711160
 13
4.107400
 23
2.461360
  0
POLYLINE
  8
0
  6
CONTINUOUS
 66
     1
 40
0.000000
 41
0.000000
  0
VERTEX
  8
0
  6
CONTINUOUS
 10
4.096400
 20
1.726120
  0
VERTEX
  8
0
  6
CONTINUOUS
 10
4.099480
 20
2.476320
  0
VERTEX
  8
0
  6
CONTINUOUS
 10
4.107400
 20
2.461360
  0
VERTEX
  8
0
  6
CONTINUOUS
 10
4.104320
 20
1.711160
  0
VERTEX
  8
0
  6
CONTINUOUS
 10
4.096400
 20
1.726120
  0
SEQEND
  8
0
  0
SOLID
  8
0
 62
    15
 10
4.104320
 20
1.711160
 11
4.107400
 21
2.461360
 12
4.105640
 22
1.693120
 13
4.108720
 23
2.443320
  0
POLYLINE
  8
0
  6
CONTINUOUS
 66
     1
 40
0.000000
 41
0.000000
  0
VERTEX
  8
0
  6
CONTINUOUS
 10
4.104320
 20
1.711160
  0
VERTEX
  8
0
  6
CONTINUOUS
 10
4.107400
 20
2.461360
  0
VERTEX
  8
0
  6
CONTINUOUS
 10
4.108720
 20
2.443320
  0
VERTEX
  8
0
  6
CONTINUOUS
 10
4.105640
 20
1.693120
  0
VERTEX
  8
0
  6
CONTINUOUS
 10
4.104320
 20
1.711160
  0
SEQEND
  8
0
  0
SOLID
  8
0
 62
    15
 10
4.105640
 20
1.693120
 11
4.108720
 21
2.443320
 12
4.105640
 22
1.644720
 13
4.108720
 23
2.394920
  0
POLYLINE
  8
0
  6
CONTINUOUS
 66
     1
 40
0.000000
 41
0.000000
  0
VERTEX
  8
0
  6
CONTINUOUS
 10
4.105640
 20
1.693120
  0
VERTEX
  8
0
  6
CONTINUOUS
 10
4.108720
 20
2.443320
  0
VERTEX
  8
0
  6
CONTINUOUS
 10
4.108720
 20
2.394920
  0
VERTEX
  8
0
  6
CONTINUOUS
 10
4.105640
 20
1.644720
  0
VERTEX
  8
0
  6
CONTINUOUS
 10
4.105640
 20
1.693120
  0
SEQEND
  8
0
  0
SOLID
  8
0
 62
    15
 10
4.105640
 20
1.644720
 11
4.108720
 21
2.394920
 12
4.106960
 22
1.644720
 13
4.110040
 23
2.394920
  0
POLYLINE
  8
0
  6
CONTINUOUS
 66
     1
 40
0.000000
 41
0.000000
  0
VERTEX
  8
0
  6
CONTINUOUS
 10
4.105640
 20
1.644720
  0
VERTEX
  8
0
  6
CONTINUOUS
 10
4.108720
 20
2.394920
  0
VERTEX
  8
0
  6
CONTINUOUS
 10
4.110040
 20
2.394920
  0
VERTEX
  8
0
  6
CONTINUOUS
 10
4.106960
 20
1.644720
  0
VERTEX
  8
0
  6
CONTINUOUS
 10
4.105640
 20
1.644720
  0
SEQEND
  8
0
  0
POLYLINE
  8
0
  6
CONTINUOUS
 66
     1
 40
0.000000
 41
0.000000
  0
VERTEX
  8
0
  6
CONTINUOUS
 10
4.106960
 20
1.644720
  0
VERTEX
  8
0
  6
CONTINUOUS
 10
4.146560
 20
1.643840
  0
VERTEX
  8
0
  6
CONTINUOUS
 10
4.182200
 20
1.640760
  0
VERTEX
  8
0
  6
CONTINUOUS
 10
4.243800
 20
1.629320
  0
VERTEX
  8
0
  6
CONTINUOUS
 10
4.293520
 20
1.612600
  0
VERTEX
  8
0
  6
CONTINUOUS
 10
4.333120
 20
1.591480
  0
VERTEX
  8
0
  6
CONTINUOUS
 10
4.365240
 20
1.567720
  0
VERTEX
  8
0
  6
CONTINUOUS
 10
4.391640
 20
1.543080
  0
VERTEX
  8
0
  6
CONTINUOUS
 10
4.435200
 20
1.496000
  0
VERTEX
  8
0
  6
CONTINUOUS
 10
4.484480
 20
1.449800
  0
VERTEX
  8
0
  6
CONTINUOUS
 10
4.514400
 20
1.425600
  0
VERTEX
  8
0
  6
CONTINUOUS
 10
4.548280
 20
1.402720
  0
VERTEX
  8
0
  6
CONTINUOUS
 10
4.586120
 20
1.382480
  0
VERTEX
  8
0
  6
CONTINUOUS
 10
4.627920
 20
1.365760
  0
VERTEX
  8
0
  6
CONTINUOUS
 10
4.674120
 20
1.354760
  0
VERTEX
  8
0
  6
CONTINUOUS
 10
4.724720
 20
1.349920
  0
VERTEX
  8
0
  6
CONTINUOUS
 10
4.744080
 20
1.346400
  0
VERTEX
  8
0
  6
CONTINUOUS
 10
4.758600
 20
1.342000
  0
VERTEX
  8
0
  6
CONTINUOUS
 10
4.768720
 20
1.335840
  0
VERTEX
  8
0
  6
CONTINUOUS
 10
4.775320
 20
1.328800
  0
VERTEX
  8
0
  6
CONTINUOUS
 10
4.780600
 20
1.309880
  0
VERTEX
  8
0
  6
CONTINUOUS
 10
4.781040
 20
1.285240
  0
VERTEX
  8
0
  6
CONTINUOUS
 10
6.724960
 20
1.285240
  0
VERTEX
  8
0
  6
CONTINUOUS
 10
6.733320
 20
1.133000
  0
VERTEX
  8
0
  6
CONTINUOUS
 10
6.803720
 20
1.133000
  0
VERTEX
  8
0
  6
CONTINUOUS
 10
6.816920
 20
1.169960
  0
VERTEX
  8
0
  6
CONTINUOUS
 10
6.834960
 20
1.199880
  0
VERTEX
  8
0
  6
CONTINUOUS
 10
6.857400
 20
1.224520
  0
VERTEX
  8
0
  6
CONTINUOUS
 10
6.882920
 20
1.242560
  0
VERTEX
  8
0
  6
CONTINUOUS
 10
6.911080
 20
1.255760
  0
VERTEX
  8
0
  6
CONTINUOUS
 10
6.941000
 20
1.263240
  0
VERTEX
  8
0
  6
CONTINUOUS
 10
6.971800
 20
1.266320
  0
VERTEX
  8
0
  6
CONTINUOUS
 10
7.003040
 20
1.264120
  0
VERTEX
  8
0
  6
CONTINUOUS
 10
7.033400
 20
1.258400
  0
VERTEX
  8
0
  6
CONTINUOUS
 10
7.062440
 20
1.248280
  0
VERTEX
  8
0
  6
CONTINUOUS
 10
7.088840
 20
1.234640
  0
VERTEX
  8
0
  6
CONTINUOUS
 10
7.112600
 20
1.217480
  0
VERTEX
  8
0
  6
CONTINUOUS
 10
7.132400
 20
1.197680
  0
VERTEX
  8
0
  6
CONTINUOUS
 10
7.147360
 20
1.174800
  0
VERTEX
  8
0
  6
CONTINUOUS
 10
7.157040
 20
1.149280
  0
VERTEX
  8
0
  6
CONTINUOUS
 10
7.160560
 20
1.121560
  0
VERTEX
  8
0
  6
CONTINUOUS
 10
7.160560
 20
0.908160
  0
VERTEX
  8
0
  6
CONTINUOUS
 10
3.644960
 20
0.908160
  0
VERTEX
  8
0
  6
CONTINUOUS
 10
3.645400
 20
1.740200
  0
VERTEX
  8
0
  6
CONTINUOUS
 10
4.055920
 20
1.740640
  0
VERTEX
  8
0
  6
CONTINUOUS
 10
4.081000
 20
1.736680
  0
VERTEX
  8
0
  6
CONTINUOUS
 10
4.096400
 20
1.726120
  0
VERTEX
  8
0
  6
CONTINUOUS
 10
4.104320
 20
1.711160
  0
VERTEX
  8
0
  6
CONTINUOUS
 10
4.105640
 20
1.693120
  0
VERTEX
  8
0
  6
CONTINUOUS
 10
4.105640
 20
1.644720
  0
VERTEX
  8
0
  6
CONTINUOUS
 10
4.106960
 20
1.644720
  0
SEQEND
  8
0
  0
TEXT
  8
0
 10
5.109720
 20
0.688600
 40
0.138090
  1
BA  225
 41
1.000000
  7
SN0
 71
     0
 72
     5
 11
5.700649
 21
0.688600
  0
TEXT
  8
0
 10
4.861560
 20
0.497200
 40
0.138090
  1
13/16" x 3-1/2"
 41
1.000000
  7
SN0
 71
     0
 72
     5
 11
5.947984
 21
0.497200
  0
TEXT
  8
0
 10
7.679760
 20
3.811720
 40
0.138090
  1
case
 41
1.000000
  7
SN0
 71
     0
 72
     5
 11
8.030875
 21
3.811720
  0
TEXT
  8
0
 10
7.716280
 20
3.619880
 40
0.138090
  1
225
 41
1.000000
  7
SN0
 71
     0
 72
     5
 11
7.993418
 21
3.619880
  0
POLYLINE
  8
0
  6
CONTINUOUS
 66
     1
 40
0.014080
 41
0.014080
  0
VERTEX
  8
0
  6
CONTINUOUS
 10
4.029520
 20
3.655080
  0
VERTEX
  8
0
  6
CONTINUOUS
 10
4.087600
 20
3.652880
  0
VERTEX
  8
0
  6
CONTINUOUS
 10
4.137320
 20
3.646280
  0
VERTEX
  8
0
  6
CONTINUOUS
 10
4.180000
 20
3.635720
  0
VERTEX
  8
0
  6
CONTINUOUS
 10
4.216080
 20
3.622960
  0
VERTEX
  8
0
  6
CONTINUOUS
 10
4.237200
 20
3.612840
  0
VERTEX
  8
0
  6
CONTINUOUS
 10
4.256120
 20
3.601840
  0
VERTEX
  8
0
  6
CONTINUOUS
 10
4.287800
 20
3.578080
  0
VERTEX
  8
0
  6
CONTINUOUS
 10
4.314200
 20
3.553000
  0
VERTEX
  8
0
  6
CONTINUOUS
 10
4.381080
 20
3.483920
  0
VERTEX
  8
0
  6
CONTINUOUS
 10
4.421560
 20
3.447840
  0
VERTEX
  8
0
  6
CONTINUOUS
 10
4.471280
 20
3.413080
  0
VERTEX
  8
0
  6
CONTINUOUS
 10
4.508680
 20
3.392840
  0
VERTEX
  8
0
  6
CONTINUOUS
 10
4.550920
 20
3.376120
  0
VERTEX
  8
0
  6
CONTINUOUS
 10
4.596680
 20
3.365120
  0
VERTEX
  8
0
  6
CONTINUOUS
 10
4.621320
 20
3.361600
  0
VERTEX
  8
0
  6
CONTINUOUS
 10
4.647280
 20
3.360280
  0
VERTEX
  8
0
  6
CONTINUOUS
 10
4.674560
 20
3.354560
  0
VERTEX
  8
0
  6
CONTINUOUS
 10
4.686880
 20
3.349280
  0
VERTEX
  8
0
  6
CONTINUOUS
 10
4.697880
 20
3.339160
  0
VERTEX
  8
0
  6
CONTINUOUS
 10
4.701840
 20
3.330360
  0
VERTEX
  8
0
  6
CONTINUOUS
 10
4.703600
 20
3.308800
  0
VERTEX
  8
0
  6
CONTINUOUS
 10
4.703600
 20
3.295600
  0
VERTEX
  8
0
  6
CONTINUOUS
 10
6.647520
 20
3.295600
  0
VERTEX
  8
0
  6
CONTINUOUS
 10
6.656320
 20
3.143360
  0
VERTEX
  8
0
  6
CONTINUOUS
 10
6.726280
 20
3.143360
  0
VERTEX
  8
0
  6
CONTINUOUS
 10
6.739480
 20
3.179880
  0
VERTEX
  8
0
  6
CONTINUOUS
 10
6.748280
 20
3.196160
  0
VERTEX
  8
0
  6
CONTINUOUS
 10
6.768520
 20
3.223000
  0
VERTEX
  8
0
  6
CONTINUOUS
 10
6.779960
 20
3.234440
  0
VERTEX
  8
0
  6
CONTINUOUS
 10
6.805920
 20
3.252920
  0
VERTEX
  8
0
  6
CONTINUOUS
 10
6.834080
 20
3.265680
  0
VERTEX
  8
0
  6
CONTINUOUS
 10
6.848600
 20
3.270520
  0
VERTEX
  8
0
  6
CONTINUOUS
 10
6.879400
 20
3.275360
  0
VERTEX
  8
0
  6
CONTINUOUS
 10
6.910200
 20
3.276240
  0
VERTEX
  8
0
  6
CONTINUOUS
 10
6.941000
 20
3.272280
  0
VERTEX
  8
0
  6
CONTINUOUS
 10
6.970920
 20
3.263920
  0
VERTEX
  8
0
  6
CONTINUOUS
 10
6.998640
 20
3.252040
  0
VERTEX
  8
0
  6
CONTINUOUS
 10
7.011840
 20
3.245000
  0
VERTEX
  8
0
  6
CONTINUOUS
 10
7.035160
 20
3.227840
  0
VERTEX
  8
0
  6
CONTINUOUS
 10
7.054960
 20
3.207600
  0
VERTEX
  8
0
  6
CONTINUOUS
 10
7.063320
 20
3.196600
  0
VERTEX
  8
0
  6
CONTINUOUS
 10
7.075640
 20
3.172400
  0
VERTEX
  8
0
  6
CONTINUOUS
 10
7.082240
 20
3.146000
  0
VERTEX
  8
0
  6
CONTINUOUS
 10
7.083120
 20
3.131920
  0
VERTEX
  8
0
  6
CONTINUOUS
 10
7.083120
 20
2.918520
  0
VERTEX
  8
0
  6
CONTINUOUS
 10
3.567520
 20
2.918520
  0
VERTEX
  8
0
  6
CONTINUOUS
 10
3.567960
 20
3.750560
  0
VERTEX
  8
0
  6
CONTINUOUS
 10
3.985520
 20
3.750120
  0
VERTEX
  8
0
  6
CONTINUOUS
 10
3.998280
 20
3.748360
  0
VERTEX
  8
0
  6
CONTINUOUS
 10
4.012360
 20
3.742200
  0
VERTEX
  8
0
  6
CONTINUOUS
 10
4.019400
 20
3.736040
  0
VERTEX
  8
0
  6
CONTINUOUS
 10
4.024240
 20
3.729000
  0
VERTEX
  8
0
  6
CONTINUOUS
 10
4.028640
 20
3.712280
  0
VERTEX
  8
0
  6
CONTINUOUS
 10
4.028640
 20
3.655080
  0
VERTEX
  8
0
  6
CONTINUOUS
 10
4.029520
 20
3.655080
  0
SEQEND
  8
0
  0
ENDSEC
  0
EOF
