  0
SECTION
  2
HEADER
  9
$ACADVER
  1
AC1006
  9
$EXTMIN
 10
0.339253
 20
-8.808345
  9
$EXTMAX
 10
38.205662
 20
3.664541
  9
$LTSCALE
 40
0.152817
  9
$PDMODE
 70
    35
  9
$PDSIZE
 40
0.122253
  0
ENDSEC
  0
SECTION
  2
TABLES
  0
TABLE
  2
LTYPE
 70
     9
  0
LTYPE
  2
CONTINUOUS
 70
    64
  3
Solid line
 72
    65
 73
     0
 40
0.000000
  0
LTYPE
  2
DASHED
 70
    64
  3
__ __ __ __ __ __ __ __ __ __ __ __ __ __ __
 72
    65
 73
     2
 40
0.001146
 49
0.000764
 49
-0.000382
  0
LTYPE
  2
HIDDEN
 70
    64
  3
 _ _ _ _ _ _ _ _ _ _ _ _ _ _ _ _ _ _ _ _ _ _
 72
    65
 73
     2
 40
0.000573
 49
0.000382
 49
-0.000191
  0
LTYPE
  2
CENTER
 70
    64
  3
____ _ ____ _ ____ _ ____ _ ____ _ ____ _ ____
 72
    65
 73
     4
 40
0.003056
 49
0.001910
 49
-0.000382
 49
0.000382
 49
-0.000382
  0
LTYPE
  2
PHANTOM
 70
    64
  3
_____ _ _ _____ _ _ _____ _ _ _____ _ _ ____
 72
    65
 73
     6
 40
0.003820
 49
0.001910
 49
-0.000382
 49
0.000382
 49
-0.000382
 49
0.000382
 49
-0.000382
  0
LTYPE
  2
DOT
 70
    64
  3
...............................................
 72
    65
 73
     2
 40
0.000382
 49
0.000000
 49
-0.000382
  0
LTYPE
  2
DASHDOT
 70
    64
  3
__ . __ . __ . __ . __ . __ . __ . __ . __ . __
 72
    65
 73
     4
 40
0.001528
 49
0.000764
 49
-0.000382
 49
0.000000
 49
-0.000382
  0
LTYPE
  2
BORDER
 70
    64
  3
__ __ . __ __ . __ __ . __ __ . __ __ . __ __
 72
    65
 73
     6
 40
0.002674
 49
0.000764
 49
-0.000382
 49
0.000764
 49
-0.000382
 49
0.000000
 49
-0.000382
  0
LTYPE
  2
DIVIDE
 70
    64
  3
__ . . __ . . __ . . __ . . __ . . __ . . __
 72
    65
 73
     6
 40
0.001910
 49
0.000764
 49
-0.000382
 49
0.000000
 49
-0.000382
 49
0.000000
 49
-0.000382
  0
LTYPE
  2
DOTDOT
 70
    64
  3
 . .  . .  . .  . .  . .  . . 
 72
    65
 73
     5
 40
0.000840
 49
-0.000382
 49
0.000000
 49
-0.000382
 49
0.000000
 49
-0.000382
  0
ENDTAB
  0
TABLE
  2
STYLE
 70
     4
  0
STYLE
 70
     0
  2
SN0
 40
0.000000
 41
0.001528
 50
0.000000
 71
     0
 42
0.000000
  3
ROMAND
  0
STYLE
 70
    68
  2
SV0
 40
0.000000
 41
0.001528
 50
0.000000
 71
     0
 42
0.000000
  3
ROMAND
  0
STYLE
 70
     0
  2
SN1
 40
0.000000
 41
0.001528
 50
0.000000
 71
     0
 42
0.000000
  3
ROMAND
  0
STYLE
 70
    68
  2
SV1
 40
0.000000
 41
0.001528
 50
0.000000
 71
     0
 42
0.000000
  3
ROMAND
  0
ENDTAB
  0
TABLE
  2
LAYER
 70
     3
  0
LAYER
  2
FOREGROUND
 70
    64
 62
     7
  6
CONTINUOUS
  0
LAYER
  2
BACKGROUND
 70
    65
 62
    -7
  6
CONTINUOUS
  0
LAYER
  2
0
 70
    64
 62
     7
  6
CONTINUOUS
  0
ENDTAB
  0
ENDSEC
  0
SECTION
  2
ENTITIES
  0
POLYLINE
  8
FOREGROUND
  6
CONTINUOUS
 66
     1
 40
0.000000
 41
0.000000
  0
VERTEX
  8
FOREGROUND
  6
CONTINUOUS
 10
0.000000
 20
-5.143805
  0
VERTEX
  8
FOREGROUND
  6
CONTINUOUS
 10
8.499656
 20
-5.143805
  0
VERTEX
  8
FOREGROUND
  6
CONTINUOUS
 10
8.499656
 20
-16.143539
  0
VERTEX
  8
FOREGROUND
  6
CONTINUOUS
 10
0.000000
 20
-16.143539
  0
VERTEX
  8
FOREGROUND
  6
CONTINUOUS
 10
0.000000
 20
-5.143805
  0
SEQEND
  8
0
  0
POLYLINE
  8
FOREGROUND
  6
CONTINUOUS
 66
     1
 40
0.000000
 41
0.000000
  0
VERTEX
  8
FOREGROUND
  6
CONTINUOUS
 10
0.000000
 20
-5.143805
  0
VERTEX
  8
FOREGROUND
  6
CONTINUOUS
 10
8.499656
 20
-5.143805
  0
VERTEX
  8
FOREGROUND
  6
CONTINUOUS
 10
8.499656
 20
-16.143539
  0
VERTEX
  8
FOREGROUND
  6
CONTINUOUS
 10
0.000000
 20
-16.143539
  0
VERTEX
  8
FOREGROUND
  6
CONTINUOUS
 10
0.000000
 20
-5.143805
  0
SEQEND
  8
0
  0
TEXT
  8
0
 10
35.957731
 20
3.265689
 40
0.015620
  1
B242
 41
1.000000
  7
SN0
 71
     0
 72
     5
 11
35.999384
 21
3.265689
  0
TEXT
  8
0
 10
36.468138
 20
3.404752
 40
0.012149
  1
B242
 41
1.000000
  7
SN0
 71
     0
 72
     5
 11
36.500324
 21
3.404752
  0
TEXT
  8
0
 10
37.433939
 20
3.109816
 40
0.015620
  1
B242
 41
1.000000
  7
SN0
 71
     0
 72
     5
 11
37.475592
 21
3.109816
  0
TEXT
  8
0
 10
37.987134
 20
3.057859
 40
0.015620
  1
B242
 41
1.000000
  7
SN0
 71
     0
 72
     5
 11
38.028787
 21
3.057859
  0
TEXT
  8
0
 10
37.583699
 20
0.374401
 40
0.015620
  1
B242
 41
1.000000
  7
SN0
 71
     0
 72
     5
 11
37.625352
 21
0.374401
  0
TEXT
  8
0
 10
37.377396
 20
3.643146
 40
0.017356
  1
B242
 41
1.000000
  7
SN0
 71
     0
 72
     5
 11
37.424729
 21
3.643146
  0
TEXT
  8
0
 10
36.112075
 20
-7.231278
 40
0.015620
  1
B242
 41
1.000000
  7
SN0
 71
     0
 72
     5
 11
36.153729
 21
-7.231278
  0
POLYLINE
  8
0
  6
CONTINUOUS
 66
     1
 40
0.012225
 41
0.012225
  0
VERTEX
  8
0
  6
CONTINUOUS
 10
37.299460
 20
-5.938451
  0
VERTEX
  8
0
  6
CONTINUOUS
 10
37.310157
 20
-5.938451
  0
SEQEND
  8
0
  0
POLYLINE
  8
0
  6
CONTINUOUS
 66
     1
 40
0.012225
 41
0.012225
  0
VERTEX
  8
0
  6
CONTINUOUS
 10
37.299460
 20
-7.229750
  0
VERTEX
  8
0
  6
CONTINUOUS
 10
37.310157
 20
-7.229750
  0
SEQEND
  8
0
  0
POLYLINE
  8
0
  6
CONTINUOUS
 66
     1
 40
0.012225
 41
0.012225
  0
VERTEX
  8
0
  6
CONTINUOUS
 10
38.198021
 20
-7.211412
  0
VERTEX
  8
0
  6
CONTINUOUS
 10
38.198021
 20
-7.229750
  0
SEQEND
  8
0
  0
POLYLINE
  8
0
  6
CONTINUOUS
 66
     1
 40
0.013753
 41
0.013753
  0
VERTEX
  8
0
  6
CONTINUOUS
 10
6.428992
 20
-5.978183
  0
VERTEX
  8
0
  6
CONTINUOUS
 10
6.785054
 20
-5.978183
  0
VERTEX
  8
0
  6
CONTINUOUS
 10
6.789639
 20
-5.979711
  0
VERTEX
  8
0
  6
CONTINUOUS
 10
6.789639
 20
-5.672550
  0
VERTEX
  8
0
  6
CONTINUOUS
 10
6.783526
 20
-5.672550
  0
VERTEX
  8
0
  6
CONTINUOUS
 10
4.236074
 20
-5.672550
  0
VERTEX
  8
0
  6
CONTINUOUS
 10
4.237603
 20
-5.669493
  0
VERTEX
  8
0
  6
CONTINUOUS
 10
4.237603
 20
-5.979711
  0
VERTEX
  8
0
  6
CONTINUOUS
 10
4.595193
 20
-5.979711
  0
VERTEX
  8
0
  6
CONTINUOUS
 10
4.595193
 20
-5.985824
  0
VERTEX
  8
0
  6
CONTINUOUS
 10
4.595193
 20
-6.205880
  0
VERTEX
  8
0
  6
CONTINUOUS
 10
4.237603
 20
-6.205880
  0
VERTEX
  8
0
  6
CONTINUOUS
 10
4.237603
 20
-6.211992
  0
VERTEX
  8
0
  6
CONTINUOUS
 10
4.237603
 20
-6.436632
  0
VERTEX
  8
0
  6
CONTINUOUS
 10
4.242187
 20
-6.436632
  0
VERTEX
  8
0
  6
CONTINUOUS
 10
6.780470
 20
-6.436632
  0
VERTEX
  8
0
  6
CONTINUOUS
 10
6.785054
 20
-6.433576
  0
VERTEX
  8
0
  6
CONTINUOUS
 10
6.785054
 20
-6.208936
  0
VERTEX
  8
0
  6
CONTINUOUS
 10
6.785054
 20
-6.205880
  0
VERTEX
  8
0
  6
CONTINUOUS
 10
6.428992
 20
-6.205880
  0
VERTEX
  8
0
  6
CONTINUOUS
 10
6.428992
 20
-5.978183
  0
SEQEND
  8
0
  0
SOLID
  8
0
 62
    15
 10
3.235126
 20
-7.737101
 11
3.239711
 21
-6.983716
 12
3.248880
 22
-7.691256
 13
3.254992
 23
-6.937871
  0
POLYLINE
  8
0
  6
CONTINUOUS
 66
     1
 40
0.000000
 41
0.000000
  0
VERTEX
  8
0
  6
CONTINUOUS
 10
3.235126
 20
-7.737101
  0
VERTEX
  8
0
  6
CONTINUOUS
 10
3.239711
 20
-6.983716
  0
VERTEX
  8
0
  6
CONTINUOUS
 10
3.254992
 20
-6.937871
  0
VERTEX
  8
0
  6
CONTINUOUS
 10
3.248880
 20
-7.691256
  0
VERTEX
  8
0
  6
CONTINUOUS
 10
3.235126
 20
-7.737101
  0
SEQEND
  8
0
  0
SOLID
  8
0
 62
    15
 10
1.253096
 20
-7.848657
 11
1.257680
 21
-7.093744
 12
1.609158
 22
-7.848657
 13
1.613743
 23
-7.093744
  0
POLYLINE
  8
0
  6
CONTINUOUS
 66
     1
 40
0.000000
 41
0.000000
  0
VERTEX
  8
0
  6
CONTINUOUS
 10
1.253096
 20
-7.848657
  0
VERTEX
  8
0
  6
CONTINUOUS
 10
1.257680
 20
-7.093744
  0
VERTEX
  8
0
  6
CONTINUOUS
 10
1.613743
 20
-7.093744
  0
VERTEX
  8
0
  6
CONTINUOUS
 10
1.609158
 20
-7.848657
  0
VERTEX
  8
0
  6
CONTINUOUS
 10
1.253096
 20
-7.848657
  0
SEQEND
  8
0
  0
SOLID
  8
0
 62
    15
 10
1.610686
 20
-7.776833
 11
1.616799
 21
-7.023448
 12
2.044685
 22
-7.533855
 13
2.049270
 23
-6.778942
  0
POLYLINE
  8
0
  6
CONTINUOUS
 66
     1
 40
0.000000
 41
0.000000
  0
VERTEX
  8
0
  6
CONTINUOUS
 10
1.610686
 20
-7.776833
  0
VERTEX
  8
0
  6
CONTINUOUS
 10
1.616799
 20
-7.023448
  0
VERTEX
  8
0
  6
CONTINUOUS
 10
2.049270
 20
-6.778942
  0
VERTEX
  8
0
  6
CONTINUOUS
 10
2.044685
 20
-7.533855
  0
VERTEX
  8
0
  6
CONTINUOUS
 10
1.610686
 20
-7.776833
  0
SEQEND
  8
0
  0
SOLID
  8
0
 62
    15
 10
2.044685
 20
-7.533855
 11
2.049270
 21
-6.778942
 12
2.049270
 22
-7.535383
 13
2.053854
 23
-6.781998
  0
POLYLINE
  8
0
  6
CONTINUOUS
 66
     1
 40
0.000000
 41
0.000000
  0
VERTEX
  8
0
  6
CONTINUOUS
 10
2.044685
 20
-7.533855
  0
VERTEX
  8
0
  6
CONTINUOUS
 10
2.049270
 20
-6.778942
  0
VERTEX
  8
0
  6
CONTINUOUS
 10
2.053854
 20
-6.781998
  0
VERTEX
  8
0
  6
CONTINUOUS
 10
2.049270
 20
-7.535383
  0
VERTEX
  8
0
  6
CONTINUOUS
 10
2.044685
 20
-7.533855
  0
SEQEND
  8
0
  0
SOLID
  8
0
 62
    15
 10
2.049270
 20
-7.535383
 11
2.053854
 21
-6.781998
 12
2.099699
 22
-7.598038
 13
2.104284
 23
-6.844653
  0
POLYLINE
  8
0
  6
CONTINUOUS
 66
     1
 40
0.000000
 41
0.000000
  0
VERTEX
  8
0
  6
CONTINUOUS
 10
2.049270
 20
-7.535383
  0
VERTEX
  8
0
  6
CONTINUOUS
 10
2.053854
 20
-6.781998
  0
VERTEX
  8
0
  6
CONTINUOUS
 10
2.104284
 20
-6.844653
  0
VERTEX
  8
0
  6
CONTINUOUS
 10
2.099699
 20
-7.598038
  0
VERTEX
  8
0
  6
CONTINUOUS
 10
2.049270
 20
-7.535383
  0
SEQEND
  8
0
  0
SOLID
  8
0
 62
    15
 10
2.099699
 20
-7.598038
 11
2.104284
 21
-6.844653
 12
2.156241
 22
-7.653052
 13
2.162354
 23
-6.899667
  0
POLYLINE
  8
0
  6
CONTINUOUS
 66
     1
 40
0.000000
 41
0.000000
  0
VERTEX
  8
0
  6
CONTINUOUS
 10
2.099699
 20
-7.598038
  0
VERTEX
  8
0
  6
CONTINUOUS
 10
2.104284
 20
-6.844653
  0
VERTEX
  8
0
  6
CONTINUOUS
 10
2.162354
 20
-6.899667
  0
VERTEX
  8
0
  6
CONTINUOUS
 10
2.156241
 20
-7.653052
  0
VERTEX
  8
0
  6
CONTINUOUS
 10
2.099699
 20
-7.598038
  0
SEQEND
  8
0
  0
SOLID
  8
0
 62
    15
 10
2.156241
 20
-7.653052
 11
2.162354
 21
-6.899667
 12
2.218896
 22
-7.700425
 13
2.225009
 23
-6.947040
  0
POLYLINE
  8
0
  6
CONTINUOUS
 66
     1
 40
0.000000
 41
0.000000
  0
VERTEX
  8
0
  6
CONTINUOUS
 10
2.156241
 20
-7.653052
  0
VERTEX
  8
0
  6
CONTINUOUS
 10
2.162354
 20
-6.899667
  0
VERTEX
  8
0
  6
CONTINUOUS
 10
2.225009
 20
-6.947040
  0
VERTEX
  8
0
  6
CONTINUOUS
 10
2.218896
 20
-7.700425
  0
VERTEX
  8
0
  6
CONTINUOUS
 10
2.156241
 20
-7.653052
  0
SEQEND
  8
0
  0
SOLID
  8
0
 62
    15
 10
2.218896
 20
-7.700425
 11
2.225009
 21
-6.947040
 12
2.286135
 22
-7.740158
 13
2.292248
 23
-6.985244
  0
POLYLINE
  8
0
  6
CONTINUOUS
 66
     1
 40
0.000000
 41
0.000000
  0
VERTEX
  8
0
  6
CONTINUOUS
 10
2.218896
 20
-7.700425
  0
VERTEX
  8
0
  6
CONTINUOUS
 10
2.225009
 20
-6.947040
  0
VERTEX
  8
0
  6
CONTINUOUS
 10
2.292248
 20
-6.985244
  0
VERTEX
  8
0
  6
CONTINUOUS
 10
2.286135
 20
-7.740158
  0
VERTEX
  8
0
  6
CONTINUOUS
 10
2.218896
 20
-7.700425
  0
SEQEND
  8
0
  0
SOLID
  8
0
 62
    15
 10
2.286135
 20
-7.740158
 11
2.292248
 21
-6.985244
 12
2.357959
 22
-7.772249
 13
2.362544
 23
-7.017335
  0
POLYLINE
  8
0
  6
CONTINUOUS
 66
     1
 40
0.000000
 41
0.000000
  0
VERTEX
  8
0
  6
CONTINUOUS
 10
2.286135
 20
-7.740158
  0
VERTEX
  8
0
  6
CONTINUOUS
 10
2.292248
 20
-6.985244
  0
VERTEX
  8
0
  6
CONTINUOUS
 10
2.362544
 20
-7.017335
  0
VERTEX
  8
0
  6
CONTINUOUS
 10
2.357959
 20
-7.772249
  0
VERTEX
  8
0
  6
CONTINUOUS
 10
2.286135
 20
-7.740158
  0
SEQEND
  8
0
  0
SOLID
  8
0
 62
    15
 10
2.357959
 20
-7.772249
 11
2.362544
 21
-7.017335
 12
2.431311
 22
-7.795171
 13
2.435896
 23
-7.041786
  0
POLYLINE
  8
0
  6
CONTINUOUS
 66
     1
 40
0.000000
 41
0.000000
  0
VERTEX
  8
0
  6
CONTINUOUS
 10
2.357959
 20
-7.772249
  0
VERTEX
  8
0
  6
CONTINUOUS
 10
2.362544
 20
-7.017335
  0
VERTEX
  8
0
  6
CONTINUOUS
 10
2.435896
 20
-7.041786
  0
VERTEX
  8
0
  6
CONTINUOUS
 10
2.431311
 20
-7.795171
  0
VERTEX
  8
0
  6
CONTINUOUS
 10
2.357959
 20
-7.772249
  0
SEQEND
  8
0
  0
SOLID
  8
0
 62
    15
 10
2.431311
 20
-7.795171
 11
2.435896
 21
-7.041786
 12
2.504663
 22
-7.810453
 13
2.510776
 23
-7.057068
  0
POLYLINE
  8
0
  6
CONTINUOUS
 66
     1
 40
0.000000
 41
0.000000
  0
VERTEX
  8
0
  6
CONTINUOUS
 10
2.431311
 20
-7.795171
  0
VERTEX
  8
0
  6
CONTINUOUS
 10
2.435896
 20
-7.041786
  0
VERTEX
  8
0
  6
CONTINUOUS
 10
2.510776
 20
-7.057068
  0
VERTEX
  8
0
  6
CONTINUOUS
 10
2.504663
 20
-7.810453
  0
VERTEX
  8
0
  6
CONTINUOUS
 10
2.431311
 20
-7.795171
  0
SEQEND
  8
0
  0
SOLID
  8
0
 62
    15
 10
2.504663
 20
-7.810453
 11
2.510776
 21
-7.057068
 12
2.579543
 22
-7.819622
 13
2.585656
 23
-7.064708
  0
POLYLINE
  8
0
  6
CONTINUOUS
 66
     1
 40
0.000000
 41
0.000000
  0
VERTEX
  8
0
  6
CONTINUOUS
 10
2.504663
 20
-7.810453
  0
VERTEX
  8
0
  6
CONTINUOUS
 10
2.510776
 20
-7.057068
  0
VERTEX
  8
0
  6
CONTINUOUS
 10
2.585656
 20
-7.064708
  0
VERTEX
  8
0
  6
CONTINUOUS
 10
2.579543
 20
-7.819622
  0
VERTEX
  8
0
  6
CONTINUOUS
 10
2.504663
 20
-7.810453
  0
SEQEND
  8
0
  0
SOLID
  8
0
 62
    15
 10
2.579543
 20
-7.787531
 11
2.585656
 21
-7.034145
 12
2.585656
 22
-7.738629
 13
2.590240
 23
-6.983716
  0
POLYLINE
  8
0
  6
CONTINUOUS
 66
     1
 40
0.000000
 41
0.000000
  0
VERTEX
  8
0
  6
CONTINUOUS
 10
2.579543
 20
-7.787531
  0
VERTEX
  8
0
  6
CONTINUOUS
 10
2.585656
 20
-7.034145
  0
VERTEX
  8
0
  6
CONTINUOUS
 10
2.590240
 20
-6.983716
  0
VERTEX
  8
0
  6
CONTINUOUS
 10
2.585656
 20
-7.738629
  0
VERTEX
  8
0
  6
CONTINUOUS
 10
2.579543
 20
-7.787531
  0
SEQEND
  8
0
  0
SOLID
  8
0
 62
    15
 10
2.585656
 20
-7.738629
 11
2.590240
 21
-6.983716
 12
2.599409
 22
-7.691256
 13
2.605522
 23
-6.937871
  0
POLYLINE
  8
0
  6
CONTINUOUS
 66
     1
 40
0.000000
 41
0.000000
  0
VERTEX
  8
0
  6
CONTINUOUS
 10
2.585656
 20
-7.738629
  0
VERTEX
  8
0
  6
CONTINUOUS
 10
2.590240
 20
-6.983716
  0
VERTEX
  8
0
  6
CONTINUOUS
 10
2.605522
 20
-6.937871
  0
VERTEX
  8
0
  6
CONTINUOUS
 10
2.599409
 20
-7.691256
  0
VERTEX
  8
0
  6
CONTINUOUS
 10
2.585656
 20
-7.738629
  0
SEQEND
  8
0
  0
SOLID
  8
0
 62
    15
 10
2.599409
 20
-7.691256
 11
2.605522
 21
-6.937871
 12
2.622332
 22
-7.649996
 13
2.628444
 23
-6.896610
  0
POLYLINE
  8
0
  6
CONTINUOUS
 66
     1
 40
0.000000
 41
0.000000
  0
VERTEX
  8
0
  6
CONTINUOUS
 10
2.599409
 20
-7.691256
  0
VERTEX
  8
0
  6
CONTINUOUS
 10
2.605522
 20
-6.937871
  0
VERTEX
  8
0
  6
CONTINUOUS
 10
2.628444
 20
-6.896610
  0
VERTEX
  8
0
  6
CONTINUOUS
 10
2.622332
 20
-7.649996
  0
VERTEX
  8
0
  6
CONTINUOUS
 10
2.599409
 20
-7.691256
  0
SEQEND
  8
0
  0
SOLID
  8
0
 62
    15
 10
2.622332
 20
-7.649996
 11
2.628444
 21
-6.896610
 12
2.652895
 22
-7.613320
 13
2.659008
 23
-6.858406
  0
POLYLINE
  8
0
  6
CONTINUOUS
 66
     1
 40
0.000000
 41
0.000000
  0
VERTEX
  8
0
  6
CONTINUOUS
 10
2.622332
 20
-7.649996
  0
VERTEX
  8
0
  6
CONTINUOUS
 10
2.628444
 20
-6.896610
  0
VERTEX
  8
0
  6
CONTINUOUS
 10
2.659008
 20
-6.858406
  0
VERTEX
  8
0
  6
CONTINUOUS
 10
2.652895
 20
-7.613320
  0
VERTEX
  8
0
  6
CONTINUOUS
 10
2.622332
 20
-7.649996
  0
SEQEND
  8
0
  0
SOLID
  8
0
 62
    15
 10
2.652895
 20
-7.613320
 11
2.659008
 21
-6.858406
 12
2.689571
 22
-7.582756
 13
2.695684
 23
-6.829371
  0
POLYLINE
  8
0
  6
CONTINUOUS
 66
     1
 40
0.000000
 41
0.000000
  0
VERTEX
  8
0
  6
CONTINUOUS
 10
2.652895
 20
-7.613320
  0
VERTEX
  8
0
  6
CONTINUOUS
 10
2.659008
 20
-6.858406
  0
VERTEX
  8
0
  6
CONTINUOUS
 10
2.695684
 20
-6.829371
  0
VERTEX
  8
0
  6
CONTINUOUS
 10
2.689571
 20
-7.582756
  0
VERTEX
  8
0
  6
CONTINUOUS
 10
2.652895
 20
-7.613320
  0
SEQEND
  8
0
  0
SOLID
  8
0
 62
    15
 10
2.689571
 20
-7.582756
 11
2.695684
 21
-6.829371
 12
2.732360
 22
-7.559834
 13
2.736944
 23
-6.804920
  0
POLYLINE
  8
0
  6
CONTINUOUS
 66
     1
 40
0.000000
 41
0.000000
  0
VERTEX
  8
0
  6
CONTINUOUS
 10
2.689571
 20
-7.582756
  0
VERTEX
  8
0
  6
CONTINUOUS
 10
2.695684
 20
-6.829371
  0
VERTEX
  8
0
  6
CONTINUOUS
 10
2.736944
 20
-6.804920
  0
VERTEX
  8
0
  6
CONTINUOUS
 10
2.732360
 20
-7.559834
  0
VERTEX
  8
0
  6
CONTINUOUS
 10
2.689571
 20
-7.582756
  0
SEQEND
  8
0
  0
SOLID
  8
0
 62
    15
 10
2.732360
 20
-7.559834
 11
2.736944
 21
-6.804920
 12
2.778205
 22
-7.544552
 13
2.784317
 23
-6.791167
  0
POLYLINE
  8
0
  6
CONTINUOUS
 66
     1
 40
0.000000
 41
0.000000
  0
VERTEX
  8
0
  6
CONTINUOUS
 10
2.732360
 20
-7.559834
  0
VERTEX
  8
0
  6
CONTINUOUS
 10
2.736944
 20
-6.804920
  0
VERTEX
  8
0
  6
CONTINUOUS
 10
2.784317
 20
-6.791167
  0
VERTEX
  8
0
  6
CONTINUOUS
 10
2.778205
 20
-7.544552
  0
VERTEX
  8
0
  6
CONTINUOUS
 10
2.732360
 20
-7.559834
  0
SEQEND
  8
0
  0
SOLID
  8
0
 62
    15
 10
2.778205
 20
-7.544552
 11
2.784317
 21
-6.791167
 12
2.827106
 22
-7.539968
 13
2.833219
 23
-6.786582
  0
POLYLINE
  8
0
  6
CONTINUOUS
 66
     1
 40
0.000000
 41
0.000000
  0
VERTEX
  8
0
  6
CONTINUOUS
 10
2.778205
 20
-7.544552
  0
VERTEX
  8
0
  6
CONTINUOUS
 10
2.784317
 20
-6.791167
  0
VERTEX
  8
0
  6
CONTINUOUS
 10
2.833219
 20
-6.786582
  0
VERTEX
  8
0
  6
CONTINUOUS
 10
2.827106
 20
-7.539968
  0
VERTEX
  8
0
  6
CONTINUOUS
 10
2.778205
 20
-7.544552
  0
SEQEND
  8
0
  0
SOLID
  8
0
 62
    15
 10
2.827106
 20
-7.539968
 11
2.833219
 21
-6.786582
 12
2.877535
 22
-7.544552
 13
2.882120
 23
-6.791167
  0
POLYLINE
  8
0
  6
CONTINUOUS
 66
     1
 40
0.000000
 41
0.000000
  0
VERTEX
  8
0
  6
CONTINUOUS
 10
2.827106
 20
-7.539968
  0
VERTEX
  8
0
  6
CONTINUOUS
 10
2.833219
 20
-6.786582
  0
VERTEX
  8
0
  6
CONTINUOUS
 10
2.882120
 20
-6.791167
  0
VERTEX
  8
0
  6
CONTINUOUS
 10
2.877535
 20
-7.544552
  0
VERTEX
  8
0
  6
CONTINUOUS
 10
2.827106
 20
-7.539968
  0
SEQEND
  8
0
  0
SOLID
  8
0
 62
    15
 10
2.877535
 20
-7.544552
 11
2.882120
 21
-6.791167
 12
2.923380
 22
-7.558306
 13
2.929493
 23
-6.804920
  0
POLYLINE
  8
0
  6
CONTINUOUS
 66
     1
 40
0.000000
 41
0.000000
  0
VERTEX
  8
0
  6
CONTINUOUS
 10
2.877535
 20
-7.544552
  0
VERTEX
  8
0
  6
CONTINUOUS
 10
2.882120
 20
-6.791167
  0
VERTEX
  8
0
  6
CONTINUOUS
 10
2.929493
 20
-6.804920
  0
VERTEX
  8
0
  6
CONTINUOUS
 10
2.923380
 20
-7.558306
  0
VERTEX
  8
0
  6
CONTINUOUS
 10
2.877535
 20
-7.544552
  0
SEQEND
  8
0
  0
SOLID
  8
0
 62
    15
 10
2.923380
 20
-7.558306
 11
2.929493
 21
-6.804920
 12
2.966169
 22
-7.581228
 13
2.970753
 23
-6.827843
  0
POLYLINE
  8
0
  6
CONTINUOUS
 66
     1
 40
0.000000
 41
0.000000
  0
VERTEX
  8
0
  6
CONTINUOUS
 10
2.923380
 20
-7.558306
  0
VERTEX
  8
0
  6
CONTINUOUS
 10
2.929493
 20
-6.804920
  0
VERTEX
  8
0
  6
CONTINUOUS
 10
2.970753
 20
-6.827843
  0
VERTEX
  8
0
  6
CONTINUOUS
 10
2.966169
 20
-7.581228
  0
VERTEX
  8
0
  6
CONTINUOUS
 10
2.923380
 20
-7.558306
  0
SEQEND
  8
0
  0
SOLID
  8
0
 62
    15
 10
2.966169
 20
-7.581228
 11
2.970753
 21
-6.827843
 12
3.002845
 22
-7.611792
 13
3.007429
 23
-6.856878
  0
POLYLINE
  8
0
  6
CONTINUOUS
 66
     1
 40
0.000000
 41
0.000000
  0
VERTEX
  8
0
  6
CONTINUOUS
 10
2.966169
 20
-7.581228
  0
VERTEX
  8
0
  6
CONTINUOUS
 10
2.970753
 20
-6.827843
  0
VERTEX
  8
0
  6
CONTINUOUS
 10
3.007429
 20
-6.856878
  0
VERTEX
  8
0
  6
CONTINUOUS
 10
3.002845
 20
-7.611792
  0
VERTEX
  8
0
  6
CONTINUOUS
 10
2.966169
 20
-7.581228
  0
SEQEND
  8
0
  0
SOLID
  8
0
 62
    15
 10
3.002845
 20
-7.611792
 11
3.007429
 21
-6.856878
 12
3.033408
 22
-7.646939
 13
3.037993
 23
-6.893554
  0
POLYLINE
  8
0
  6
CONTINUOUS
 66
     1
 40
0.000000
 41
0.000000
  0
VERTEX
  8
0
  6
CONTINUOUS
 10
3.002845
 20
-7.611792
  0
VERTEX
  8
0
  6
CONTINUOUS
 10
3.007429
 20
-6.856878
  0
VERTEX
  8
0
  6
CONTINUOUS
 10
3.037993
 20
-6.893554
  0
VERTEX
  8
0
  6
CONTINUOUS
 10
3.033408
 20
-7.646939
  0
VERTEX
  8
0
  6
CONTINUOUS
 10
3.002845
 20
-7.611792
  0
SEQEND
  8
0
  0
SOLID
  8
0
 62
    15
 10
3.033408
 20
-7.646939
 11
3.037993
 21
-6.893554
 12
3.056331
 22
-7.688200
 13
3.060915
 23
-6.934814
  0
POLYLINE
  8
0
  6
CONTINUOUS
 66
     1
 40
0.000000
 41
0.000000
  0
VERTEX
  8
0
  6
CONTINUOUS
 10
3.033408
 20
-7.646939
  0
VERTEX
  8
0
  6
CONTINUOUS
 10
3.037993
 20
-6.893554
  0
VERTEX
  8
0
  6
CONTINUOUS
 10
3.060915
 20
-6.934814
  0
VERTEX
  8
0
  6
CONTINUOUS
 10
3.056331
 20
-7.688200
  0
VERTEX
  8
0
  6
CONTINUOUS
 10
3.033408
 20
-7.646939
  0
SEQEND
  8
0
  0
SOLID
  8
0
 62
    15
 10
3.056331
 20
-7.688200
 11
3.060915
 21
-6.934814
 12
3.070084
 22
-7.734045
 13
3.076197
 23
-6.980659
  0
POLYLINE
  8
0
  6
CONTINUOUS
 66
     1
 40
0.000000
 41
0.000000
  0
VERTEX
  8
0
  6
CONTINUOUS
 10
3.056331
 20
-7.688200
  0
VERTEX
  8
0
  6
CONTINUOUS
 10
3.060915
 20
-6.934814
  0
VERTEX
  8
0
  6
CONTINUOUS
 10
3.076197
 20
-6.980659
  0
VERTEX
  8
0
  6
CONTINUOUS
 10
3.070084
 20
-7.734045
  0
VERTEX
  8
0
  6
CONTINUOUS
 10
3.056331
 20
-7.688200
  0
SEQEND
  8
0
  0
SOLID
  8
0
 62
    15
 10
3.070084
 20
-7.734045
 11
3.076197
 21
-6.980659
 12
3.076197
 22
-7.782946
 13
3.080781
 23
-7.029561
  0
POLYLINE
  8
0
  6
CONTINUOUS
 66
     1
 40
0.000000
 41
0.000000
  0
VERTEX
  8
0
  6
CONTINUOUS
 10
3.070084
 20
-7.734045
  0
VERTEX
  8
0
  6
CONTINUOUS
 10
3.076197
 20
-6.980659
  0
VERTEX
  8
0
  6
CONTINUOUS
 10
3.080781
 20
-7.029561
  0
VERTEX
  8
0
  6
CONTINUOUS
 10
3.076197
 20
-7.782946
  0
VERTEX
  8
0
  6
CONTINUOUS
 10
3.070084
 20
-7.734045
  0
SEQEND
  8
0
  0
SOLID
  8
0
 62
    15
 10
3.076197
 20
-7.782946
 11
3.080781
 21
-7.029561
 12
3.076197
 22
-7.825735
 13
3.080781
 23
-7.070821
  0
POLYLINE
  8
0
  6
CONTINUOUS
 66
     1
 40
0.000000
 41
0.000000
  0
VERTEX
  8
0
  6
CONTINUOUS
 10
3.076197
 20
-7.782946
  0
VERTEX
  8
0
  6
CONTINUOUS
 10
3.080781
 20
-7.029561
  0
VERTEX
  8
0
  6
CONTINUOUS
 10
3.080781
 20
-7.070821
  0
VERTEX
  8
0
  6
CONTINUOUS
 10
3.076197
 20
-7.825735
  0
VERTEX
  8
0
  6
CONTINUOUS
 10
3.076197
 20
-7.782946
  0
SEQEND
  8
0
  0
SOLID
  8
0
 62
    15
 10
3.076197
 20
-7.825735
 11
3.080781
 21
-7.070821
 12
3.230542
 22
-7.825735
 13
3.235126
 23
-7.070821
  0
POLYLINE
  8
0
  6
CONTINUOUS
 66
     1
 40
0.000000
 41
0.000000
  0
VERTEX
  8
0
  6
CONTINUOUS
 10
3.076197
 20
-7.825735
  0
VERTEX
  8
0
  6
CONTINUOUS
 10
3.080781
 20
-7.070821
  0
VERTEX
  8
0
  6
CONTINUOUS
 10
3.235126
 20
-7.070821
  0
VERTEX
  8
0
  6
CONTINUOUS
 10
3.230542
 20
-7.825735
  0
VERTEX
  8
0
  6
CONTINUOUS
 10
3.076197
 20
-7.825735
  0
SEQEND
  8
0
  0
SOLID
  8
0
 62
    15
 10
3.230542
 20
-7.787531
 11
3.235126
 21
-7.034145
 12
3.235126
 22
-7.737101
 13
3.239711
 23
-6.983716
  0
POLYLINE
  8
0
  6
CONTINUOUS
 66
     1
 40
0.000000
 41
0.000000
  0
VERTEX
  8
0
  6
CONTINUOUS
 10
3.230542
 20
-7.787531
  0
VERTEX
  8
0
  6
CONTINUOUS
 10
3.235126
 20
-7.034145
  0
VERTEX
  8
0
  6
CONTINUOUS
 10
3.239711
 20
-6.983716
  0
VERTEX
  8
0
  6
CONTINUOUS
 10
3.235126
 20
-7.737101
  0
VERTEX
  8
0
  6
CONTINUOUS
 10
3.230542
 20
-7.787531
  0
SEQEND
  8
0
  0
SOLID
  8
0
 62
    15
 10
1.609158
 20
-7.779890
 11
1.613743
 21
-7.024976
 12
1.610686
 22
-7.776833
 13
1.616799
 23
-7.023448
  0
POLYLINE
  8
0
  6
CONTINUOUS
 66
     1
 40
0.000000
 41
0.000000
  0
VERTEX
  8
0
  6
CONTINUOUS
 10
1.609158
 20
-7.779890
  0
VERTEX
  8
0
  6
CONTINUOUS
 10
1.613743
 20
-7.024976
  0
VERTEX
  8
0
  6
CONTINUOUS
 10
1.616799
 20
-7.023448
  0
VERTEX
  8
0
  6
CONTINUOUS
 10
1.610686
 20
-7.776833
  0
VERTEX
  8
0
  6
CONTINUOUS
 10
1.609158
 20
-7.779890
  0
SEQEND
  8
0
  0
SOLID
  8
0
 62
    15
 10
3.248880
 20
-7.691256
 11
3.254992
 21
-6.937871
 12
3.273330
 22
-7.649996
 13
3.277915
 23
-6.895082
  0
POLYLINE
  8
0
  6
CONTINUOUS
 66
     1
 40
0.000000
 41
0.000000
  0
VERTEX
  8
0
  6
CONTINUOUS
 10
3.248880
 20
-7.691256
  0
VERTEX
  8
0
  6
CONTINUOUS
 10
3.254992
 20
-6.937871
  0
VERTEX
  8
0
  6
CONTINUOUS
 10
3.277915
 20
-6.895082
  0
VERTEX
  8
0
  6
CONTINUOUS
 10
3.273330
 20
-7.649996
  0
VERTEX
  8
0
  6
CONTINUOUS
 10
3.248880
 20
-7.691256
  0
SEQEND
  8
0
  0
SOLID
  8
0
 62
    15
 10
3.273330
 20
-7.649996
 11
3.277915
 21
-6.895082
 12
3.302365
 22
-7.613320
 13
3.308478
 23
-6.859934
  0
POLYLINE
  8
0
  6
CONTINUOUS
 66
     1
 40
0.000000
 41
0.000000
  0
VERTEX
  8
0
  6
CONTINUOUS
 10
3.273330
 20
-7.649996
  0
VERTEX
  8
0
  6
CONTINUOUS
 10
3.277915
 20
-6.895082
  0
VERTEX
  8
0
  6
CONTINUOUS
 10
3.308478
 20
-6.859934
  0
VERTEX
  8
0
  6
CONTINUOUS
 10
3.302365
 20
-7.613320
  0
VERTEX
  8
0
  6
CONTINUOUS
 10
3.273330
 20
-7.649996
  0
SEQEND
  8
0
  0
SOLID
  8
0
 62
    15
 10
3.302365
 20
-7.613320
 11
3.308478
 21
-6.859934
 12
3.339041
 22
-7.584285
 13
3.345154
 23
-6.829371
  0
POLYLINE
  8
0
  6
CONTINUOUS
 66
     1
 40
0.000000
 41
0.000000
  0
VERTEX
  8
0
  6
CONTINUOUS
 10
3.302365
 20
-7.613320
  0
VERTEX
  8
0
  6
CONTINUOUS
 10
3.308478
 20
-6.859934
  0
VERTEX
  8
0
  6
CONTINUOUS
 10
3.345154
 20
-6.829371
  0
VERTEX
  8
0
  6
CONTINUOUS
 10
3.339041
 20
-7.584285
  0
VERTEX
  8
0
  6
CONTINUOUS
 10
3.302365
 20
-7.613320
  0
SEQEND
  8
0
  0
SOLID
  8
0
 62
    15
 10
3.339041
 20
-7.584285
 11
3.345154
 21
-6.829371
 12
3.381830
 22
-7.561362
 13
3.387943
 23
-6.806448
  0
POLYLINE
  8
0
  6
CONTINUOUS
 66
     1
 40
0.000000
 41
0.000000
  0
VERTEX
  8
0
  6
CONTINUOUS
 10
3.339041
 20
-7.584285
  0
VERTEX
  8
0
  6
CONTINUOUS
 10
3.345154
 20
-6.829371
  0
VERTEX
  8
0
  6
CONTINUOUS
 10
3.387943
 20
-6.806448
  0
VERTEX
  8
0
  6
CONTINUOUS
 10
3.381830
 20
-7.561362
  0
VERTEX
  8
0
  6
CONTINUOUS
 10
3.339041
 20
-7.584285
  0
SEQEND
  8
0
  0
SOLID
  8
0
 62
    15
 10
3.381830
 20
-7.561362
 11
3.387943
 21
-6.806448
 12
3.427675
 22
-7.547609
 13
3.433788
 23
-6.792695
  0
POLYLINE
  8
0
  6
CONTINUOUS
 66
     1
 40
0.000000
 41
0.000000
  0
VERTEX
  8
0
  6
CONTINUOUS
 10
3.381830
 20
-7.561362
  0
VERTEX
  8
0
  6
CONTINUOUS
 10
3.387943
 20
-6.806448
  0
VERTEX
  8
0
  6
CONTINUOUS
 10
3.433788
 20
-6.792695
  0
VERTEX
  8
0
  6
CONTINUOUS
 10
3.427675
 20
-7.547609
  0
VERTEX
  8
0
  6
CONTINUOUS
 10
3.381830
 20
-7.561362
  0
SEQEND
  8
0
  0
SOLID
  8
0
 62
    15
 10
3.427675
 20
-7.547609
 11
3.433788
 21
-6.792695
 12
3.478104
 22
-7.541496
 13
3.482689
 23
-6.788111
  0
POLYLINE
  8
0
  6
CONTINUOUS
 66
     1
 40
0.000000
 41
0.000000
  0
VERTEX
  8
0
  6
CONTINUOUS
 10
3.427675
 20
-7.547609
  0
VERTEX
  8
0
  6
CONTINUOUS
 10
3.433788
 20
-6.792695
  0
VERTEX
  8
0
  6
CONTINUOUS
 10
3.482689
 20
-6.788111
  0
VERTEX
  8
0
  6
CONTINUOUS
 10
3.478104
 20
-7.541496
  0
VERTEX
  8
0
  6
CONTINUOUS
 10
3.427675
 20
-7.547609
  0
SEQEND
  8
0
  0
SOLID
  8
0
 62
    15
 10
3.478104
 20
-7.541496
 11
3.482689
 21
-6.788111
 12
3.527006
 22
-7.547609
 13
3.533118
 23
-6.792695
  0
POLYLINE
  8
0
  6
CONTINUOUS
 66
     1
 40
0.000000
 41
0.000000
  0
VERTEX
  8
0
  6
CONTINUOUS
 10
3.478104
 20
-7.541496
  0
VERTEX
  8
0
  6
CONTINUOUS
 10
3.482689
 20
-6.788111
  0
VERTEX
  8
0
  6
CONTINUOUS
 10
3.533118
 20
-6.792695
  0
VERTEX
  8
0
  6
CONTINUOUS
 10
3.527006
 20
-7.547609
  0
VERTEX
  8
0
  6
CONTINUOUS
 10
3.478104
 20
-7.541496
  0
SEQEND
  8
0
  0
SOLID
  8
0
 62
    15
 10
3.527006
 20
-7.547609
 11
3.533118
 21
-6.792695
 12
3.574379
 22
-7.561362
 13
3.578963
 23
-6.807977
  0
POLYLINE
  8
0
  6
CONTINUOUS
 66
     1
 40
0.000000
 41
0.000000
  0
VERTEX
  8
0
  6
CONTINUOUS
 10
3.527006
 20
-7.547609
  0
VERTEX
  8
0
  6
CONTINUOUS
 10
3.533118
 20
-6.792695
  0
VERTEX
  8
0
  6
CONTINUOUS
 10
3.578963
 20
-6.807977
  0
VERTEX
  8
0
  6
CONTINUOUS
 10
3.574379
 20
-7.561362
  0
VERTEX
  8
0
  6
CONTINUOUS
 10
3.527006
 20
-7.547609
  0
SEQEND
  8
0
  0
SOLID
  8
0
 62
    15
 10
3.574379
 20
-7.561362
 11
3.578963
 21
-6.807977
 12
3.615639
 22
-7.584285
 13
3.621752
 23
-6.830899
  0
POLYLINE
  8
0
  6
CONTINUOUS
 66
     1
 40
0.000000
 41
0.000000
  0
VERTEX
  8
0
  6
CONTINUOUS
 10
3.574379
 20
-7.561362
  0
VERTEX
  8
0
  6
CONTINUOUS
 10
3.578963
 20
-6.807977
  0
VERTEX
  8
0
  6
CONTINUOUS
 10
3.621752
 20
-6.830899
  0
VERTEX
  8
0
  6
CONTINUOUS
 10
3.615639
 20
-7.584285
  0
VERTEX
  8
0
  6
CONTINUOUS
 10
3.574379
 20
-7.561362
  0
SEQEND
  8
0
  0
SOLID
  8
0
 62
    15
 10
3.615639
 20
-7.584285
 11
3.621752
 21
-6.830899
 12
3.652315
 22
-7.614848
 13
3.658428
 23
-6.861462
  0
POLYLINE
  8
0
  6
CONTINUOUS
 66
     1
 40
0.000000
 41
0.000000
  0
VERTEX
  8
0
  6
CONTINUOUS
 10
3.615639
 20
-7.584285
  0
VERTEX
  8
0
  6
CONTINUOUS
 10
3.621752
 20
-6.830899
  0
VERTEX
  8
0
  6
CONTINUOUS
 10
3.658428
 20
-6.861462
  0
VERTEX
  8
0
  6
CONTINUOUS
 10
3.652315
 20
-7.614848
  0
VERTEX
  8
0
  6
CONTINUOUS
 10
3.615639
 20
-7.584285
  0
SEQEND
  8
0
  0
SOLID
  8
0
 62
    15
 10
3.652315
 20
-7.614848
 11
3.658428
 21
-6.861462
 12
3.682879
 22
-7.653052
 13
3.688991
 23
-6.898138
  0
POLYLINE
  8
0
  6
CONTINUOUS
 66
     1
 40
0.000000
 41
0.000000
  0
VERTEX
  8
0
  6
CONTINUOUS
 10
3.652315
 20
-7.614848
  0
VERTEX
  8
0
  6
CONTINUOUS
 10
3.658428
 20
-6.861462
  0
VERTEX
  8
0
  6
CONTINUOUS
 10
3.688991
 20
-6.898138
  0
VERTEX
  8
0
  6
CONTINUOUS
 10
3.682879
 20
-7.653052
  0
VERTEX
  8
0
  6
CONTINUOUS
 10
3.652315
 20
-7.614848
  0
SEQEND
  8
0
  0
SOLID
  8
0
 62
    15
 10
3.682879
 20
-7.653052
 11
3.688991
 21
-6.898138
 12
3.705801
 22
-7.694313
 13
3.711914
 23
-6.940927
  0
POLYLINE
  8
0
  6
CONTINUOUS
 66
     1
 40
0.000000
 41
0.000000
  0
VERTEX
  8
0
  6
CONTINUOUS
 10
3.682879
 20
-7.653052
  0
VERTEX
  8
0
  6
CONTINUOUS
 10
3.688991
 20
-6.898138
  0
VERTEX
  8
0
  6
CONTINUOUS
 10
3.711914
 20
-6.940927
  0
VERTEX
  8
0
  6
CONTINUOUS
 10
3.705801
 20
-7.694313
  0
VERTEX
  8
0
  6
CONTINUOUS
 10
3.682879
 20
-7.653052
  0
SEQEND
  8
0
  0
SOLID
  8
0
 62
    15
 10
3.705801
 20
-7.694313
 11
3.711914
 21
-6.940927
 12
3.721083
 22
-7.741686
 13
3.725667
 23
-6.988300
  0
POLYLINE
  8
0
  6
CONTINUOUS
 66
     1
 40
0.000000
 41
0.000000
  0
VERTEX
  8
0
  6
CONTINUOUS
 10
3.705801
 20
-7.694313
  0
VERTEX
  8
0
  6
CONTINUOUS
 10
3.711914
 20
-6.940927
  0
VERTEX
  8
0
  6
CONTINUOUS
 10
3.725667
 20
-6.988300
  0
VERTEX
  8
0
  6
CONTINUOUS
 10
3.721083
 20
-7.741686
  0
VERTEX
  8
0
  6
CONTINUOUS
 10
3.705801
 20
-7.694313
  0
SEQEND
  8
0
  0
SOLID
  8
0
 62
    15
 10
3.725667
 20
-7.821150
 11
3.731780
 21
-7.067765
 12
3.800547
 22
-7.813509
 13
3.805132
 23
-7.060124
  0
POLYLINE
  8
0
  6
CONTINUOUS
 66
     1
 40
0.000000
 41
0.000000
  0
VERTEX
  8
0
  6
CONTINUOUS
 10
3.725667
 20
-7.821150
  0
VERTEX
  8
0
  6
CONTINUOUS
 10
3.731780
 20
-7.067765
  0
VERTEX
  8
0
  6
CONTINUOUS
 10
3.805132
 20
-7.060124
  0
VERTEX
  8
0
  6
CONTINUOUS
 10
3.800547
 20
-7.813509
  0
VERTEX
  8
0
  6
CONTINUOUS
 10
3.725667
 20
-7.821150
  0
SEQEND
  8
0
  0
SOLID
  8
0
 62
    15
 10
3.725667
 20
-7.792115
 11
3.731780
 21
-7.038730
 12
3.725667
 22
-7.821150
 13
3.731780
 23
-7.067765
  0
POLYLINE
  8
0
  6
CONTINUOUS
 66
     1
 40
0.000000
 41
0.000000
  0
VERTEX
  8
0
  6
CONTINUOUS
 10
3.725667
 20
-7.792115
  0
VERTEX
  8
0
  6
CONTINUOUS
 10
3.731780
 20
-7.038730
  0
VERTEX
  8
0
  6
CONTINUOUS
 10
3.731780
 20
-7.067765
  0
VERTEX
  8
0
  6
CONTINUOUS
 10
3.725667
 20
-7.821150
  0
VERTEX
  8
0
  6
CONTINUOUS
 10
3.725667
 20
-7.792115
  0
SEQEND
  8
0
  0
SOLID
  8
0
 62
    15
 10
3.721083
 20
-7.741686
 11
3.725667
 21
-6.988300
 12
3.725667
 22
-7.792115
 13
3.731780
 23
-7.038730
  0
POLYLINE
  8
0
  6
CONTINUOUS
 66
     1
 40
0.000000
 41
0.000000
  0
VERTEX
  8
0
  6
CONTINUOUS
 10
3.721083
 20
-7.741686
  0
VERTEX
  8
0
  6
CONTINUOUS
 10
3.725667
 20
-6.988300
  0
VERTEX
  8
0
  6
CONTINUOUS
 10
3.731780
 20
-7.038730
  0
VERTEX
  8
0
  6
CONTINUOUS
 10
3.725667
 20
-7.792115
  0
VERTEX
  8
0
  6
CONTINUOUS
 10
3.721083
 20
-7.741686
  0
SEQEND
  8
0
  0
SOLID
  8
0
 62
    15
 10
3.800547
 20
-7.813509
 11
3.805132
 21
-7.060124
 12
3.873899
 22
-7.798228
 13
3.880012
 23
-7.044842
  0
POLYLINE
  8
0
  6
CONTINUOUS
 66
     1
 40
0.000000
 41
0.000000
  0
VERTEX
  8
0
  6
CONTINUOUS
 10
3.800547
 20
-7.813509
  0
VERTEX
  8
0
  6
CONTINUOUS
 10
3.805132
 20
-7.060124
  0
VERTEX
  8
0
  6
CONTINUOUS
 10
3.880012
 20
-7.044842
  0
VERTEX
  8
0
  6
CONTINUOUS
 10
3.873899
 20
-7.798228
  0
VERTEX
  8
0
  6
CONTINUOUS
 10
3.800547
 20
-7.813509
  0
SEQEND
  8
0
  0
SOLID
  8
0
 62
    15
 10
3.873899
 20
-7.798228
 11
3.880012
 21
-7.044842
 12
3.947251
 22
-7.775305
 13
3.953364
 23
-7.020392
  0
POLYLINE
  8
0
  6
CONTINUOUS
 66
     1
 40
0.000000
 41
0.000000
  0
VERTEX
  8
0
  6
CONTINUOUS
 10
3.873899
 20
-7.798228
  0
VERTEX
  8
0
  6
CONTINUOUS
 10
3.880012
 20
-7.044842
  0
VERTEX
  8
0
  6
CONTINUOUS
 10
3.953364
 20
-7.020392
  0
VERTEX
  8
0
  6
CONTINUOUS
 10
3.947251
 20
-7.775305
  0
VERTEX
  8
0
  6
CONTINUOUS
 10
3.873899
 20
-7.798228
  0
SEQEND
  8
0
  0
SOLID
  8
0
 62
    15
 10
3.947251
 20
-7.775305
 11
3.953364
 21
-7.020392
 12
4.019075
 22
-7.743214
 13
4.023659
 23
-6.989828
  0
POLYLINE
  8
0
  6
CONTINUOUS
 66
     1
 40
0.000000
 41
0.000000
  0
VERTEX
  8
0
  6
CONTINUOUS
 10
3.947251
 20
-7.775305
  0
VERTEX
  8
0
  6
CONTINUOUS
 10
3.953364
 20
-7.020392
  0
VERTEX
  8
0
  6
CONTINUOUS
 10
4.023659
 20
-6.989828
  0
VERTEX
  8
0
  6
CONTINUOUS
 10
4.019075
 20
-7.743214
  0
VERTEX
  8
0
  6
CONTINUOUS
 10
3.947251
 20
-7.775305
  0
SEQEND
  8
0
  0
SOLID
  8
0
 62
    15
 10
4.019075
 20
-7.743214
 11
4.023659
 21
-6.989828
 12
4.086314
 22
-7.703482
 13
4.090899
 23
-6.950096
  0
POLYLINE
  8
0
  6
CONTINUOUS
 66
     1
 40
0.000000
 41
0.000000
  0
VERTEX
  8
0
  6
CONTINUOUS
 10
4.019075
 20
-7.743214
  0
VERTEX
  8
0
  6
CONTINUOUS
 10
4.023659
 20
-6.989828
  0
VERTEX
  8
0
  6
CONTINUOUS
 10
4.090899
 20
-6.950096
  0
VERTEX
  8
0
  6
CONTINUOUS
 10
4.086314
 20
-7.703482
  0
VERTEX
  8
0
  6
CONTINUOUS
 10
4.019075
 20
-7.743214
  0
SEQEND
  8
0
  0
SOLID
  8
0
 62
    15
 10
4.086314
 20
-7.703482
 11
4.090899
 21
-6.950096
 12
4.148969
 22
-7.656108
 13
4.155082
 23
-6.902723
  0
POLYLINE
  8
0
  6
CONTINUOUS
 66
     1
 40
0.000000
 41
0.000000
  0
VERTEX
  8
0
  6
CONTINUOUS
 10
4.086314
 20
-7.703482
  0
VERTEX
  8
0
  6
CONTINUOUS
 10
4.090899
 20
-6.950096
  0
VERTEX
  8
0
  6
CONTINUOUS
 10
4.155082
 20
-6.902723
  0
VERTEX
  8
0
  6
CONTINUOUS
 10
4.148969
 20
-7.656108
  0
VERTEX
  8
0
  6
CONTINUOUS
 10
4.086314
 20
-7.703482
  0
SEQEND
  8
0
  0
SOLID
  8
0
 62
    15
 10
4.148969
 20
-7.656108
 11
4.155082
 21
-6.902723
 12
4.207039
 22
-7.601094
 13
4.211624
 23
-6.847709
  0
POLYLINE
  8
0
  6
CONTINUOUS
 66
     1
 40
0.000000
 41
0.000000
  0
VERTEX
  8
0
  6
CONTINUOUS
 10
4.148969
 20
-7.656108
  0
VERTEX
  8
0
  6
CONTINUOUS
 10
4.155082
 20
-6.902723
  0
VERTEX
  8
0
  6
CONTINUOUS
 10
4.211624
 20
-6.847709
  0
VERTEX
  8
0
  6
CONTINUOUS
 10
4.207039
 20
-7.601094
  0
VERTEX
  8
0
  6
CONTINUOUS
 10
4.148969
 20
-7.656108
  0
SEQEND
  8
0
  0
SOLID
  8
0
 62
    15
 10
4.207039
 20
-7.601094
 11
4.211624
 21
-6.847709
 12
4.257469
 22
-7.538440
 13
4.262053
 23
-6.783526
  0
POLYLINE
  8
0
  6
CONTINUOUS
 66
     1
 40
0.000000
 41
0.000000
  0
VERTEX
  8
0
  6
CONTINUOUS
 10
4.207039
 20
-7.601094
  0
VERTEX
  8
0
  6
CONTINUOUS
 10
4.211624
 20
-6.847709
  0
VERTEX
  8
0
  6
CONTINUOUS
 10
4.262053
 20
-6.783526
  0
VERTEX
  8
0
  6
CONTINUOUS
 10
4.257469
 20
-7.538440
  0
VERTEX
  8
0
  6
CONTINUOUS
 10
4.207039
 20
-7.601094
  0
SEQEND
  8
0
  0
SOLID
  8
0
 62
    15
 10
4.257469
 20
-7.538440
 11
4.262053
 21
-6.783526
 12
4.260525
 22
-7.535383
 13
4.266638
 23
-6.781998
  0
POLYLINE
  8
0
  6
CONTINUOUS
 66
     1
 40
0.000000
 41
0.000000
  0
VERTEX
  8
0
  6
CONTINUOUS
 10
4.257469
 20
-7.538440
  0
VERTEX
  8
0
  6
CONTINUOUS
 10
4.262053
 20
-6.783526
  0
VERTEX
  8
0
  6
CONTINUOUS
 10
4.266638
 20
-6.781998
  0
VERTEX
  8
0
  6
CONTINUOUS
 10
4.260525
 20
-7.535383
  0
VERTEX
  8
0
  6
CONTINUOUS
 10
4.257469
 20
-7.538440
  0
SEQEND
  8
0
  0
SOLID
  8
0
 62
    15
 10
4.260525
 20
-7.535383
 11
4.266638
 21
-6.781998
 12
4.694524
 22
-7.779890
 13
4.699108
 23
-7.024976
  0
POLYLINE
  8
0
  6
CONTINUOUS
 66
     1
 40
0.000000
 41
0.000000
  0
VERTEX
  8
0
  6
CONTINUOUS
 10
4.260525
 20
-7.535383
  0
VERTEX
  8
0
  6
CONTINUOUS
 10
4.266638
 20
-6.781998
  0
VERTEX
  8
0
  6
CONTINUOUS
 10
4.699108
 20
-7.024976
  0
VERTEX
  8
0
  6
CONTINUOUS
 10
4.694524
 20
-7.779890
  0
VERTEX
  8
0
  6
CONTINUOUS
 10
4.260525
 20
-7.535383
  0
SEQEND
  8
0
  0
SOLID
  8
0
 62
    15
 10
5.052115
 20
-7.850185
 11
5.058227
 21
-7.096800
 12
5.052115
 22
-8.062600
 13
5.058227
 23
-7.309215
  0
POLYLINE
  8
0
  6
CONTINUOUS
 66
     1
 40
0.000000
 41
0.000000
  0
VERTEX
  8
0
  6
CONTINUOUS
 10
5.052115
 20
-7.850185
  0
VERTEX
  8
0
  6
CONTINUOUS
 10
5.058227
 20
-7.096800
  0
VERTEX
  8
0
  6
CONTINUOUS
 10
5.058227
 20
-7.309215
  0
VERTEX
  8
0
  6
CONTINUOUS
 10
5.052115
 20
-8.062600
  0
VERTEX
  8
0
  6
CONTINUOUS
 10
5.052115
 20
-7.850185
  0
SEQEND
  8
0
  0
SOLID
  8
0
 62
    15
 10
4.696052
 20
-7.850185
 11
4.702165
 21
-7.096800
 12
5.052115
 22
-7.850185
 13
5.058227
 23
-7.096800
  0
POLYLINE
  8
0
  6
CONTINUOUS
 66
     1
 40
0.000000
 41
0.000000
  0
VERTEX
  8
0
  6
CONTINUOUS
 10
4.696052
 20
-7.850185
  0
VERTEX
  8
0
  6
CONTINUOUS
 10
4.702165
 20
-7.096800
  0
VERTEX
  8
0
  6
CONTINUOUS
 10
5.058227
 20
-7.096800
  0
VERTEX
  8
0
  6
CONTINUOUS
 10
5.052115
 20
-7.850185
  0
VERTEX
  8
0
  6
CONTINUOUS
 10
4.696052
 20
-7.850185
  0
SEQEND
  8
0
  0
SOLID
  8
0
 62
    15
 10
4.696052
 20
-7.781418
 11
4.702165
 21
-7.028032
 12
4.696052
 22
-7.850185
 13
4.702165
 23
-7.096800
  0
POLYLINE
  8
0
  6
CONTINUOUS
 66
     1
 40
0.000000
 41
0.000000
  0
VERTEX
  8
0
  6
CONTINUOUS
 10
4.696052
 20
-7.781418
  0
VERTEX
  8
0
  6
CONTINUOUS
 10
4.702165
 20
-7.028032
  0
VERTEX
  8
0
  6
CONTINUOUS
 10
4.702165
 20
-7.096800
  0
VERTEX
  8
0
  6
CONTINUOUS
 10
4.696052
 20
-7.850185
  0
VERTEX
  8
0
  6
CONTINUOUS
 10
4.696052
 20
-7.781418
  0
SEQEND
  8
0
  0
SOLID
  8
0
 62
    15
 10
4.694524
 20
-7.779890
 11
4.699108
 21
-7.024976
 12
4.696052
 22
-7.781418
 13
4.702165
 23
-7.028032
  0
POLYLINE
  8
0
  6
CONTINUOUS
 66
     1
 40
0.000000
 41
0.000000
  0
VERTEX
  8
0
  6
CONTINUOUS
 10
4.694524
 20
-7.779890
  0
VERTEX
  8
0
  6
CONTINUOUS
 10
4.699108
 20
-7.024976
  0
VERTEX
  8
0
  6
CONTINUOUS
 10
4.702165
 20
-7.028032
  0
VERTEX
  8
0
  6
CONTINUOUS
 10
4.696052
 20
-7.781418
  0
VERTEX
  8
0
  6
CONTINUOUS
 10
4.694524
 20
-7.779890
  0
SEQEND
  8
0
  0
SOLID
  8
0
 62
    15
 10
4.696052
 20
-8.062600
 11
4.702165
 21
-7.309215
 12
4.696052
 22
-8.297938
 13
4.702165
 23
-7.543024
  0
POLYLINE
  8
0
  6
CONTINUOUS
 66
     1
 40
0.000000
 41
0.000000
  0
VERTEX
  8
0
  6
CONTINUOUS
 10
4.696052
 20
-8.062600
  0
VERTEX
  8
0
  6
CONTINUOUS
 10
4.702165
 20
-7.309215
  0
VERTEX
  8
0
  6
CONTINUOUS
 10
4.702165
 20
-7.543024
  0
VERTEX
  8
0
  6
CONTINUOUS
 10
4.696052
 20
-8.297938
  0
VERTEX
  8
0
  6
CONTINUOUS
 10
4.696052
 20
-8.062600
  0
SEQEND
  8
0
  0
POLYLINE
  8
0
  6
CONTINUOUS
 66
     1
 40
0.000000
 41
0.000000
  0
VERTEX
  8
0
  6
CONTINUOUS
 10
4.694524
 20
-8.297938
  0
VERTEX
  8
0
  6
CONTINUOUS
 10
1.609158
 20
-8.297938
  0
VERTEX
  8
0
  6
CONTINUOUS
 10
1.609158
 20
-8.061072
  0
VERTEX
  8
0
  6
CONTINUOUS
 10
1.253096
 20
-8.061072
  0
VERTEX
  8
0
  6
CONTINUOUS
 10
1.253096
 20
-7.848657
  0
VERTEX
  8
0
  6
CONTINUOUS
 10
1.609158
 20
-7.848657
  0
VERTEX
  8
0
  6
CONTINUOUS
 10
1.610686
 20
-7.776833
  0
VERTEX
  8
0
  6
CONTINUOUS
 10
2.044685
 20
-7.533855
  0
VERTEX
  8
0
  6
CONTINUOUS
 10
2.099699
 20
-7.598038
  0
VERTEX
  8
0
  6
CONTINUOUS
 10
2.156241
 20
-7.653052
  0
VERTEX
  8
0
  6
CONTINUOUS
 10
2.218896
 20
-7.700425
  0
VERTEX
  8
0
  6
CONTINUOUS
 10
2.286135
 20
-7.740158
  0
VERTEX
  8
0
  6
CONTINUOUS
 10
2.357959
 20
-7.772249
  0
VERTEX
  8
0
  6
CONTINUOUS
 10
2.431311
 20
-7.795171
  0
VERTEX
  8
0
  6
CONTINUOUS
 10
2.504663
 20
-7.810453
  0
VERTEX
  8
0
  6
CONTINUOUS
 10
2.579543
 20
-7.819622
  0
VERTEX
  8
0
  6
CONTINUOUS
 10
2.579543
 20
-7.787531
  0
VERTEX
  8
0
  6
CONTINUOUS
 10
2.585656
 20
-7.738629
  0
VERTEX
  8
0
  6
CONTINUOUS
 10
2.599409
 20
-7.691256
  0
VERTEX
  8
0
  6
CONTINUOUS
 10
2.622332
 20
-7.649996
  0
VERTEX
  8
0
  6
CONTINUOUS
 10
2.652895
 20
-7.613320
  0
VERTEX
  8
0
  6
CONTINUOUS
 10
2.689571
 20
-7.582756
  0
VERTEX
  8
0
  6
CONTINUOUS
 10
2.732360
 20
-7.559834
  0
VERTEX
  8
0
  6
CONTINUOUS
 10
2.778205
 20
-7.544552
  0
VERTEX
  8
0
  6
CONTINUOUS
 10
2.827106
 20
-7.539968
  0
VERTEX
  8
0
  6
CONTINUOUS
 10
2.877535
 20
-7.544552
  0
VERTEX
  8
0
  6
CONTINUOUS
 10
2.923380
 20
-7.558306
  0
VERTEX
  8
0
  6
CONTINUOUS
 10
2.966169
 20
-7.581228
  0
VERTEX
  8
0
  6
CONTINUOUS
 10
3.002845
 20
-7.611792
  0
VERTEX
  8
0
  6
CONTINUOUS
 10
3.033408
 20
-7.646939
  0
VERTEX
  8
0
  6
CONTINUOUS
 10
3.056331
 20
-7.688200
  0
VERTEX
  8
0
  6
CONTINUOUS
 10
3.070084
 20
-7.734045
  0
VERTEX
  8
0
  6
CONTINUOUS
 10
3.076197
 20
-7.782946
  0
VERTEX
  8
0
  6
CONTINUOUS
 10
3.076197
 20
-7.825735
  0
VERTEX
  8
0
  6
CONTINUOUS
 10
3.230542
 20
-7.825735
  0
VERTEX
  8
0
  6
CONTINUOUS
 10
3.235126
 20
-7.737101
  0
VERTEX
  8
0
  6
CONTINUOUS
 10
3.248880
 20
-7.691256
  0
VERTEX
  8
0
  6
CONTINUOUS
 10
3.273330
 20
-7.649996
  0
VERTEX
  8
0
  6
CONTINUOUS
 10
3.302365
 20
-7.613320
  0
VERTEX
  8
0
  6
CONTINUOUS
 10
3.339041
 20
-7.584285
  0
VERTEX
  8
0
  6
CONTINUOUS
 10
3.381830
 20
-7.561362
  0
VERTEX
  8
0
  6
CONTINUOUS
 10
3.427675
 20
-7.547609
  0
VERTEX
  8
0
  6
CONTINUOUS
 10
3.478104
 20
-7.541496
  0
VERTEX
  8
0
  6
CONTINUOUS
 10
3.527006
 20
-7.547609
  0
VERTEX
  8
0
  6
CONTINUOUS
 10
3.574379
 20
-7.561362
  0
VERTEX
  8
0
  6
CONTINUOUS
 10
3.615639
 20
-7.584285
  0
VERTEX
  8
0
  6
CONTINUOUS
 10
3.652315
 20
-7.614848
  0
VERTEX
  8
0
  6
CONTINUOUS
 10
3.682879
 20
-7.653052
  0
VERTEX
  8
0
  6
CONTINUOUS
 10
3.705801
 20
-7.694313
  0
VERTEX
  8
0
  6
CONTINUOUS
 10
3.721083
 20
-7.741686
  0
VERTEX
  8
0
  6
CONTINUOUS
 10
3.725667
 20
-7.821150
  0
VERTEX
  8
0
  6
CONTINUOUS
 10
3.800547
 20
-7.813509
  0
VERTEX
  8
0
  6
CONTINUOUS
 10
3.873899
 20
-7.798228
  0
VERTEX
  8
0
  6
CONTINUOUS
 10
3.947251
 20
-7.775305
  0
VERTEX
  8
0
  6
CONTINUOUS
 10
4.019075
 20
-7.743214
  0
VERTEX
  8
0
  6
CONTINUOUS
 10
4.086314
 20
-7.703482
  0
VERTEX
  8
0
  6
CONTINUOUS
 10
4.148969
 20
-7.656108
  0
VERTEX
  8
0
  6
CONTINUOUS
 10
4.207039
 20
-7.601094
  0
VERTEX
  8
0
  6
CONTINUOUS
 10
4.260525
 20
-7.535383
  0
VERTEX
  8
0
  6
CONTINUOUS
 10
4.696052
 20
-7.781418
  0
VERTEX
  8
0
  6
CONTINUOUS
 10
4.696052
 20
-7.850185
  0
VERTEX
  8
0
  6
CONTINUOUS
 10
5.052115
 20
-7.850185
  0
VERTEX
  8
0
  6
CONTINUOUS
 10
5.052115
 20
-8.062600
  0
VERTEX
  8
0
  6
CONTINUOUS
 10
4.696052
 20
-8.062600
  0
VERTEX
  8
0
  6
CONTINUOUS
 10
4.694524
 20
-8.297938
  0
SEQEND
  8
0
  0
SOLID
  8
0
 62
    15
 10
7.335194
 20
-8.058016
 11
7.339778
 21
-7.316856
 12
7.335194
 22
-8.293353
 13
7.339778
 23
-7.552193
  0
POLYLINE
  8
0
  6
CONTINUOUS
 66
     1
 40
0.000000
 41
0.000000
  0
VERTEX
  8
0
  6
CONTINUOUS
 10
7.335194
 20
-8.058016
  0
VERTEX
  8
0
  6
CONTINUOUS
 10
7.339778
 20
-7.316856
  0
VERTEX
  8
0
  6
CONTINUOUS
 10
7.339778
 20
-7.552193
  0
VERTEX
  8
0
  6
CONTINUOUS
 10
7.335194
 20
-8.293353
  0
VERTEX
  8
0
  6
CONTINUOUS
 10
7.335194
 20
-8.058016
  0
SEQEND
  8
0
  0
SOLID
  8
0
 62
    15
 10
6.976075
 20
-8.058016
 11
6.980659
 21
-7.316856
 12
7.335194
 22
-8.058016
 13
7.339778
 23
-7.316856
  0
POLYLINE
  8
0
  6
CONTINUOUS
 66
     1
 40
0.000000
 41
0.000000
  0
VERTEX
  8
0
  6
CONTINUOUS
 10
6.976075
 20
-8.058016
  0
VERTEX
  8
0
  6
CONTINUOUS
 10
6.980659
 20
-7.316856
  0
VERTEX
  8
0
  6
CONTINUOUS
 10
7.339778
 20
-7.316856
  0
VERTEX
  8
0
  6
CONTINUOUS
 10
7.335194
 20
-8.058016
  0
VERTEX
  8
0
  6
CONTINUOUS
 10
6.976075
 20
-8.058016
  0
SEQEND
  8
0
  0
SOLID
  8
0
 62
    15
 10
7.332137
 20
-7.521630
 11
7.336722
 21
-6.780470
 12
7.332137
 22
-7.847129
 13
7.336722
 23
-7.105969
  0
POLYLINE
  8
0
  6
CONTINUOUS
 66
     1
 40
0.000000
 41
0.000000
  0
VERTEX
  8
0
  6
CONTINUOUS
 10
7.332137
 20
-7.521630
  0
VERTEX
  8
0
  6
CONTINUOUS
 10
7.336722
 20
-6.780470
  0
VERTEX
  8
0
  6
CONTINUOUS
 10
7.336722
 20
-7.105969
  0
VERTEX
  8
0
  6
CONTINUOUS
 10
7.332137
 20
-7.847129
  0
VERTEX
  8
0
  6
CONTINUOUS
 10
7.332137
 20
-7.521630
  0
SEQEND
  8
0
  0
SOLID
  8
0
 62
    15
 10
6.976075
 20
-7.847129
 11
6.980659
 21
-7.105969
 12
6.976075
 22
-8.058016
 13
6.980659
 23
-7.316856
  0
POLYLINE
  8
0
  6
CONTINUOUS
 66
     1
 40
0.000000
 41
0.000000
  0
VERTEX
  8
0
  6
CONTINUOUS
 10
6.976075
 20
-7.847129
  0
VERTEX
  8
0
  6
CONTINUOUS
 10
6.980659
 20
-7.105969
  0
VERTEX
  8
0
  6
CONTINUOUS
 10
6.980659
 20
-7.316856
  0
VERTEX
  8
0
  6
CONTINUOUS
 10
6.976075
 20
-8.058016
  0
VERTEX
  8
0
  6
CONTINUOUS
 10
6.976075
 20
-7.847129
  0
SEQEND
  8
0
  0
SOLID
  8
0
 62
    15
 10
4.700637
 20
-8.058016
 11
4.703693
 21
-7.316856
 12
5.053643
 22
-8.058016
 13
5.056699
 23
-7.316856
  0
POLYLINE
  8
0
  6
CONTINUOUS
 66
     1
 40
0.000000
 41
0.000000
  0
VERTEX
  8
0
  6
CONTINUOUS
 10
4.700637
 20
-8.058016
  0
VERTEX
  8
0
  6
CONTINUOUS
 10
4.703693
 20
-7.316856
  0
VERTEX
  8
0
  6
CONTINUOUS
 10
5.056699
 20
-7.316856
  0
VERTEX
  8
0
  6
CONTINUOUS
 10
5.053643
 20
-8.058016
  0
VERTEX
  8
0
  6
CONTINUOUS
 10
4.700637
 20
-8.058016
  0
SEQEND
  8
0
  0
SOLID
  8
0
 62
    15
 10
4.700637
 20
-7.521630
 11
4.703693
 21
-6.780470
 12
7.332137
 22
-7.521630
 13
7.336722
 23
-6.780470
  0
POLYLINE
  8
0
  6
CONTINUOUS
 66
     1
 40
0.000000
 41
0.000000
  0
VERTEX
  8
0
  6
CONTINUOUS
 10
4.700637
 20
-7.521630
  0
VERTEX
  8
0
  6
CONTINUOUS
 10
4.703693
 20
-6.780470
  0
VERTEX
  8
0
  6
CONTINUOUS
 10
7.336722
 20
-6.780470
  0
VERTEX
  8
0
  6
CONTINUOUS
 10
7.332137
 20
-7.521630
  0
VERTEX
  8
0
  6
CONTINUOUS
 10
4.700637
 20
-7.521630
  0
SEQEND
  8
0
  0
POLYLINE
  8
0
  6
CONTINUOUS
 66
     1
 40
0.000000
 41
0.000000
  0
VERTEX
  8
0
  6
CONTINUOUS
 10
7.324497
 20
-8.293353
  0
VERTEX
  8
0
  6
CONTINUOUS
 10
4.700637
 20
-8.293353
  0
VERTEX
  8
0
  6
CONTINUOUS
 10
4.700637
 20
-8.058016
  0
VERTEX
  8
0
  6
CONTINUOUS
 10
5.053643
 20
-8.058016
  0
VERTEX
  8
0
  6
CONTINUOUS
 10
5.053643
 20
-7.845601
  0
VERTEX
  8
0
  6
CONTINUOUS
 10
4.700637
 20
-7.845601
  0
VERTEX
  8
0
  6
CONTINUOUS
 10
4.700637
 20
-7.521630
  0
VERTEX
  8
0
  6
CONTINUOUS
 10
7.332137
 20
-7.521630
  0
VERTEX
  8
0
  6
CONTINUOUS
 10
7.332137
 20
-7.847129
  0
VERTEX
  8
0
  6
CONTINUOUS
 10
6.976075
 20
-7.847129
  0
VERTEX
  8
0
  6
CONTINUOUS
 10
6.976075
 20
-8.058016
  0
VERTEX
  8
0
  6
CONTINUOUS
 10
7.335194
 20
-8.058016
  0
VERTEX
  8
0
  6
CONTINUOUS
 10
7.335194
 20
-8.293353
  0
VERTEX
  8
0
  6
CONTINUOUS
 10
7.324497
 20
-8.293353
  0
SEQEND
  8
0
  0
POLYLINE
  8
0
  6
CONTINUOUS
 66
     1
 40
0.000000
 41
0.000000
  0
VERTEX
  8
0
  6
CONTINUOUS
 10
4.697580
 20
-8.297938
  0
VERTEX
  8
0
  6
CONTINUOUS
 10
1.612214
 20
-8.297938
  0
VERTEX
  8
0
  6
CONTINUOUS
 10
1.612214
 20
-8.061072
  0
VERTEX
  8
0
  6
CONTINUOUS
 10
1.256152
 20
-8.061072
  0
VERTEX
  8
0
  6
CONTINUOUS
 10
1.257680
 20
-7.848657
  0
VERTEX
  8
0
  6
CONTINUOUS
 10
1.612214
 20
-7.848657
  0
VERTEX
  8
0
  6
CONTINUOUS
 10
1.613743
 20
-7.776833
  0
VERTEX
  8
0
  6
CONTINUOUS
 10
2.050798
 20
-7.535383
  0
VERTEX
  8
0
  6
CONTINUOUS
 10
2.128734
 20
-7.627073
  0
VERTEX
  8
0
  6
CONTINUOUS
 10
2.221952
 20
-7.700425
  0
VERTEX
  8
0
  6
CONTINUOUS
 10
2.289192
 20
-7.740158
  0
VERTEX
  8
0
  6
CONTINUOUS
 10
2.359487
 20
-7.772249
  0
VERTEX
  8
0
  6
CONTINUOUS
 10
2.432839
 20
-7.795171
  0
VERTEX
  8
0
  6
CONTINUOUS
 10
2.507719
 20
-7.811981
  0
VERTEX
  8
0
  6
CONTINUOUS
 10
2.582599
 20
-7.819622
  0
VERTEX
  8
0
  6
CONTINUOUS
 10
2.587184
 20
-7.738629
  0
VERTEX
  8
0
  6
CONTINUOUS
 10
2.613163
 20
-7.669862
  0
VERTEX
  8
0
  6
CONTINUOUS
 10
2.655951
 20
-7.613320
  0
VERTEX
  8
0
  6
CONTINUOUS
 10
2.712494
 20
-7.570531
  0
VERTEX
  8
0
  6
CONTINUOUS
 10
2.781261
 20
-7.544552
  0
VERTEX
  8
0
  6
CONTINUOUS
 10
2.830162
 20
-7.539968
  0
VERTEX
  8
0
  6
CONTINUOUS
 10
2.880592
 20
-7.544552
  0
VERTEX
  8
0
  6
CONTINUOUS
 10
2.947831
 20
-7.569003
  0
VERTEX
  8
0
  6
CONTINUOUS
 10
2.987563
 20
-7.594982
  0
VERTEX
  8
0
  6
CONTINUOUS
 10
3.034936
 20
-7.646939
  0
VERTEX
  8
0
  6
CONTINUOUS
 10
3.067028
 20
-7.711122
  0
VERTEX
  8
0
  6
CONTINUOUS
 10
3.076197
 20
-7.758496
  0
VERTEX
  8
0
  6
CONTINUOUS
 10
3.077725
 20
-7.825735
  0
VERTEX
  8
0
  6
CONTINUOUS
 10
3.232070
 20
-7.825735
  0
VERTEX
  8
0
  6
CONTINUOUS
 10
3.236654
 20
-7.737101
  0
VERTEX
  8
0
  6
CONTINUOUS
 10
3.262633
 20
-7.669862
  0
VERTEX
  8
0
  6
CONTINUOUS
 10
3.305422
 20
-7.613320
  0
VERTEX
  8
0
  6
CONTINUOUS
 10
3.363492
 20
-7.570531
  0
VERTEX
  8
0
  6
CONTINUOUS
 10
3.430731
 20
-7.546081
  0
VERTEX
  8
0
  6
CONTINUOUS
 10
3.481161
 20
-7.541496
  0
VERTEX
  8
0
  6
CONTINUOUS
 10
3.554513
 20
-7.552193
  0
VERTEX
  8
0
  6
CONTINUOUS
 10
3.618696
 20
-7.584285
  0
VERTEX
  8
0
  6
CONTINUOUS
 10
3.672181
 20
-7.633186
  0
VERTEX
  8
0
  6
CONTINUOUS
 10
3.708857
 20
-7.694313
  0
VERTEX
  8
0
  6
CONTINUOUS
 10
3.724139
 20
-7.741686
  0
VERTEX
  8
0
  6
CONTINUOUS
 10
3.728723
 20
-7.821150
  0
VERTEX
  8
0
  6
CONTINUOUS
 10
3.803604
 20
-7.813509
  0
VERTEX
  8
0
  6
CONTINUOUS
 10
3.876956
 20
-7.798228
  0
VERTEX
  8
0
  6
CONTINUOUS
 10
3.986983
 20
-7.760024
  0
VERTEX
  8
0
  6
CONTINUOUS
 10
4.022131
 20
-7.744742
  0
VERTEX
  8
0
  6
CONTINUOUS
 10
4.121462
 20
-7.682087
  0
VERTEX
  8
0
  6
CONTINUOUS
 10
4.208567
 20
-7.601094
  0
VERTEX
  8
0
  6
CONTINUOUS
 10
4.263581
 20
-7.535383
  0
VERTEX
  8
0
  6
CONTINUOUS
 10
4.699108
 20
-7.781418
  0
VERTEX
  8
0
  6
CONTINUOUS
 10
4.699108
 20
-7.850185
  0
VERTEX
  8
0
  6
CONTINUOUS
 10
5.055171
 20
-7.850185
  0
VERTEX
  8
0
  6
CONTINUOUS
 10
5.053643
 20
-8.062600
  0
VERTEX
  8
0
  6
CONTINUOUS
 10
4.699108
 20
-8.062600
  0
VERTEX
  8
0
  6
CONTINUOUS
 10
4.697580
 20
-8.297938
  0
SEQEND
  8
0
  0
TEXT
  8
0
 10
2.859197
 20
-8.569951
 40
0.135377
  1
BA  221  
 41
1.000000
  7
SN1
 71
     0
 72
     5
 11
3.533219
 21
-8.569951
  0
TEXT
  8
0
 10
2.611635
 20
-8.762500
 40
0.135377
  1
3/4" x 3-13/16"
 41
1.000000
  7
SN1
 71
     0
 72
     5
 11
3.683254
 21
-8.762500
  0
TEXT
  8
0
 10
5.722979
 20
-8.569951
 40
0.135377
  1
BA  222
 41
1.000000
  7
SN1
 71
     0
 72
     5
 11
6.306122
 21
-8.569951
  0
TEXT
  8
0
 10
5.567106
 20
-8.762500
 40
0.135377
  1
3/4" x 2-5/8"
 41
1.000000
  7
SN1
 71
     0
 72
     5
 11
6.456967
 21
-8.762500
  0
TEXT
  8
0
 10
6.979131
 20
-5.716867
 40
0.135377
  1
panel/flooring
 41
1.000000
  7
SN1
 71
     0
 72
     5
 11
7.961764
 21
-5.716867
  0
TEXT
  8
0
 10
7.339778
 20
-5.907887
 40
0.135377
  1
221
 41
1.000000
  7
SN1
 71
     0
 72
     5
 11
7.612416
 21
-5.907887
  0
TEXT
  8
0
 10
7.339778
 20
-6.100436
 40
0.135377
  1
222
 41
1.000000
  7
SN1
 71
     0
 72
     5
 11
7.612416
 21
-6.100436
  0
POLYLINE
  8
0
  6
CONTINUOUS
 66
     1
 40
0.013753
 41
0.013753
  0
VERTEX
  8
0
  6
CONTINUOUS
 10
3.789850
 20
-6.445801
  0
VERTEX
  8
0
  6
CONTINUOUS
 10
0.704484
 20
-6.445801
  0
VERTEX
  8
0
  6
CONTINUOUS
 10
0.704484
 20
-6.207408
  0
VERTEX
  8
0
  6
CONTINUOUS
 10
0.348422
 20
-6.207408
  0
VERTEX
  8
0
  6
CONTINUOUS
 10
0.348422
 20
-5.994993
  0
VERTEX
  8
0
  6
CONTINUOUS
 10
0.704484
 20
-5.994993
  0
VERTEX
  8
0
  6
CONTINUOUS
 10
0.704484
 20
-5.926225
  0
VERTEX
  8
0
  6
CONTINUOUS
 10
1.140011
 20
-5.680191
  0
VERTEX
  8
0
  6
CONTINUOUS
 10
1.222532
 20
-5.773409
  0
VERTEX
  8
0
  6
CONTINUOUS
 10
1.315750
 20
-5.846761
  0
VERTEX
  8
0
  6
CONTINUOUS
 10
1.382990
 20
-5.886493
  0
VERTEX
  8
0
  6
CONTINUOUS
 10
1.453285
 20
-5.918584
  0
VERTEX
  8
0
  6
CONTINUOUS
 10
1.526637
 20
-5.941507
  0
VERTEX
  8
0
  6
CONTINUOUS
 10
1.601517
 20
-5.958317
  0
VERTEX
  8
0
  6
CONTINUOUS
 10
1.676397
 20
-5.965958
  0
VERTEX
  8
0
  6
CONTINUOUS
 10
1.680982
 20
-5.884965
  0
VERTEX
  8
0
  6
CONTINUOUS
 10
1.706961
 20
-5.817726
  0
VERTEX
  8
0
  6
CONTINUOUS
 10
1.749749
 20
-5.759655
  0
VERTEX
  8
0
  6
CONTINUOUS
 10
1.806291
 20
-5.716867
  0
VERTEX
  8
0
  6
CONTINUOUS
 10
1.873531
 20
-5.690888
  0
VERTEX
  8
0
  6
CONTINUOUS
 10
1.923960
 20
-5.686303
  0
VERTEX
  8
0
  6
CONTINUOUS
 10
1.997312
 20
-5.697000
  0
VERTEX
  8
0
  6
CONTINUOUS
 10
2.061495
 20
-5.727564
  0
VERTEX
  8
0
  6
CONTINUOUS
 10
2.114981
 20
-5.774937
  0
VERTEX
  8
0
  6
CONTINUOUS
 10
2.151657
 20
-5.834535
  0
VERTEX
  8
0
  6
CONTINUOUS
 10
2.166938
 20
-5.881908
  0
VERTEX
  8
0
  6
CONTINUOUS
 10
2.171523
 20
-5.972070
  0
VERTEX
  8
0
  6
CONTINUOUS
 10
2.325868
 20
-5.972070
  0
VERTEX
  8
0
  6
CONTINUOUS
 10
2.330452
 20
-5.884965
  0
VERTEX
  8
0
  6
CONTINUOUS
 10
2.356431
 20
-5.817726
  0
VERTEX
  8
0
  6
CONTINUOUS
 10
2.382410
 20
-5.777993
  0
VERTEX
  8
0
  6
CONTINUOUS
 10
2.435896
 20
-5.730620
  0
VERTEX
  8
0
  6
CONTINUOUS
 10
2.500079
 20
-5.700057
  0
VERTEX
  8
0
  6
CONTINUOUS
 10
2.573430
 20
-5.689360
  0
VERTEX
  8
0
  6
CONTINUOUS
 10
2.623860
 20
-5.693944
  0
VERTEX
  8
0
  6
CONTINUOUS
 10
2.691099
 20
-5.719923
  0
VERTEX
  8
0
  6
CONTINUOUS
 10
2.730831
 20
-5.745902
  0
VERTEX
  8
0
  6
CONTINUOUS
 10
2.778205
 20
-5.799388
  0
VERTEX
  8
0
  6
CONTINUOUS
 10
2.810296
 20
-5.865099
  0
VERTEX
  8
0
  6
CONTINUOUS
 10
2.819465
 20
-5.912472
  0
VERTEX
  8
0
  6
CONTINUOUS
 10
2.820993
 20
-5.967486
  0
VERTEX
  8
0
  6
CONTINUOUS
 10
2.895873
 20
-5.959845
  0
VERTEX
  8
0
  6
CONTINUOUS
 10
2.970753
 20
-5.944563
  0
VERTEX
  8
0
  6
CONTINUOUS
 10
3.044105
 20
-5.921641
  0
VERTEX
  8
0
  6
CONTINUOUS
 10
3.114401
 20
-5.891077
  0
VERTEX
  8
0
  6
CONTINUOUS
 10
3.213732
 20
-5.828423
  0
VERTEX
  8
0
  6
CONTINUOUS
 10
3.302365
 20
-5.747430
  0
VERTEX
  8
0
  6
CONTINUOUS
 10
3.357379
 20
-5.683247
  0
VERTEX
  8
0
  6
CONTINUOUS
 10
3.792906
 20
-5.927753
  0
VERTEX
  8
0
  6
CONTINUOUS
 10
3.792906
 20
-5.996521
  0
VERTEX
  8
0
  6
CONTINUOUS
 10
4.148969
 20
-5.996521
  0
VERTEX
  8
0
  6
CONTINUOUS
 10
4.148969
 20
-6.208936
  0
VERTEX
  8
0
  6
CONTINUOUS
 10
3.792906
 20
-6.208936
  0
VERTEX
  8
0
  6
CONTINUOUS
 10
3.792906
 20
-6.444273
  0
VERTEX
  8
0
  6
CONTINUOUS
 10
3.789850
 20
-6.445801
  0
SEQEND
  8
0
  0
ENDSEC
  0
EOF
