  0
SECTION
  2
HEADER
  9
$ACADVER
  1
AC1006
  9
$EXTMIN
 10
2.429680
 20
0.364760
  9
$EXTMAX
 10
8.036600
 20
4.495040
  9
$LTSCALE
 40
0.044000
  9
$PDMODE
 70
    35
  9
$PDSIZE
 40
0.035200
  0
ENDSEC
  0
SECTION
  2
TABLES
  0
TABLE
  2
LTYPE
 70
     9
  0
LTYPE
  2
CONTINUOUS
 70
    64
  3
Solid line
 72
    65
 73
     0
 40
0.000000
  0
LTYPE
  2
DASHED
 70
    64
  3
__ __ __ __ __ __ __ __ __ __ __ __ __ __ __
 72
    65
 73
     2
 40
0.000330
 49
0.000220
 49
-0.000110
  0
LTYPE
  2
HIDDEN
 70
    64
  3
 _ _ _ _ _ _ _ _ _ _ _ _ _ _ _ _ _ _ _ _ _ _
 72
    65
 73
     2
 40
0.000165
 49
0.000110
 49
-0.000055
  0
LTYPE
  2
CENTER
 70
    64
  3
____ _ ____ _ ____ _ ____ _ ____ _ ____ _ ____
 72
    65
 73
     4
 40
0.000880
 49
0.000550
 49
-0.000110
 49
0.000110
 49
-0.000110
  0
LTYPE
  2
PHANTOM
 70
    64
  3
_____ _ _ _____ _ _ _____ _ _ _____ _ _ ____
 72
    65
 73
     6
 40
0.001100
 49
0.000550
 49
-0.000110
 49
0.000110
 49
-0.000110
 49
0.000110
 49
-0.000110
  0
LTYPE
  2
DOT
 70
    64
  3
...............................................
 72
    65
 73
     2
 40
0.000110
 49
0.000000
 49
-0.000110
  0
LTYPE
  2
DASHDOT
 70
    64
  3
__ . __ . __ . __ . __ . __ . __ . __ . __ . __
 72
    65
 73
     4
 40
0.000440
 49
0.000220
 49
-0.000110
 49
0.000000
 49
-0.000110
  0
LTYPE
  2
BORDER
 70
    64
  3
__ __ . __ __ . __ __ . __ __ . __ __ . __ __
 72
    65
 73
     6
 40
0.000770
 49
0.000220
 49
-0.000110
 49
0.000220
 49
-0.000110
 49
0.000000
 49
-0.000110
  0
LTYPE
  2
DIVIDE
 70
    64
  3
__ . . __ . . __ . . __ . . __ . . __ . . __
 72
    65
 73
     6
 40
0.000550
 49
0.000220
 49
-0.000110
 49
0.000000
 49
-0.000110
 49
0.000000
 49
-0.000110
  0
LTYPE
  2
DOTDOT
 70
    64
  3
 . .  . .  . .  . .  . .  . . 
 72
    65
 73
     5
 40
0.000242
 49
-0.000110
 49
0.000000
 49
-0.000110
 49
0.000000
 49
-0.000110
  0
ENDTAB
  0
TABLE
  2
STYLE
 70
     2
  0
STYLE
 70
     0
  2
SN0
 40
0.000000
 41
0.000440
 50
0.000000
 71
     0
 42
0.000000
  3
ROMAND
  0
STYLE
 70
    68
  2
SV0
 40
0.000000
 41
0.000440
 50
0.000000
 71
     0
 42
0.000000
  3
ROMAND
  0
ENDTAB
  0
TABLE
  2
LAYER
 70
     3
  0
LAYER
  2
FOREGROUND
 70
    64
 62
     7
  6
CONTINUOUS
  0
LAYER
  2
BACKGROUND
 70
    65
 62
    -7
  6
CONTINUOUS
  0
LAYER
  2
0
 70
    64
 62
     7
  6
CONTINUOUS
  0
ENDTAB
  0
ENDSEC
  0
SECTION
  2
ENTITIES
  0
POLYLINE
  8
FOREGROUND
  6
CONTINUOUS
 66
     1
 40
0.000000
 41
0.000000
  0
VERTEX
  8
FOREGROUND
  6
CONTINUOUS
 10
0.000000
 20
4.859800
  0
VERTEX
  8
FOREGROUND
  6
CONTINUOUS
 10
8.499920
 20
4.859800
  0
VERTEX
  8
FOREGROUND
  6
CONTINUOUS
 10
8.499920
 20
-6.140200
  0
VERTEX
  8
FOREGROUND
  6
CONTINUOUS
 10
0.000000
 20
-6.140200
  0
VERTEX
  8
FOREGROUND
  6
CONTINUOUS
 10
0.000000
 20
4.859800
  0
SEQEND
  8
0
  0
POLYLINE
  8
FOREGROUND
  6
CONTINUOUS
 66
     1
 40
0.000000
 41
0.000000
  0
VERTEX
  8
FOREGROUND
  6
CONTINUOUS
 10
0.000000
 20
4.859800
  0
VERTEX
  8
FOREGROUND
  6
CONTINUOUS
 10
8.499920
 20
4.859800
  0
VERTEX
  8
FOREGROUND
  6
CONTINUOUS
 10
8.499920
 20
-6.140200
  0
VERTEX
  8
FOREGROUND
  6
CONTINUOUS
 10
0.000000
 20
-6.140200
  0
VERTEX
  8
FOREGROUND
  6
CONTINUOUS
 10
0.000000
 20
4.859800
  0
SEQEND
  8
0
  0
SOLID
  8
0
 62
    15
 10
5.049000
 20
1.206480
 11
5.047240
 21
1.926320
 12
5.130840
 22
1.224080
 13
5.129080
 23
1.943480
  0
POLYLINE
  8
0
  6
CONTINUOUS
 66
     1
 40
0.000000
 41
0.000000
  0
VERTEX
  8
0
  6
CONTINUOUS
 10
5.049000
 20
1.206480
  0
VERTEX
  8
0
  6
CONTINUOUS
 10
5.047240
 20
1.926320
  0
VERTEX
  8
0
  6
CONTINUOUS
 10
5.129080
 20
1.943480
  0
VERTEX
  8
0
  6
CONTINUOUS
 10
5.130840
 20
1.224080
  0
VERTEX
  8
0
  6
CONTINUOUS
 10
5.049000
 20
1.206480
  0
SEQEND
  8
0
  0
SOLID
  8
0
 62
    15
 10
2.469720
 20
0.825880
 11
2.467960
 21
1.545720
 12
2.469720
 22
1.169520
 13
2.467960
 23
1.888920
  0
POLYLINE
  8
0
  6
CONTINUOUS
 66
     1
 40
0.000000
 41
0.000000
  0
VERTEX
  8
0
  6
CONTINUOUS
 10
2.469720
 20
0.825880
  0
VERTEX
  8
0
  6
CONTINUOUS
 10
2.467960
 20
1.545720
  0
VERTEX
  8
0
  6
CONTINUOUS
 10
2.467960
 20
1.888920
  0
VERTEX
  8
0
  6
CONTINUOUS
 10
2.469720
 20
1.169520
  0
VERTEX
  8
0
  6
CONTINUOUS
 10
2.469720
 20
0.825880
  0
SEQEND
  8
0
  0
SOLID
  8
0
 62
    15
 10
3.376120
 20
2.075480
 11
3.374360
 21
2.795320
 12
3.378760
 22
2.075920
 13
3.377000
 23
2.795320
  0
POLYLINE
  8
0
  6
CONTINUOUS
 66
     1
 40
0.000000
 41
0.000000
  0
VERTEX
  8
0
  6
CONTINUOUS
 10
3.376120
 20
2.075480
  0
VERTEX
  8
0
  6
CONTINUOUS
 10
3.374360
 20
2.795320
  0
VERTEX
  8
0
  6
CONTINUOUS
 10
3.377000
 20
2.795320
  0
VERTEX
  8
0
  6
CONTINUOUS
 10
3.378760
 20
2.075920
  0
VERTEX
  8
0
  6
CONTINUOUS
 10
3.376120
 20
2.075480
  0
SEQEND
  8
0
  0
SOLID
  8
0
 62
    15
 10
3.378760
 20
2.075920
 11
3.377000
 21
2.795320
 12
4.022920
 22
2.075920
 13
4.020720
 23
2.795320
  0
POLYLINE
  8
0
  6
CONTINUOUS
 66
     1
 40
0.000000
 41
0.000000
  0
VERTEX
  8
0
  6
CONTINUOUS
 10
3.378760
 20
2.075920
  0
VERTEX
  8
0
  6
CONTINUOUS
 10
3.377000
 20
2.795320
  0
VERTEX
  8
0
  6
CONTINUOUS
 10
4.020720
 20
2.795320
  0
VERTEX
  8
0
  6
CONTINUOUS
 10
4.022920
 20
2.075920
  0
VERTEX
  8
0
  6
CONTINUOUS
 10
3.378760
 20
2.075920
  0
SEQEND
  8
0
  0
SOLID
  8
0
 62
    15
 10
4.022920
 20
2.075920
 11
4.020720
 21
2.795320
 12
4.040520
 22
1.951840
 13
4.038760
 23
2.671240
  0
POLYLINE
  8
0
  6
CONTINUOUS
 66
     1
 40
0.000000
 41
0.000000
  0
VERTEX
  8
0
  6
CONTINUOUS
 10
4.022920
 20
2.075920
  0
VERTEX
  8
0
  6
CONTINUOUS
 10
4.020720
 20
2.795320
  0
VERTEX
  8
0
  6
CONTINUOUS
 10
4.038760
 20
2.671240
  0
VERTEX
  8
0
  6
CONTINUOUS
 10
4.040520
 20
1.951840
  0
VERTEX
  8
0
  6
CONTINUOUS
 10
4.022920
 20
2.075920
  0
SEQEND
  8
0
  0
SOLID
  8
0
 62
    15
 10
4.040520
 20
1.951840
 11
4.038760
 21
2.671240
 12
4.070440
 22
1.837000
 13
4.068680
 23
2.556400
  0
POLYLINE
  8
0
  6
CONTINUOUS
 66
     1
 40
0.000000
 41
0.000000
  0
VERTEX
  8
0
  6
CONTINUOUS
 10
4.040520
 20
1.951840
  0
VERTEX
  8
0
  6
CONTINUOUS
 10
4.038760
 20
2.671240
  0
VERTEX
  8
0
  6
CONTINUOUS
 10
4.068680
 20
2.556400
  0
VERTEX
  8
0
  6
CONTINUOUS
 10
4.070440
 20
1.837000
  0
VERTEX
  8
0
  6
CONTINUOUS
 10
4.040520
 20
1.951840
  0
SEQEND
  8
0
  0
SOLID
  8
0
 62
    15
 10
4.070440
 20
1.837000
 11
4.068680
 21
2.556400
 12
4.111360
 22
1.731840
 13
4.109600
 23
2.451240
  0
POLYLINE
  8
0
  6
CONTINUOUS
 66
     1
 40
0.000000
 41
0.000000
  0
VERTEX
  8
0
  6
CONTINUOUS
 10
4.070440
 20
1.837000
  0
VERTEX
  8
0
  6
CONTINUOUS
 10
4.068680
 20
2.556400
  0
VERTEX
  8
0
  6
CONTINUOUS
 10
4.109600
 20
2.451240
  0
VERTEX
  8
0
  6
CONTINUOUS
 10
4.111360
 20
1.731840
  0
VERTEX
  8
0
  6
CONTINUOUS
 10
4.070440
 20
1.837000
  0
SEQEND
  8
0
  0
SOLID
  8
0
 62
    15
 10
4.111360
 20
1.731840
 11
4.109600
 21
2.451240
 12
4.161960
 22
1.635920
 13
4.160200
 23
2.355760
  0
POLYLINE
  8
0
  6
CONTINUOUS
 66
     1
 40
0.000000
 41
0.000000
  0
VERTEX
  8
0
  6
CONTINUOUS
 10
4.111360
 20
1.731840
  0
VERTEX
  8
0
  6
CONTINUOUS
 10
4.109600
 20
2.451240
  0
VERTEX
  8
0
  6
CONTINUOUS
 10
4.160200
 20
2.355760
  0
VERTEX
  8
0
  6
CONTINUOUS
 10
4.161960
 20
1.635920
  0
VERTEX
  8
0
  6
CONTINUOUS
 10
4.111360
 20
1.731840
  0
SEQEND
  8
0
  0
SOLID
  8
0
 62
    15
 10
4.161960
 20
1.635920
 11
4.160200
 21
2.355760
 12
4.221360
 22
1.549680
 13
4.219600
 23
2.269520
  0
POLYLINE
  8
0
  6
CONTINUOUS
 66
     1
 40
0.000000
 41
0.000000
  0
VERTEX
  8
0
  6
CONTINUOUS
 10
4.161960
 20
1.635920
  0
VERTEX
  8
0
  6
CONTINUOUS
 10
4.160200
 20
2.355760
  0
VERTEX
  8
0
  6
CONTINUOUS
 10
4.219600
 20
2.269520
  0
VERTEX
  8
0
  6
CONTINUOUS
 10
4.221360
 20
1.549680
  0
VERTEX
  8
0
  6
CONTINUOUS
 10
4.161960
 20
1.635920
  0
SEQEND
  8
0
  0
SOLID
  8
0
 62
    15
 10
4.221360
 20
1.549680
 11
4.219600
 21
2.269520
 12
4.288240
 22
1.473120
 13
4.286480
 23
2.192520
  0
POLYLINE
  8
0
  6
CONTINUOUS
 66
     1
 40
0.000000
 41
0.000000
  0
VERTEX
  8
0
  6
CONTINUOUS
 10
4.221360
 20
1.549680
  0
VERTEX
  8
0
  6
CONTINUOUS
 10
4.219600
 20
2.269520
  0
VERTEX
  8
0
  6
CONTINUOUS
 10
4.286480
 20
2.192520
  0
VERTEX
  8
0
  6
CONTINUOUS
 10
4.288240
 20
1.473120
  0
VERTEX
  8
0
  6
CONTINUOUS
 10
4.221360
 20
1.549680
  0
SEQEND
  8
0
  0
SOLID
  8
0
 62
    15
 10
4.288240
 20
1.473120
 11
4.286480
 21
2.192520
 12
4.361720
 22
1.405800
 13
4.359960
 23
2.125200
  0
POLYLINE
  8
0
  6
CONTINUOUS
 66
     1
 40
0.000000
 41
0.000000
  0
VERTEX
  8
0
  6
CONTINUOUS
 10
4.288240
 20
1.473120
  0
VERTEX
  8
0
  6
CONTINUOUS
 10
4.286480
 20
2.192520
  0
VERTEX
  8
0
  6
CONTINUOUS
 10
4.359960
 20
2.125200
  0
VERTEX
  8
0
  6
CONTINUOUS
 10
4.361720
 20
1.405800
  0
VERTEX
  8
0
  6
CONTINUOUS
 10
4.288240
 20
1.473120
  0
SEQEND
  8
0
  0
SOLID
  8
0
 62
    15
 10
4.361720
 20
1.405800
 11
4.359960
 21
2.125200
 12
4.440920
 22
1.348160
 13
4.438720
 23
2.067560
  0
POLYLINE
  8
0
  6
CONTINUOUS
 66
     1
 40
0.000000
 41
0.000000
  0
VERTEX
  8
0
  6
CONTINUOUS
 10
4.361720
 20
1.405800
  0
VERTEX
  8
0
  6
CONTINUOUS
 10
4.359960
 20
2.125200
  0
VERTEX
  8
0
  6
CONTINUOUS
 10
4.438720
 20
2.067560
  0
VERTEX
  8
0
  6
CONTINUOUS
 10
4.440920
 20
1.348160
  0
VERTEX
  8
0
  6
CONTINUOUS
 10
4.361720
 20
1.405800
  0
SEQEND
  8
0
  0
SOLID
  8
0
 62
    15
 10
4.440920
 20
1.348160
 11
4.438720
 21
2.067560
 12
4.523640
 22
1.299320
 13
4.521880
 23
2.019160
  0
POLYLINE
  8
0
  6
CONTINUOUS
 66
     1
 40
0.000000
 41
0.000000
  0
VERTEX
  8
0
  6
CONTINUOUS
 10
4.440920
 20
1.348160
  0
VERTEX
  8
0
  6
CONTINUOUS
 10
4.438720
 20
2.067560
  0
VERTEX
  8
0
  6
CONTINUOUS
 10
4.521880
 20
2.019160
  0
VERTEX
  8
0
  6
CONTINUOUS
 10
4.523640
 20
1.299320
  0
VERTEX
  8
0
  6
CONTINUOUS
 10
4.440920
 20
1.348160
  0
SEQEND
  8
0
  0
SOLID
  8
0
 62
    15
 10
4.523640
 20
1.299320
 11
4.521880
 21
2.019160
 12
4.609880
 22
1.260600
 13
4.608120
 23
1.980000
  0
POLYLINE
  8
0
  6
CONTINUOUS
 66
     1
 40
0.000000
 41
0.000000
  0
VERTEX
  8
0
  6
CONTINUOUS
 10
4.523640
 20
1.299320
  0
VERTEX
  8
0
  6
CONTINUOUS
 10
4.521880
 20
2.019160
  0
VERTEX
  8
0
  6
CONTINUOUS
 10
4.608120
 20
1.980000
  0
VERTEX
  8
0
  6
CONTINUOUS
 10
4.609880
 20
1.260600
  0
VERTEX
  8
0
  6
CONTINUOUS
 10
4.523640
 20
1.299320
  0
SEQEND
  8
0
  0
SOLID
  8
0
 62
    15
 10
4.609880
 20
1.260600
 11
4.608120
 21
1.980000
 12
4.698320
 22
1.231120
 13
4.696560
 23
1.950520
  0
POLYLINE
  8
0
  6
CONTINUOUS
 66
     1
 40
0.000000
 41
0.000000
  0
VERTEX
  8
0
  6
CONTINUOUS
 10
4.609880
 20
1.260600
  0
VERTEX
  8
0
  6
CONTINUOUS
 10
4.608120
 20
1.980000
  0
VERTEX
  8
0
  6
CONTINUOUS
 10
4.696560
 20
1.950520
  0
VERTEX
  8
0
  6
CONTINUOUS
 10
4.698320
 20
1.231120
  0
VERTEX
  8
0
  6
CONTINUOUS
 10
4.609880
 20
1.260600
  0
SEQEND
  8
0
  0
SOLID
  8
0
 62
    15
 10
4.698320
 20
1.231120
 11
4.696560
 21
1.950520
 12
4.787200
 22
1.210880
 13
4.785440
 23
1.930280
  0
POLYLINE
  8
0
  6
CONTINUOUS
 66
     1
 40
0.000000
 41
0.000000
  0
VERTEX
  8
0
  6
CONTINUOUS
 10
4.698320
 20
1.231120
  0
VERTEX
  8
0
  6
CONTINUOUS
 10
4.696560
 20
1.950520
  0
VERTEX
  8
0
  6
CONTINUOUS
 10
4.785440
 20
1.930280
  0
VERTEX
  8
0
  6
CONTINUOUS
 10
4.787200
 20
1.210880
  0
VERTEX
  8
0
  6
CONTINUOUS
 10
4.698320
 20
1.231120
  0
SEQEND
  8
0
  0
SOLID
  8
0
 62
    15
 10
4.787200
 20
1.210880
 11
4.785440
 21
1.930280
 12
4.876080
 22
1.199880
 13
4.874320
 23
1.919720
  0
POLYLINE
  8
0
  6
CONTINUOUS
 66
     1
 40
0.000000
 41
0.000000
  0
VERTEX
  8
0
  6
CONTINUOUS
 10
4.787200
 20
1.210880
  0
VERTEX
  8
0
  6
CONTINUOUS
 10
4.785440
 20
1.930280
  0
VERTEX
  8
0
  6
CONTINUOUS
 10
4.874320
 20
1.919720
  0
VERTEX
  8
0
  6
CONTINUOUS
 10
4.876080
 20
1.199880
  0
VERTEX
  8
0
  6
CONTINUOUS
 10
4.787200
 20
1.210880
  0
SEQEND
  8
0
  0
SOLID
  8
0
 62
    15
 10
4.876080
 20
1.199880
 11
4.874320
 21
1.919720
 12
4.963640
 22
1.198560
 13
4.961880
 23
1.918400
  0
POLYLINE
  8
0
  6
CONTINUOUS
 66
     1
 40
0.000000
 41
0.000000
  0
VERTEX
  8
0
  6
CONTINUOUS
 10
4.876080
 20
1.199880
  0
VERTEX
  8
0
  6
CONTINUOUS
 10
4.874320
 20
1.919720
  0
VERTEX
  8
0
  6
CONTINUOUS
 10
4.961880
 20
1.918400
  0
VERTEX
  8
0
  6
CONTINUOUS
 10
4.963640
 20
1.198560
  0
VERTEX
  8
0
  6
CONTINUOUS
 10
4.876080
 20
1.199880
  0
SEQEND
  8
0
  0
SOLID
  8
0
 62
    15
 10
4.963640
 20
1.198560
 11
4.961880
 21
1.918400
 12
5.049000
 22
1.206480
 13
5.047240
 23
1.926320
  0
POLYLINE
  8
0
  6
CONTINUOUS
 66
     1
 40
0.000000
 41
0.000000
  0
VERTEX
  8
0
  6
CONTINUOUS
 10
4.963640
 20
1.198560
  0
VERTEX
  8
0
  6
CONTINUOUS
 10
4.961880
 20
1.918400
  0
VERTEX
  8
0
  6
CONTINUOUS
 10
5.047240
 20
1.926320
  0
VERTEX
  8
0
  6
CONTINUOUS
 10
5.049000
 20
1.206480
  0
VERTEX
  8
0
  6
CONTINUOUS
 10
4.963640
 20
1.198560
  0
SEQEND
  8
0
  0
SOLID
  8
0
 62
    15
 10
2.469720
 20
1.169520
 11
2.467960
 21
1.888920
 12
3.376120
 22
2.075480
 13
3.374360
 23
2.795320
  0
POLYLINE
  8
0
  6
CONTINUOUS
 66
     1
 40
0.000000
 41
0.000000
  0
VERTEX
  8
0
  6
CONTINUOUS
 10
2.469720
 20
1.169520
  0
VERTEX
  8
0
  6
CONTINUOUS
 10
2.467960
 20
1.888920
  0
VERTEX
  8
0
  6
CONTINUOUS
 10
3.374360
 20
2.795320
  0
VERTEX
  8
0
  6
CONTINUOUS
 10
3.376120
 20
2.075480
  0
VERTEX
  8
0
  6
CONTINUOUS
 10
2.469720
 20
1.169520
  0
SEQEND
  8
0
  0
SOLID
  8
0
 62
    15
 10
5.130840
 20
1.224080
 11
5.129080
 21
1.943480
 12
5.132160
 22
1.226720
 13
5.130400
 23
1.946120
  0
POLYLINE
  8
0
  6
CONTINUOUS
 66
     1
 40
0.000000
 41
0.000000
  0
VERTEX
  8
0
  6
CONTINUOUS
 10
5.130840
 20
1.224080
  0
VERTEX
  8
0
  6
CONTINUOUS
 10
5.129080
 20
1.943480
  0
VERTEX
  8
0
  6
CONTINUOUS
 10
5.130400
 20
1.946120
  0
VERTEX
  8
0
  6
CONTINUOUS
 10
5.132160
 20
1.226720
  0
VERTEX
  8
0
  6
CONTINUOUS
 10
5.130840
 20
1.224080
  0
SEQEND
  8
0
  0
SOLID
  8
0
 62
    15
 10
5.132160
 20
1.226720
 11
5.130400
 21
1.946120
 12
5.150200
 22
1.284360
 13
5.148440
 23
2.003760
  0
POLYLINE
  8
0
  6
CONTINUOUS
 66
     1
 40
0.000000
 41
0.000000
  0
VERTEX
  8
0
  6
CONTINUOUS
 10
5.132160
 20
1.226720
  0
VERTEX
  8
0
  6
CONTINUOUS
 10
5.130400
 20
1.946120
  0
VERTEX
  8
0
  6
CONTINUOUS
 10
5.148440
 20
2.003760
  0
VERTEX
  8
0
  6
CONTINUOUS
 10
5.150200
 20
1.284360
  0
VERTEX
  8
0
  6
CONTINUOUS
 10
5.132160
 20
1.226720
  0
SEQEND
  8
0
  0
SOLID
  8
0
 62
    15
 10
5.150200
 20
1.284360
 11
5.148440
 21
2.003760
 12
5.177920
 22
1.337160
 13
5.176160
 23
2.056560
  0
POLYLINE
  8
0
  6
CONTINUOUS
 66
     1
 40
0.000000
 41
0.000000
  0
VERTEX
  8
0
  6
CONTINUOUS
 10
5.150200
 20
1.284360
  0
VERTEX
  8
0
  6
CONTINUOUS
 10
5.148440
 20
2.003760
  0
VERTEX
  8
0
  6
CONTINUOUS
 10
5.176160
 20
2.056560
  0
VERTEX
  8
0
  6
CONTINUOUS
 10
5.177920
 20
1.337160
  0
VERTEX
  8
0
  6
CONTINUOUS
 10
5.150200
 20
1.284360
  0
SEQEND
  8
0
  0
SOLID
  8
0
 62
    15
 10
5.177920
 20
1.337160
 11
5.176160
 21
2.056560
 12
5.213560
 22
1.384680
 13
5.211800
 23
2.104080
  0
POLYLINE
  8
0
  6
CONTINUOUS
 66
     1
 40
0.000000
 41
0.000000
  0
VERTEX
  8
0
  6
CONTINUOUS
 10
5.177920
 20
1.337160
  0
VERTEX
  8
0
  6
CONTINUOUS
 10
5.176160
 20
2.056560
  0
VERTEX
  8
0
  6
CONTINUOUS
 10
5.211800
 20
2.104080
  0
VERTEX
  8
0
  6
CONTINUOUS
 10
5.213560
 20
1.384680
  0
VERTEX
  8
0
  6
CONTINUOUS
 10
5.177920
 20
1.337160
  0
SEQEND
  8
0
  0
SOLID
  8
0
 62
    15
 10
5.213560
 20
1.384680
 11
5.211800
 21
2.104080
 12
5.256680
 22
1.425600
 13
5.254920
 23
2.145000
  0
POLYLINE
  8
0
  6
CONTINUOUS
 66
     1
 40
0.000000
 41
0.000000
  0
VERTEX
  8
0
  6
CONTINUOUS
 10
5.213560
 20
1.384680
  0
VERTEX
  8
0
  6
CONTINUOUS
 10
5.211800
 20
2.104080
  0
VERTEX
  8
0
  6
CONTINUOUS
 10
5.254920
 20
2.145000
  0
VERTEX
  8
0
  6
CONTINUOUS
 10
5.256680
 20
1.425600
  0
VERTEX
  8
0
  6
CONTINUOUS
 10
5.213560
 20
1.384680
  0
SEQEND
  8
0
  0
SOLID
  8
0
 62
    15
 10
5.256680
 20
1.425600
 11
5.254920
 21
2.145000
 12
5.306400
 22
1.459040
 13
5.304200
 23
2.178440
  0
POLYLINE
  8
0
  6
CONTINUOUS
 66
     1
 40
0.000000
 41
0.000000
  0
VERTEX
  8
0
  6
CONTINUOUS
 10
5.256680
 20
1.425600
  0
VERTEX
  8
0
  6
CONTINUOUS
 10
5.254920
 20
2.145000
  0
VERTEX
  8
0
  6
CONTINUOUS
 10
5.304200
 20
2.178440
  0
VERTEX
  8
0
  6
CONTINUOUS
 10
5.306400
 20
1.459040
  0
VERTEX
  8
0
  6
CONTINUOUS
 10
5.256680
 20
1.425600
  0
SEQEND
  8
0
  0
SOLID
  8
0
 62
    15
 10
5.306400
 20
1.459040
 11
5.304200
 21
2.178440
 12
5.360960
 22
1.484120
 13
5.359200
 23
2.203520
  0
POLYLINE
  8
0
  6
CONTINUOUS
 66
     1
 40
0.000000
 41
0.000000
  0
VERTEX
  8
0
  6
CONTINUOUS
 10
5.306400
 20
1.459040
  0
VERTEX
  8
0
  6
CONTINUOUS
 10
5.304200
 20
2.178440
  0
VERTEX
  8
0
  6
CONTINUOUS
 10
5.359200
 20
2.203520
  0
VERTEX
  8
0
  6
CONTINUOUS
 10
5.360960
 20
1.484120
  0
VERTEX
  8
0
  6
CONTINUOUS
 10
5.306400
 20
1.459040
  0
SEQEND
  8
0
  0
SOLID
  8
0
 62
    15
 10
5.360960
 20
1.484120
 11
5.359200
 21
2.203520
 12
5.419920
 22
1.499960
 13
5.418160
 23
2.219360
  0
POLYLINE
  8
0
  6
CONTINUOUS
 66
     1
 40
0.000000
 41
0.000000
  0
VERTEX
  8
0
  6
CONTINUOUS
 10
5.360960
 20
1.484120
  0
VERTEX
  8
0
  6
CONTINUOUS
 10
5.359200
 20
2.203520
  0
VERTEX
  8
0
  6
CONTINUOUS
 10
5.418160
 20
2.219360
  0
VERTEX
  8
0
  6
CONTINUOUS
 10
5.419920
 20
1.499960
  0
VERTEX
  8
0
  6
CONTINUOUS
 10
5.360960
 20
1.484120
  0
SEQEND
  8
0
  0
SOLID
  8
0
 62
    15
 10
5.419920
 20
1.499960
 11
5.418160
 21
2.219360
 12
5.482840
 22
1.505240
 13
5.481080
 23
2.224640
  0
POLYLINE
  8
0
  6
CONTINUOUS
 66
     1
 40
0.000000
 41
0.000000
  0
VERTEX
  8
0
  6
CONTINUOUS
 10
5.419920
 20
1.499960
  0
VERTEX
  8
0
  6
CONTINUOUS
 10
5.418160
 20
2.219360
  0
VERTEX
  8
0
  6
CONTINUOUS
 10
5.481080
 20
2.224640
  0
VERTEX
  8
0
  6
CONTINUOUS
 10
5.482840
 20
1.505240
  0
VERTEX
  8
0
  6
CONTINUOUS
 10
5.419920
 20
1.499960
  0
SEQEND
  8
0
  0
SOLID
  8
0
 62
    15
 10
5.482840
 20
1.505240
 11
5.481080
 21
2.224640
 12
5.554120
 22
1.498200
 13
5.552360
 23
2.217600
  0
POLYLINE
  8
0
  6
CONTINUOUS
 66
     1
 40
0.000000
 41
0.000000
  0
VERTEX
  8
0
  6
CONTINUOUS
 10
5.482840
 20
1.505240
  0
VERTEX
  8
0
  6
CONTINUOUS
 10
5.481080
 20
2.224640
  0
VERTEX
  8
0
  6
CONTINUOUS
 10
5.552360
 20
2.217600
  0
VERTEX
  8
0
  6
CONTINUOUS
 10
5.554120
 20
1.498200
  0
VERTEX
  8
0
  6
CONTINUOUS
 10
5.482840
 20
1.505240
  0
SEQEND
  8
0
  0
SOLID
  8
0
 62
    15
 10
5.554120
 20
1.498200
 11
5.552360
 21
2.217600
 12
5.620120
 22
1.477080
 13
5.618360
 23
2.196480
  0
POLYLINE
  8
0
  6
CONTINUOUS
 66
     1
 40
0.000000
 41
0.000000
  0
VERTEX
  8
0
  6
CONTINUOUS
 10
5.554120
 20
1.498200
  0
VERTEX
  8
0
  6
CONTINUOUS
 10
5.552360
 20
2.217600
  0
VERTEX
  8
0
  6
CONTINUOUS
 10
5.618360
 20
2.196480
  0
VERTEX
  8
0
  6
CONTINUOUS
 10
5.620120
 20
1.477080
  0
VERTEX
  8
0
  6
CONTINUOUS
 10
5.554120
 20
1.498200
  0
SEQEND
  8
0
  0
SOLID
  8
0
 62
    15
 10
5.620120
 20
1.477080
 11
5.618360
 21
2.196480
 12
5.679520
 22
1.444080
 13
5.677760
 23
2.163480
  0
POLYLINE
  8
0
  6
CONTINUOUS
 66
     1
 40
0.000000
 41
0.000000
  0
VERTEX
  8
0
  6
CONTINUOUS
 10
5.620120
 20
1.477080
  0
VERTEX
  8
0
  6
CONTINUOUS
 10
5.618360
 20
2.196480
  0
VERTEX
  8
0
  6
CONTINUOUS
 10
5.677760
 20
2.163480
  0
VERTEX
  8
0
  6
CONTINUOUS
 10
5.679520
 20
1.444080
  0
VERTEX
  8
0
  6
CONTINUOUS
 10
5.620120
 20
1.477080
  0
SEQEND
  8
0
  0
SOLID
  8
0
 62
    15
 10
5.679520
 20
1.444080
 11
5.677760
 21
2.163480
 12
5.731440
 22
1.400080
 13
5.729680
 23
2.119920
  0
POLYLINE
  8
0
  6
CONTINUOUS
 66
     1
 40
0.000000
 41
0.000000
  0
VERTEX
  8
0
  6
CONTINUOUS
 10
5.679520
 20
1.444080
  0
VERTEX
  8
0
  6
CONTINUOUS
 10
5.677760
 20
2.163480
  0
VERTEX
  8
0
  6
CONTINUOUS
 10
5.729680
 20
2.119920
  0
VERTEX
  8
0
  6
CONTINUOUS
 10
5.731440
 20
1.400080
  0
VERTEX
  8
0
  6
CONTINUOUS
 10
5.679520
 20
1.444080
  0
SEQEND
  8
0
  0
SOLID
  8
0
 62
    15
 10
5.731440
 20
1.400080
 11
5.729680
 21
2.119920
 12
5.774120
 22
1.347280
 13
5.772360
 23
2.066680
  0
POLYLINE
  8
0
  6
CONTINUOUS
 66
     1
 40
0.000000
 41
0.000000
  0
VERTEX
  8
0
  6
CONTINUOUS
 10
5.731440
 20
1.400080
  0
VERTEX
  8
0
  6
CONTINUOUS
 10
5.729680
 20
2.119920
  0
VERTEX
  8
0
  6
CONTINUOUS
 10
5.772360
 20
2.066680
  0
VERTEX
  8
0
  6
CONTINUOUS
 10
5.774120
 20
1.347280
  0
VERTEX
  8
0
  6
CONTINUOUS
 10
5.731440
 20
1.400080
  0
SEQEND
  8
0
  0
SOLID
  8
0
 62
    15
 10
5.774120
 20
1.347280
 11
5.772360
 21
2.066680
 12
5.806240
 22
1.286560
 13
5.804480
 23
2.005960
  0
POLYLINE
  8
0
  6
CONTINUOUS
 66
     1
 40
0.000000
 41
0.000000
  0
VERTEX
  8
0
  6
CONTINUOUS
 10
5.774120
 20
1.347280
  0
VERTEX
  8
0
  6
CONTINUOUS
 10
5.772360
 20
2.066680
  0
VERTEX
  8
0
  6
CONTINUOUS
 10
5.804480
 20
2.005960
  0
VERTEX
  8
0
  6
CONTINUOUS
 10
5.806240
 20
1.286560
  0
VERTEX
  8
0
  6
CONTINUOUS
 10
5.774120
 20
1.347280
  0
SEQEND
  8
0
  0
SOLID
  8
0
 62
    15
 10
5.833520
 20
1.147960
 11
5.831320
 21
1.867360
 12
5.834840
 22
1.146640
 13
5.833080
 23
1.866040
  0
POLYLINE
  8
0
  6
CONTINUOUS
 66
     1
 40
0.000000
 41
0.000000
  0
VERTEX
  8
0
  6
CONTINUOUS
 10
5.833520
 20
1.147960
  0
VERTEX
  8
0
  6
CONTINUOUS
 10
5.831320
 20
1.867360
  0
VERTEX
  8
0
  6
CONTINUOUS
 10
5.833080
 20
1.866040
  0
VERTEX
  8
0
  6
CONTINUOUS
 10
5.834840
 20
1.146640
  0
VERTEX
  8
0
  6
CONTINUOUS
 10
5.833520
 20
1.147960
  0
SEQEND
  8
0
  0
SOLID
  8
0
 62
    15
 10
5.826480
 20
1.219680
 11
5.824280
 21
1.939080
 12
5.833520
 22
1.147960
 13
5.831320
 23
1.867360
  0
POLYLINE
  8
0
  6
CONTINUOUS
 66
     1
 40
0.000000
 41
0.000000
  0
VERTEX
  8
0
  6
CONTINUOUS
 10
5.826480
 20
1.219680
  0
VERTEX
  8
0
  6
CONTINUOUS
 10
5.824280
 20
1.939080
  0
VERTEX
  8
0
  6
CONTINUOUS
 10
5.831320
 20
1.867360
  0
VERTEX
  8
0
  6
CONTINUOUS
 10
5.833520
 20
1.147960
  0
VERTEX
  8
0
  6
CONTINUOUS
 10
5.826480
 20
1.219680
  0
SEQEND
  8
0
  0
SOLID
  8
0
 62
    15
 10
5.806240
 20
1.286560
 11
5.804480
 21
2.005960
 12
5.826480
 22
1.219680
 13
5.824280
 23
1.939080
  0
POLYLINE
  8
0
  6
CONTINUOUS
 66
     1
 40
0.000000
 41
0.000000
  0
VERTEX
  8
0
  6
CONTINUOUS
 10
5.806240
 20
1.286560
  0
VERTEX
  8
0
  6
CONTINUOUS
 10
5.804480
 20
2.005960
  0
VERTEX
  8
0
  6
CONTINUOUS
 10
5.824280
 20
1.939080
  0
VERTEX
  8
0
  6
CONTINUOUS
 10
5.826480
 20
1.219680
  0
VERTEX
  8
0
  6
CONTINUOUS
 10
5.806240
 20
1.286560
  0
SEQEND
  8
0
  0
POLYLINE
  8
0
  6
CONTINUOUS
 66
     1
 40
0.000000
 41
0.000000
  0
VERTEX
  8
0
  6
CONTINUOUS
 10
2.469720
 20
0.825880
  0
VERTEX
  8
0
  6
CONTINUOUS
 10
2.469720
 20
1.169520
  0
VERTEX
  8
0
  6
CONTINUOUS
 10
3.376120
 20
2.075480
  0
VERTEX
  8
0
  6
CONTINUOUS
 10
3.378760
 20
2.075920
  0
VERTEX
  8
0
  6
CONTINUOUS
 10
4.022920
 20
2.075920
  0
VERTEX
  8
0
  6
CONTINUOUS
 10
4.040520
 20
1.951840
  0
VERTEX
  8
0
  6
CONTINUOUS
 10
4.070440
 20
1.837000
  0
VERTEX
  8
0
  6
CONTINUOUS
 10
4.111360
 20
1.731840
  0
VERTEX
  8
0
  6
CONTINUOUS
 10
4.161960
 20
1.635920
  0
VERTEX
  8
0
  6
CONTINUOUS
 10
4.221360
 20
1.549680
  0
VERTEX
  8
0
  6
CONTINUOUS
 10
4.288240
 20
1.473120
  0
VERTEX
  8
0
  6
CONTINUOUS
 10
4.361720
 20
1.405800
  0
VERTEX
  8
0
  6
CONTINUOUS
 10
4.440920
 20
1.348160
  0
VERTEX
  8
0
  6
CONTINUOUS
 10
4.523640
 20
1.299320
  0
VERTEX
  8
0
  6
CONTINUOUS
 10
4.609880
 20
1.260600
  0
VERTEX
  8
0
  6
CONTINUOUS
 10
4.698320
 20
1.231120
  0
VERTEX
  8
0
  6
CONTINUOUS
 10
4.787200
 20
1.210880
  0
VERTEX
  8
0
  6
CONTINUOUS
 10
4.876080
 20
1.199880
  0
VERTEX
  8
0
  6
CONTINUOUS
 10
4.963640
 20
1.198560
  0
VERTEX
  8
0
  6
CONTINUOUS
 10
5.049000
 20
1.206480
  0
VERTEX
  8
0
  6
CONTINUOUS
 10
5.130840
 20
1.224080
  0
VERTEX
  8
0
  6
CONTINUOUS
 10
5.132160
 20
1.226720
  0
VERTEX
  8
0
  6
CONTINUOUS
 10
5.150200
 20
1.284360
  0
VERTEX
  8
0
  6
CONTINUOUS
 10
5.177920
 20
1.337160
  0
VERTEX
  8
0
  6
CONTINUOUS
 10
5.213560
 20
1.384680
  0
VERTEX
  8
0
  6
CONTINUOUS
 10
5.256680
 20
1.425600
  0
VERTEX
  8
0
  6
CONTINUOUS
 10
5.306400
 20
1.459040
  0
VERTEX
  8
0
  6
CONTINUOUS
 10
5.360960
 20
1.484120
  0
VERTEX
  8
0
  6
CONTINUOUS
 10
5.419920
 20
1.499960
  0
VERTEX
  8
0
  6
CONTINUOUS
 10
5.482840
 20
1.505240
  0
VERTEX
  8
0
  6
CONTINUOUS
 10
5.554120
 20
1.498200
  0
VERTEX
  8
0
  6
CONTINUOUS
 10
5.620120
 20
1.477080
  0
VERTEX
  8
0
  6
CONTINUOUS
 10
5.679520
 20
1.444080
  0
VERTEX
  8
0
  6
CONTINUOUS
 10
5.731440
 20
1.400080
  0
VERTEX
  8
0
  6
CONTINUOUS
 10
5.774120
 20
1.347280
  0
VERTEX
  8
0
  6
CONTINUOUS
 10
5.806240
 20
1.286560
  0
VERTEX
  8
0
  6
CONTINUOUS
 10
5.826480
 20
1.219680
  0
VERTEX
  8
0
  6
CONTINUOUS
 10
5.833520
 20
1.147960
  0
VERTEX
  8
0
  6
CONTINUOUS
 10
5.834840
 20
1.146640
  0
VERTEX
  8
0
  6
CONTINUOUS
 10
5.834840
 20
0.826760
  0
VERTEX
  8
0
  6
CONTINUOUS
 10
2.474560
 20
0.826760
  0
VERTEX
  8
0
  6
CONTINUOUS
 10
2.469720
 20
0.825880
  0
SEQEND
  8
0
  0
TEXT
  8
0
 10
3.854840
 20
0.601040
 40
0.138262
  1
BA  219
 41
1.000000
  7
SN0
 71
     0
 72
     5
 11
4.445249
 21
0.601040
  0
TEXT
  8
0
 10
3.625160
 20
0.409200
 40
0.138262
  1
1-1/4" x 3-3/8"
 41
1.000000
  7
SN0
 71
     0
 72
     5
 11
4.673934
 21
0.409200
  0
POLYLINE
  8
0
  6
CONTINUOUS
 66
     1
 40
0.014080
 41
0.014080
  0
VERTEX
  8
0
  6
CONTINUOUS
 10
2.442000
 20
3.131480
  0
VERTEX
  8
0
  6
CONTINUOUS
 10
5.801840
 20
3.131480
  0
VERTEX
  8
0
  6
CONTINUOUS
 10
5.801840
 20
3.451360
  0
VERTEX
  8
0
  6
CONTINUOUS
 10
5.800520
 20
3.453120
  0
VERTEX
  8
0
  6
CONTINUOUS
 10
5.798760
 20
3.489200
  0
VERTEX
  8
0
  6
CONTINUOUS
 10
5.793480
 20
3.524840
  0
VERTEX
  8
0
  6
CONTINUOUS
 10
5.785120
 20
3.558720
  0
VERTEX
  8
0
  6
CONTINUOUS
 10
5.766200
 20
3.607560
  0
VERTEX
  8
0
  6
CONTINUOUS
 10
5.750360
 20
3.637920
  0
VERTEX
  8
0
  6
CONTINUOUS
 10
5.721320
 20
3.679720
  0
VERTEX
  8
0
  6
CONTINUOUS
 10
5.698880
 20
3.705240
  0
VERTEX
  8
0
  6
CONTINUOUS
 10
5.660600
 20
3.739120
  0
VERTEX
  8
0
  6
CONTINUOUS
 10
5.632880
 20
3.758480
  0
VERTEX
  8
0
  6
CONTINUOUS
 10
5.587560
 20
3.782240
  0
VERTEX
  8
0
  6
CONTINUOUS
 10
5.538280
 20
3.798960
  0
VERTEX
  8
0
  6
CONTINUOUS
 10
5.503960
 20
3.806440
  0
VERTEX
  8
0
  6
CONTINUOUS
 10
5.468320
 20
3.809960
  0
VERTEX
  8
0
  6
CONTINUOUS
 10
5.434000
 20
3.809960
  0
VERTEX
  8
0
  6
CONTINUOUS
 10
5.402760
 20
3.807320
  0
VERTEX
  8
0
  6
CONTINUOUS
 10
5.371960
 20
3.802040
  0
VERTEX
  8
0
  6
CONTINUOUS
 10
5.327960
 20
3.789280
  0
VERTEX
  8
0
  6
CONTINUOUS
 10
5.286600
 20
3.771240
  0
VERTEX
  8
0
  6
CONTINUOUS
 10
5.247880
 20
3.748360
  0
VERTEX
  8
0
  6
CONTINUOUS
 10
5.201680
 20
3.710960
  0
VERTEX
  8
0
  6
CONTINUOUS
 10
5.181000
 20
3.689400
  0
VERTEX
  8
0
  6
CONTINUOUS
 10
5.162080
 20
3.666520
  0
VERTEX
  8
0
  6
CONTINUOUS
 10
5.137440
 20
3.629120
  0
VERTEX
  8
0
  6
CONTINUOUS
 10
5.117640
 20
3.589080
  0
VERTEX
  8
0
  6
CONTINUOUS
 10
5.102680
 20
3.546400
  0
VERTEX
  8
0
  6
CONTINUOUS
 10
5.097840
 20
3.528800
  0
VERTEX
  8
0
  6
CONTINUOUS
 10
5.037120
 20
3.515160
  0
VERTEX
  8
0
  6
CONTINUOUS
 10
4.995320
 20
3.508560
  0
VERTEX
  8
0
  6
CONTINUOUS
 10
4.931080
 20
3.503720
  0
VERTEX
  8
0
  6
CONTINUOUS
 10
4.887520
 20
3.503280
  0
VERTEX
  8
0
  6
CONTINUOUS
 10
4.843520
 20
3.505040
  0
VERTEX
  8
0
  6
CONTINUOUS
 10
4.799080
 20
3.509440
  0
VERTEX
  8
0
  6
CONTINUOUS
 10
4.754200
 20
3.515600
  0
VERTEX
  8
0
  6
CONTINUOUS
 10
4.709760
 20
3.524840
  0
VERTEX
  8
0
  6
CONTINUOUS
 10
4.665320
 20
3.535840
  0
VERTEX
  8
0
  6
CONTINUOUS
 10
4.620880
 20
3.549480
  0
VERTEX
  8
0
  6
CONTINUOUS
 10
4.576880
 20
3.565760
  0
VERTEX
  8
0
  6
CONTINUOUS
 10
4.512200
 20
3.593920
  0
VERTEX
  8
0
  6
CONTINUOUS
 10
4.448840
 20
3.627800
  0
VERTEX
  8
0
  6
CONTINUOUS
 10
4.387680
 20
3.666520
  0
VERTEX
  8
0
  6
CONTINUOUS
 10
4.329160
 20
3.710960
  0
VERTEX
  8
0
  6
CONTINUOUS
 10
4.273280
 20
3.760240
  0
VERTEX
  8
0
  6
CONTINUOUS
 10
4.221360
 20
3.815240
  0
VERTEX
  8
0
  6
CONTINUOUS
 10
4.188360
 20
3.854840
  0
VERTEX
  8
0
  6
CONTINUOUS
 10
4.143040
 20
3.918640
  0
VERTEX
  8
0
  6
CONTINUOUS
 10
4.102560
 20
3.987720
  0
VERTEX
  8
0
  6
CONTINUOUS
 10
4.067360
 20
4.062080
  0
VERTEX
  8
0
  6
CONTINUOUS
 10
4.037880
 20
4.142160
  0
VERTEX
  8
0
  6
CONTINUOUS
 10
4.021160
 20
4.198040
  0
VERTEX
  8
0
  6
CONTINUOUS
 10
4.007960
 20
4.257000
  0
VERTEX
  8
0
  6
CONTINUOUS
 10
3.997400
 20
4.317720
  0
VERTEX
  8
0
  6
CONTINUOUS
 10
3.989920
 20
4.381080
  0
VERTEX
  8
0
  6
CONTINUOUS
 10
3.991240
 20
4.381080
  0
VERTEX
  8
0
  6
CONTINUOUS
 10
3.343120
 20
4.380640
  0
VERTEX
  8
0
  6
CONTINUOUS
 10
2.437160
 20
3.474240
  0
VERTEX
  8
0
  6
CONTINUOUS
 10
2.437160
 20
3.131040
  0
VERTEX
  8
0
  6
CONTINUOUS
 10
2.442000
 20
3.131480
  0
SEQEND
  8
0
  0
TEXT
  8
0
 10
7.666120
 20
4.343240
 40
0.138262
  1
band
 41
1.000000
  7
SN0
 71
     0
 72
     5
 11
8.035336
 21
4.343240
  0
TEXT
  8
0
 10
7.712320
 20
4.151400
 40
0.138262
  1
219
 41
1.000000
  7
SN0
 71
     0
 72
     5
 11
7.989302
 21
4.151400
  0
ENDSEC
  0
EOF
