  0
SECTION
  2
HEADER
  9
$ACADVER
  1
AC1006
  9
$EXTMIN
 10
1.814560
 20
0.374000
  9
$EXTMAX
 10
8.110080
 20
5.903040
  9
$LTSCALE
 40
0.044000
  9
$PDMODE
 70
    35
  9
$PDSIZE
 40
0.035200
  0
ENDSEC
  0
SECTION
  2
TABLES
  0
TABLE
  2
LTYPE
 70
     9
  0
LTYPE
  2
CONTINUOUS
 70
    64
  3
Solid line
 72
    65
 73
     0
 40
0.000000
  0
LTYPE
  2
DASHED
 70
    64
  3
__ __ __ __ __ __ __ __ __ __ __ __ __ __ __
 72
    65
 73
     2
 40
0.000330
 49
0.000220
 49
-0.000110
  0
LTYPE
  2
HIDDEN
 70
    64
  3
 _ _ _ _ _ _ _ _ _ _ _ _ _ _ _ _ _ _ _ _ _ _
 72
    65
 73
     2
 40
0.000165
 49
0.000110
 49
-0.000055
  0
LTYPE
  2
CENTER
 70
    64
  3
____ _ ____ _ ____ _ ____ _ ____ _ ____ _ ____
 72
    65
 73
     4
 40
0.000880
 49
0.000550
 49
-0.000110
 49
0.000110
 49
-0.000110
  0
LTYPE
  2
PHANTOM
 70
    64
  3
_____ _ _ _____ _ _ _____ _ _ _____ _ _ ____
 72
    65
 73
     6
 40
0.001100
 49
0.000550
 49
-0.000110
 49
0.000110
 49
-0.000110
 49
0.000110
 49
-0.000110
  0
LTYPE
  2
DOT
 70
    64
  3
...............................................
 72
    65
 73
     2
 40
0.000110
 49
0.000000
 49
-0.000110
  0
LTYPE
  2
DASHDOT
 70
    64
  3
__ . __ . __ . __ . __ . __ . __ . __ . __ . __
 72
    65
 73
     4
 40
0.000440
 49
0.000220
 49
-0.000110
 49
0.000000
 49
-0.000110
  0
LTYPE
  2
BORDER
 70
    64
  3
__ __ . __ __ . __ __ . __ __ . __ __ . __ __
 72
    65
 73
     6
 40
0.000770
 49
0.000220
 49
-0.000110
 49
0.000220
 49
-0.000110
 49
0.000000
 49
-0.000110
  0
LTYPE
  2
DIVIDE
 70
    64
  3
__ . . __ . . __ . . __ . . __ . . __ . . __
 72
    65
 73
     6
 40
0.000550
 49
0.000220
 49
-0.000110
 49
0.000000
 49
-0.000110
 49
0.000000
 49
-0.000110
  0
LTYPE
  2
DOTDOT
 70
    64
  3
 . .  . .  . .  . .  . .  . . 
 72
    65
 73
     5
 40
0.000242
 49
-0.000110
 49
0.000000
 49
-0.000110
 49
0.000000
 49
-0.000110
  0
ENDTAB
  0
TABLE
  2
STYLE
 70
     2
  0
STYLE
 70
     0
  2
SN0
 40
0.000000
 41
0.000440
 50
0.000000
 71
     0
 42
0.000000
  3
ROMAND
  0
STYLE
 70
    68
  2
SV0
 40
0.000000
 41
0.000440
 50
0.000000
 71
     0
 42
0.000000
  3
ROMAND
  0
ENDTAB
  0
TABLE
  2
LAYER
 70
     3
  0
LAYER
  2
FOREGROUND
 70
    64
 62
     7
  6
CONTINUOUS
  0
LAYER
  2
BACKGROUND
 70
    65
 62
    -7
  6
CONTINUOUS
  0
LAYER
  2
0
 70
    64
 62
     7
  6
CONTINUOUS
  0
ENDTAB
  0
ENDSEC
  0
SECTION
  2
ENTITIES
  0
POLYLINE
  8
FOREGROUND
  6
CONTINUOUS
 66
     1
 40
0.000000
 41
0.000000
  0
VERTEX
  8
FOREGROUND
  6
CONTINUOUS
 10
0.000000
 20
6.277040
  0
VERTEX
  8
FOREGROUND
  6
CONTINUOUS
 10
8.499920
 20
6.277040
  0
VERTEX
  8
FOREGROUND
  6
CONTINUOUS
 10
8.499920
 20
-4.722960
  0
VERTEX
  8
FOREGROUND
  6
CONTINUOUS
 10
0.000000
 20
-4.722960
  0
VERTEX
  8
FOREGROUND
  6
CONTINUOUS
 10
0.000000
 20
6.277040
  0
SEQEND
  8
0
  0
POLYLINE
  8
FOREGROUND
  6
CONTINUOUS
 66
     1
 40
0.000000
 41
0.000000
  0
VERTEX
  8
FOREGROUND
  6
CONTINUOUS
 10
0.000000
 20
6.277040
  0
VERTEX
  8
FOREGROUND
  6
CONTINUOUS
 10
8.499920
 20
6.277040
  0
VERTEX
  8
FOREGROUND
  6
CONTINUOUS
 10
8.499920
 20
-4.722960
  0
VERTEX
  8
FOREGROUND
  6
CONTINUOUS
 10
0.000000
 20
-4.722960
  0
VERTEX
  8
FOREGROUND
  6
CONTINUOUS
 10
0.000000
 20
6.277040
  0
SEQEND
  8
0
  0
POLYLINE
  8
0
  6
CONTINUOUS
 66
     1
 40
0.014080
 41
0.014080
  0
VERTEX
  8
0
  6
CONTINUOUS
 10
6.016560
 20
5.573920
  0
VERTEX
  8
0
  6
CONTINUOUS
 10
5.001920
 20
5.573920
  0
VERTEX
  8
0
  6
CONTINUOUS
 10
4.991360
 20
5.571280
  0
VERTEX
  8
0
  6
CONTINUOUS
 10
4.991360
 20
0.740520
  0
VERTEX
  8
0
  6
CONTINUOUS
 10
5.001920
 20
0.741840
  0
VERTEX
  8
0
  6
CONTINUOUS
 10
5.420360
 20
0.741840
  0
VERTEX
  8
0
  6
CONTINUOUS
 10
5.420360
 20
1.128600
  0
VERTEX
  8
0
  6
CONTINUOUS
 10
5.434000
 20
1.127280
  0
VERTEX
  8
0
  6
CONTINUOUS
 10
5.499560
 20
1.134320
  0
VERTEX
  8
0
  6
CONTINUOUS
 10
5.561160
 20
1.146200
  0
VERTEX
  8
0
  6
CONTINUOUS
 10
5.617920
 20
1.162040
  0
VERTEX
  8
0
  6
CONTINUOUS
 10
5.670280
 20
1.182280
  0
VERTEX
  8
0
  6
CONTINUOUS
 10
5.718240
 20
1.206040
  0
VERTEX
  8
0
  6
CONTINUOUS
 10
5.761800
 20
1.233760
  0
VERTEX
  8
0
  6
CONTINUOUS
 10
5.782480
 20
1.248280
  0
VERTEX
  8
0
  6
CONTINUOUS
 10
5.819880
 20
1.280400
  0
VERTEX
  8
0
  6
CONTINUOUS
 10
5.852880
 20
1.315160
  0
VERTEX
  8
0
  6
CONTINUOUS
 10
5.881920
 20
1.352560
  0
VERTEX
  8
0
  6
CONTINUOUS
 10
5.907000
 20
1.391720
  0
VERTEX
  8
0
  6
CONTINUOUS
 10
5.928120
 20
1.433080
  0
VERTEX
  8
0
  6
CONTINUOUS
 10
5.945280
 20
1.475760
  0
VERTEX
  8
0
  6
CONTINUOUS
 10
5.958480
 20
1.519760
  0
VERTEX
  8
0
  6
CONTINUOUS
 10
5.967720
 20
1.564640
  0
VERTEX
  8
0
  6
CONTINUOUS
 10
5.973440
 20
1.610400
  0
VERTEX
  8
0
  6
CONTINUOUS
 10
5.975200
 20
1.656160
  0
VERTEX
  8
0
  6
CONTINUOUS
 10
5.973000
 20
1.701920
  0
VERTEX
  8
0
  6
CONTINUOUS
 10
5.967280
 20
1.747680
  0
VERTEX
  8
0
  6
CONTINUOUS
 10
5.958040
 20
1.793000
  0
VERTEX
  8
0
  6
CONTINUOUS
 10
5.945280
 20
1.837440
  0
VERTEX
  8
0
  6
CONTINUOUS
 10
5.919320
 20
1.901680
  0
VERTEX
  8
0
  6
CONTINUOUS
 10
5.897760
 20
1.942600
  0
VERTEX
  8
0
  6
CONTINUOUS
 10
5.859040
 20
2.000680
  0
VERTEX
  8
0
  6
CONTINUOUS
 10
5.829120
 20
2.036320
  0
VERTEX
  8
0
  6
CONTINUOUS
 10
5.795680
 20
2.069320
  0
VERTEX
  8
0
  6
CONTINUOUS
 10
5.759160
 20
2.099680
  0
VERTEX
  8
0
  6
CONTINUOUS
 10
5.719560
 20
2.126520
  0
VERTEX
  8
0
  6
CONTINUOUS
 10
5.676880
 20
2.149840
  0
VERTEX
  8
0
  6
CONTINUOUS
 10
5.630680
 20
2.169640
  0
VERTEX
  8
0
  6
CONTINUOUS
 10
5.581840
 20
2.185040
  0
VERTEX
  8
0
  6
CONTINUOUS
 10
5.556320
 20
2.191200
  0
VERTEX
  8
0
  6
CONTINUOUS
 10
5.416400
 20
2.393600
  0
VERTEX
  8
0
  6
CONTINUOUS
 10
5.756520
 20
2.584560
  0
VERTEX
  8
0
  6
CONTINUOUS
 10
5.756520
 20
3.094960
  0
VERTEX
  8
0
  6
CONTINUOUS
 10
5.755200
 20
3.093640
  0
VERTEX
  8
0
  6
CONTINUOUS
 10
5.720440
 20
3.118280
  0
VERTEX
  8
0
  6
CONTINUOUS
 10
5.677320
 20
3.158320
  0
VERTEX
  8
0
  6
CONTINUOUS
 10
5.644320
 20
3.201440
  0
VERTEX
  8
0
  6
CONTINUOUS
 10
5.627160
 20
3.232240
  0
VERTEX
  8
0
  6
CONTINUOUS
 10
5.613960
 20
3.263480
  0
VERTEX
  8
0
  6
CONTINUOUS
 10
5.601200
 20
3.312760
  0
VERTEX
  8
0
  6
CONTINUOUS
 10
5.596800
 20
3.346640
  0
VERTEX
  8
0
  6
CONTINUOUS
 10
5.595920
 20
3.380960
  0
VERTEX
  8
0
  6
CONTINUOUS
 10
5.597240
 20
3.416160
  0
VERTEX
  8
0
  6
CONTINUOUS
 10
5.605160
 20
3.469840
  0
VERTEX
  8
0
  6
CONTINUOUS
 10
5.613080
 20
3.505920
  0
VERTEX
  8
0
  6
CONTINUOUS
 10
5.623640
 20
3.542440
  0
VERTEX
  8
0
  6
CONTINUOUS
 10
5.635960
 20
3.578960
  0
VERTEX
  8
0
  6
CONTINUOUS
 10
5.665880
 20
3.651560
  0
VERTEX
  8
0
  6
CONTINUOUS
 10
5.701520
 20
3.722840
  0
VERTEX
  8
0
  6
CONTINUOUS
 10
5.740680
 20
3.792360
  0
VERTEX
  8
0
  6
CONTINUOUS
 10
5.803160
 20
3.890920
  0
VERTEX
  8
0
  6
CONTINUOUS
 10
5.903040
 20
4.031280
  0
VERTEX
  8
0
  6
CONTINUOUS
 10
5.951440
 20
4.096400
  0
VERTEX
  8
0
  6
CONTINUOUS
 10
5.979600
 20
4.142160
  0
VERTEX
  8
0
  6
CONTINUOUS
 10
6.120400
 20
4.342800
  0
VERTEX
  8
0
  6
CONTINUOUS
 10
6.175400
 20
4.427280
  0
VERTEX
  8
0
  6
CONTINUOUS
 10
6.229960
 20
4.518360
  0
VERTEX
  8
0
  6
CONTINUOUS
 10
6.280120
 20
4.615600
  0
VERTEX
  8
0
  6
CONTINUOUS
 10
6.312680
 20
4.691720
  0
VERTEX
  8
0
  6
CONTINUOUS
 10
6.332040
 20
4.743640
  0
VERTEX
  8
0
  6
CONTINUOUS
 10
6.355360
 20
4.823280
  0
VERTEX
  8
0
  6
CONTINUOUS
 10
6.366800
 20
4.876960
  0
VERTEX
  8
0
  6
CONTINUOUS
 10
6.374280
 20
4.931520
  0
VERTEX
  8
0
  6
CONTINUOUS
 10
6.377800
 20
4.986080
  0
VERTEX
  8
0
  6
CONTINUOUS
 10
6.377800
 20
5.013800
  0
VERTEX
  8
0
  6
CONTINUOUS
 10
6.374280
 20
5.068800
  0
VERTEX
  8
0
  6
CONTINUOUS
 10
6.365920
 20
5.123800
  0
VERTEX
  8
0
  6
CONTINUOUS
 10
6.351840
 20
5.178800
  0
VERTEX
  8
0
  6
CONTINUOUS
 10
6.331600
 20
5.233360
  0
VERTEX
  8
0
  6
CONTINUOUS
 10
6.305200
 20
5.287920
  0
VERTEX
  8
0
  6
CONTINUOUS
 10
6.289800
 20
5.314760
  0
VERTEX
  8
0
  6
CONTINUOUS
 10
6.253280
 20
5.368440
  0
VERTEX
  8
0
  6
CONTINUOUS
 10
6.209720
 20
5.421240
  0
VERTEX
  8
0
  6
CONTINUOUS
 10
6.158240
 20
5.473160
  0
VERTEX
  8
0
  6
CONTINUOUS
 10
6.098840
 20
5.524200
  0
VERTEX
  8
0
  6
CONTINUOUS
 10
6.031080
 20
5.573920
  0
VERTEX
  8
0
  6
CONTINUOUS
 10
6.016560
 20
5.573920
  0
SEQEND
  8
0
  0
SOLID
  8
0
 62
    15
 10
2.422640
 20
3.388880
 11
3.113000
 21
3.002120
 12
2.438040
 22
3.322880
 13
3.128840
 23
2.936120
  0
POLYLINE
  8
0
  6
CONTINUOUS
 66
     1
 40
0.000000
 41
0.000000
  0
VERTEX
  8
0
  6
CONTINUOUS
 10
2.422640
 20
3.388880
  0
VERTEX
  8
0
  6
CONTINUOUS
 10
3.113000
 20
3.002120
  0
VERTEX
  8
0
  6
CONTINUOUS
 10
3.128840
 20
2.936120
  0
VERTEX
  8
0
  6
CONTINUOUS
 10
2.438040
 20
3.322880
  0
VERTEX
  8
0
  6
CONTINUOUS
 10
2.422640
 20
3.388880
  0
SEQEND
  8
0
  0
SOLID
  8
0
 62
    15
 10
2.922920
 20
5.583160
 11
3.613280
 21
5.196400
 12
2.982320
 22
5.532120
 13
3.672680
 23
5.145360
  0
POLYLINE
  8
0
  6
CONTINUOUS
 66
     1
 40
0.000000
 41
0.000000
  0
VERTEX
  8
0
  6
CONTINUOUS
 10
2.922920
 20
5.583160
  0
VERTEX
  8
0
  6
CONTINUOUS
 10
3.613280
 20
5.196400
  0
VERTEX
  8
0
  6
CONTINUOUS
 10
3.672680
 20
5.145360
  0
VERTEX
  8
0
  6
CONTINUOUS
 10
2.982320
 20
5.532120
  0
VERTEX
  8
0
  6
CONTINUOUS
 10
2.922920
 20
5.583160
  0
SEQEND
  8
0
  0
SOLID
  8
0
 62
    15
 10
2.982320
 20
5.532120
 11
3.672680
 21
5.145360
 12
3.033800
 22
5.480200
 13
3.724160
 23
5.093440
  0
POLYLINE
  8
0
  6
CONTINUOUS
 66
     1
 40
0.000000
 41
0.000000
  0
VERTEX
  8
0
  6
CONTINUOUS
 10
2.982320
 20
5.532120
  0
VERTEX
  8
0
  6
CONTINUOUS
 10
3.672680
 20
5.145360
  0
VERTEX
  8
0
  6
CONTINUOUS
 10
3.724160
 20
5.093440
  0
VERTEX
  8
0
  6
CONTINUOUS
 10
3.033800
 20
5.480200
  0
VERTEX
  8
0
  6
CONTINUOUS
 10
2.982320
 20
5.532120
  0
SEQEND
  8
0
  0
SOLID
  8
0
 62
    15
 10
3.033800
 20
5.480200
 11
3.724160
 21
5.093440
 12
3.077360
 22
5.427400
 13
3.767720
 23
5.040640
  0
POLYLINE
  8
0
  6
CONTINUOUS
 66
     1
 40
0.000000
 41
0.000000
  0
VERTEX
  8
0
  6
CONTINUOUS
 10
3.033800
 20
5.480200
  0
VERTEX
  8
0
  6
CONTINUOUS
 10
3.724160
 20
5.093440
  0
VERTEX
  8
0
  6
CONTINUOUS
 10
3.767720
 20
5.040640
  0
VERTEX
  8
0
  6
CONTINUOUS
 10
3.077360
 20
5.427400
  0
VERTEX
  8
0
  6
CONTINUOUS
 10
3.033800
 20
5.480200
  0
SEQEND
  8
0
  0
SOLID
  8
0
 62
    15
 10
3.077360
 20
5.427400
 11
3.767720
 21
5.040640
 12
3.113880
 22
5.373720
 13
3.804240
 23
4.987400
  0
POLYLINE
  8
0
  6
CONTINUOUS
 66
     1
 40
0.000000
 41
0.000000
  0
VERTEX
  8
0
  6
CONTINUOUS
 10
3.077360
 20
5.427400
  0
VERTEX
  8
0
  6
CONTINUOUS
 10
3.767720
 20
5.040640
  0
VERTEX
  8
0
  6
CONTINUOUS
 10
3.804240
 20
4.987400
  0
VERTEX
  8
0
  6
CONTINUOUS
 10
3.113880
 20
5.373720
  0
VERTEX
  8
0
  6
CONTINUOUS
 10
3.077360
 20
5.427400
  0
SEQEND
  8
0
  0
SOLID
  8
0
 62
    15
 10
3.113880
 20
5.373720
 11
3.804240
 21
4.987400
 12
3.143360
 22
5.319600
 13
3.833720
 23
4.933280
  0
POLYLINE
  8
0
  6
CONTINUOUS
 66
     1
 40
0.000000
 41
0.000000
  0
VERTEX
  8
0
  6
CONTINUOUS
 10
3.113880
 20
5.373720
  0
VERTEX
  8
0
  6
CONTINUOUS
 10
3.804240
 20
4.987400
  0
VERTEX
  8
0
  6
CONTINUOUS
 10
3.833720
 20
4.933280
  0
VERTEX
  8
0
  6
CONTINUOUS
 10
3.143360
 20
5.319600
  0
VERTEX
  8
0
  6
CONTINUOUS
 10
3.113880
 20
5.373720
  0
SEQEND
  8
0
  0
SOLID
  8
0
 62
    15
 10
3.143360
 20
5.319600
 11
3.833720
 21
4.933280
 12
3.183400
 22
5.210480
 13
3.873760
 23
4.823720
  0
POLYLINE
  8
0
  6
CONTINUOUS
 66
     1
 40
0.000000
 41
0.000000
  0
VERTEX
  8
0
  6
CONTINUOUS
 10
3.143360
 20
5.319600
  0
VERTEX
  8
0
  6
CONTINUOUS
 10
3.833720
 20
4.933280
  0
VERTEX
  8
0
  6
CONTINUOUS
 10
3.873760
 20
4.823720
  0
VERTEX
  8
0
  6
CONTINUOUS
 10
3.183400
 20
5.210480
  0
VERTEX
  8
0
  6
CONTINUOUS
 10
3.143360
 20
5.319600
  0
SEQEND
  8
0
  0
SOLID
  8
0
 62
    15
 10
3.183400
 20
5.210480
 11
3.873760
 21
4.823720
 12
3.200560
 22
5.100480
 13
3.890920
 23
4.713720
  0
POLYLINE
  8
0
  6
CONTINUOUS
 66
     1
 40
0.000000
 41
0.000000
  0
VERTEX
  8
0
  6
CONTINUOUS
 10
3.183400
 20
5.210480
  0
VERTEX
  8
0
  6
CONTINUOUS
 10
3.873760
 20
4.823720
  0
VERTEX
  8
0
  6
CONTINUOUS
 10
3.890920
 20
4.713720
  0
VERTEX
  8
0
  6
CONTINUOUS
 10
3.200560
 20
5.100480
  0
VERTEX
  8
0
  6
CONTINUOUS
 10
3.183400
 20
5.210480
  0
SEQEND
  8
0
  0
SOLID
  8
0
 62
    15
 10
3.200560
 20
5.100480
 11
3.890920
 21
4.713720
 12
3.198360
 22
4.990480
 13
3.888720
 23
4.603720
  0
POLYLINE
  8
0
  6
CONTINUOUS
 66
     1
 40
0.000000
 41
0.000000
  0
VERTEX
  8
0
  6
CONTINUOUS
 10
3.200560
 20
5.100480
  0
VERTEX
  8
0
  6
CONTINUOUS
 10
3.890920
 20
4.713720
  0
VERTEX
  8
0
  6
CONTINUOUS
 10
3.888720
 20
4.603720
  0
VERTEX
  8
0
  6
CONTINUOUS
 10
3.198360
 20
4.990480
  0
VERTEX
  8
0
  6
CONTINUOUS
 10
3.200560
 20
5.100480
  0
SEQEND
  8
0
  0
SOLID
  8
0
 62
    15
 10
3.198360
 20
4.990480
 11
3.888720
 21
4.603720
 12
3.179000
 22
4.882240
 13
3.869360
 23
4.495920
  0
POLYLINE
  8
0
  6
CONTINUOUS
 66
     1
 40
0.000000
 41
0.000000
  0
VERTEX
  8
0
  6
CONTINUOUS
 10
3.198360
 20
4.990480
  0
VERTEX
  8
0
  6
CONTINUOUS
 10
3.888720
 20
4.603720
  0
VERTEX
  8
0
  6
CONTINUOUS
 10
3.869360
 20
4.495920
  0
VERTEX
  8
0
  6
CONTINUOUS
 10
3.179000
 20
4.882240
  0
VERTEX
  8
0
  6
CONTINUOUS
 10
3.198360
 20
4.990480
  0
SEQEND
  8
0
  0
SOLID
  8
0
 62
    15
 10
3.179000
 20
4.882240
 11
3.869360
 21
4.495920
 12
3.146880
 22
4.776640
 13
3.837240
 23
4.390320
  0
POLYLINE
  8
0
  6
CONTINUOUS
 66
     1
 40
0.000000
 41
0.000000
  0
VERTEX
  8
0
  6
CONTINUOUS
 10
3.179000
 20
4.882240
  0
VERTEX
  8
0
  6
CONTINUOUS
 10
3.869360
 20
4.495920
  0
VERTEX
  8
0
  6
CONTINUOUS
 10
3.837240
 20
4.390320
  0
VERTEX
  8
0
  6
CONTINUOUS
 10
3.146880
 20
4.776640
  0
VERTEX
  8
0
  6
CONTINUOUS
 10
3.179000
 20
4.882240
  0
SEQEND
  8
0
  0
SOLID
  8
0
 62
    15
 10
3.146880
 20
4.776640
 11
3.837240
 21
4.390320
 12
3.103760
 22
4.675000
 13
3.794120
 23
4.288240
  0
POLYLINE
  8
0
  6
CONTINUOUS
 66
     1
 40
0.000000
 41
0.000000
  0
VERTEX
  8
0
  6
CONTINUOUS
 10
3.146880
 20
4.776640
  0
VERTEX
  8
0
  6
CONTINUOUS
 10
3.837240
 20
4.390320
  0
VERTEX
  8
0
  6
CONTINUOUS
 10
3.794120
 20
4.288240
  0
VERTEX
  8
0
  6
CONTINUOUS
 10
3.103760
 20
4.675000
  0
VERTEX
  8
0
  6
CONTINUOUS
 10
3.146880
 20
4.776640
  0
SEQEND
  8
0
  0
SOLID
  8
0
 62
    15
 10
3.103760
 20
4.675000
 11
3.794120
 21
4.288240
 12
3.053600
 22
4.577760
 13
3.743960
 23
4.191000
  0
POLYLINE
  8
0
  6
CONTINUOUS
 66
     1
 40
0.000000
 41
0.000000
  0
VERTEX
  8
0
  6
CONTINUOUS
 10
3.103760
 20
4.675000
  0
VERTEX
  8
0
  6
CONTINUOUS
 10
3.794120
 20
4.288240
  0
VERTEX
  8
0
  6
CONTINUOUS
 10
3.743960
 20
4.191000
  0
VERTEX
  8
0
  6
CONTINUOUS
 10
3.053600
 20
4.577760
  0
VERTEX
  8
0
  6
CONTINUOUS
 10
3.103760
 20
4.675000
  0
SEQEND
  8
0
  0
SOLID
  8
0
 62
    15
 10
3.053600
 20
4.577760
 11
3.743960
 21
4.191000
 12
2.999480
 22
4.486240
 13
3.689840
 23
4.099920
  0
POLYLINE
  8
0
  6
CONTINUOUS
 66
     1
 40
0.000000
 41
0.000000
  0
VERTEX
  8
0
  6
CONTINUOUS
 10
3.053600
 20
4.577760
  0
VERTEX
  8
0
  6
CONTINUOUS
 10
3.743960
 20
4.191000
  0
VERTEX
  8
0
  6
CONTINUOUS
 10
3.689840
 20
4.099920
  0
VERTEX
  8
0
  6
CONTINUOUS
 10
2.999480
 20
4.486240
  0
VERTEX
  8
0
  6
CONTINUOUS
 10
3.053600
 20
4.577760
  0
SEQEND
  8
0
  0
SOLID
  8
0
 62
    15
 10
2.999480
 20
4.486240
 11
3.689840
 21
4.099920
 12
2.944040
 22
4.402200
 13
3.634840
 23
4.015440
  0
POLYLINE
  8
0
  6
CONTINUOUS
 66
     1
 40
0.000000
 41
0.000000
  0
VERTEX
  8
0
  6
CONTINUOUS
 10
2.999480
 20
4.486240
  0
VERTEX
  8
0
  6
CONTINUOUS
 10
3.689840
 20
4.099920
  0
VERTEX
  8
0
  6
CONTINUOUS
 10
3.634840
 20
4.015440
  0
VERTEX
  8
0
  6
CONTINUOUS
 10
2.944040
 20
4.402200
  0
VERTEX
  8
0
  6
CONTINUOUS
 10
2.999480
 20
4.486240
  0
SEQEND
  8
0
  0
SOLID
  8
0
 62
    15
 10
2.944040
 20
4.402200
 11
3.634840
 21
4.015440
 12
2.891240
 22
4.325640
 13
3.581600
 23
3.938880
  0
POLYLINE
  8
0
  6
CONTINUOUS
 66
     1
 40
0.000000
 41
0.000000
  0
VERTEX
  8
0
  6
CONTINUOUS
 10
2.944040
 20
4.402200
  0
VERTEX
  8
0
  6
CONTINUOUS
 10
3.634840
 20
4.015440
  0
VERTEX
  8
0
  6
CONTINUOUS
 10
3.581600
 20
3.938880
  0
VERTEX
  8
0
  6
CONTINUOUS
 10
2.891240
 20
4.325640
  0
VERTEX
  8
0
  6
CONTINUOUS
 10
2.944040
 20
4.402200
  0
SEQEND
  8
0
  0
SOLID
  8
0
 62
    15
 10
2.891240
 20
4.325640
 11
3.581600
 21
3.938880
 12
2.843280
 22
4.258320
 13
3.533640
 23
3.872000
  0
POLYLINE
  8
0
  6
CONTINUOUS
 66
     1
 40
0.000000
 41
0.000000
  0
VERTEX
  8
0
  6
CONTINUOUS
 10
2.891240
 20
4.325640
  0
VERTEX
  8
0
  6
CONTINUOUS
 10
3.581600
 20
3.938880
  0
VERTEX
  8
0
  6
CONTINUOUS
 10
3.533640
 20
3.872000
  0
VERTEX
  8
0
  6
CONTINUOUS
 10
2.843280
 20
4.258320
  0
VERTEX
  8
0
  6
CONTINUOUS
 10
2.891240
 20
4.325640
  0
SEQEND
  8
0
  0
SOLID
  8
0
 62
    15
 10
2.843280
 20
4.258320
 11
3.533640
 21
3.872000
 12
2.803680
 22
4.201560
 13
3.494040
 23
3.814800
  0
POLYLINE
  8
0
  6
CONTINUOUS
 66
     1
 40
0.000000
 41
0.000000
  0
VERTEX
  8
0
  6
CONTINUOUS
 10
2.843280
 20
4.258320
  0
VERTEX
  8
0
  6
CONTINUOUS
 10
3.533640
 20
3.872000
  0
VERTEX
  8
0
  6
CONTINUOUS
 10
3.494040
 20
3.814800
  0
VERTEX
  8
0
  6
CONTINUOUS
 10
2.803680
 20
4.201560
  0
VERTEX
  8
0
  6
CONTINUOUS
 10
2.843280
 20
4.258320
  0
SEQEND
  8
0
  0
SOLID
  8
0
 62
    15
 10
2.803680
 20
4.201560
 11
3.494040
 21
3.814800
 12
2.775080
 22
4.155800
 13
3.465880
 23
3.769040
  0
POLYLINE
  8
0
  6
CONTINUOUS
 66
     1
 40
0.000000
 41
0.000000
  0
VERTEX
  8
0
  6
CONTINUOUS
 10
2.803680
 20
4.201560
  0
VERTEX
  8
0
  6
CONTINUOUS
 10
3.494040
 20
3.814800
  0
VERTEX
  8
0
  6
CONTINUOUS
 10
3.465880
 20
3.769040
  0
VERTEX
  8
0
  6
CONTINUOUS
 10
2.775080
 20
4.155800
  0
VERTEX
  8
0
  6
CONTINUOUS
 10
2.803680
 20
4.201560
  0
SEQEND
  8
0
  0
SOLID
  8
0
 62
    15
 10
2.775080
 20
4.155800
 11
3.465880
 21
3.769040
 12
2.708640
 22
4.065160
 13
3.399000
 23
3.678400
  0
POLYLINE
  8
0
  6
CONTINUOUS
 66
     1
 40
0.000000
 41
0.000000
  0
VERTEX
  8
0
  6
CONTINUOUS
 10
2.775080
 20
4.155800
  0
VERTEX
  8
0
  6
CONTINUOUS
 10
3.465880
 20
3.769040
  0
VERTEX
  8
0
  6
CONTINUOUS
 10
3.399000
 20
3.678400
  0
VERTEX
  8
0
  6
CONTINUOUS
 10
2.708640
 20
4.065160
  0
VERTEX
  8
0
  6
CONTINUOUS
 10
2.775080
 20
4.155800
  0
SEQEND
  8
0
  0
SOLID
  8
0
 62
    15
 10
2.708640
 20
4.065160
 11
3.399000
 21
3.678400
 12
2.627240
 22
3.949880
 13
3.317600
 23
3.563120
  0
POLYLINE
  8
0
  6
CONTINUOUS
 66
     1
 40
0.000000
 41
0.000000
  0
VERTEX
  8
0
  6
CONTINUOUS
 10
2.708640
 20
4.065160
  0
VERTEX
  8
0
  6
CONTINUOUS
 10
3.399000
 20
3.678400
  0
VERTEX
  8
0
  6
CONTINUOUS
 10
3.317600
 20
3.563120
  0
VERTEX
  8
0
  6
CONTINUOUS
 10
2.627240
 20
3.949880
  0
VERTEX
  8
0
  6
CONTINUOUS
 10
2.708640
 20
4.065160
  0
SEQEND
  8
0
  0
SOLID
  8
0
 62
    15
 10
2.627240
 20
3.949880
 11
3.317600
 21
3.563120
 12
2.544520
 22
3.817000
 13
3.235320
 23
3.430240
  0
POLYLINE
  8
0
  6
CONTINUOUS
 66
     1
 40
0.000000
 41
0.000000
  0
VERTEX
  8
0
  6
CONTINUOUS
 10
2.627240
 20
3.949880
  0
VERTEX
  8
0
  6
CONTINUOUS
 10
3.317600
 20
3.563120
  0
VERTEX
  8
0
  6
CONTINUOUS
 10
3.235320
 20
3.430240
  0
VERTEX
  8
0
  6
CONTINUOUS
 10
2.544520
 20
3.817000
  0
VERTEX
  8
0
  6
CONTINUOUS
 10
2.627240
 20
3.949880
  0
SEQEND
  8
0
  0
SOLID
  8
0
 62
    15
 10
2.544520
 20
3.817000
 11
3.235320
 21
3.430240
 12
2.474120
 22
3.674440
 13
3.164480
 23
3.287680
  0
POLYLINE
  8
0
  6
CONTINUOUS
 66
     1
 40
0.000000
 41
0.000000
  0
VERTEX
  8
0
  6
CONTINUOUS
 10
2.544520
 20
3.817000
  0
VERTEX
  8
0
  6
CONTINUOUS
 10
3.235320
 20
3.430240
  0
VERTEX
  8
0
  6
CONTINUOUS
 10
3.164480
 20
3.287680
  0
VERTEX
  8
0
  6
CONTINUOUS
 10
2.474120
 20
3.674440
  0
VERTEX
  8
0
  6
CONTINUOUS
 10
2.544520
 20
3.817000
  0
SEQEND
  8
0
  0
SOLID
  8
0
 62
    15
 10
2.474120
 20
3.674440
 11
3.164480
 21
3.287680
 12
2.447720
 22
3.601400
 13
3.138080
 23
3.214640
  0
POLYLINE
  8
0
  6
CONTINUOUS
 66
     1
 40
0.000000
 41
0.000000
  0
VERTEX
  8
0
  6
CONTINUOUS
 10
2.474120
 20
3.674440
  0
VERTEX
  8
0
  6
CONTINUOUS
 10
3.164480
 20
3.287680
  0
VERTEX
  8
0
  6
CONTINUOUS
 10
3.138080
 20
3.214640
  0
VERTEX
  8
0
  6
CONTINUOUS
 10
2.447720
 20
3.601400
  0
VERTEX
  8
0
  6
CONTINUOUS
 10
2.474120
 20
3.674440
  0
SEQEND
  8
0
  0
SOLID
  8
0
 62
    15
 10
2.447720
 20
3.601400
 11
3.138080
 21
3.214640
 12
2.429240
 22
3.528800
 13
3.119600
 23
3.142480
  0
POLYLINE
  8
0
  6
CONTINUOUS
 66
     1
 40
0.000000
 41
0.000000
  0
VERTEX
  8
0
  6
CONTINUOUS
 10
2.447720
 20
3.601400
  0
VERTEX
  8
0
  6
CONTINUOUS
 10
3.138080
 20
3.214640
  0
VERTEX
  8
0
  6
CONTINUOUS
 10
3.119600
 20
3.142480
  0
VERTEX
  8
0
  6
CONTINUOUS
 10
2.429240
 20
3.528800
  0
VERTEX
  8
0
  6
CONTINUOUS
 10
2.447720
 20
3.601400
  0
SEQEND
  8
0
  0
SOLID
  8
0
 62
    15
 10
2.429240
 20
3.528800
 11
3.119600
 21
3.142480
 12
2.420440
 22
3.457960
 13
3.110800
 23
3.071200
  0
POLYLINE
  8
0
  6
CONTINUOUS
 66
     1
 40
0.000000
 41
0.000000
  0
VERTEX
  8
0
  6
CONTINUOUS
 10
2.429240
 20
3.528800
  0
VERTEX
  8
0
  6
CONTINUOUS
 10
3.119600
 20
3.142480
  0
VERTEX
  8
0
  6
CONTINUOUS
 10
3.110800
 20
3.071200
  0
VERTEX
  8
0
  6
CONTINUOUS
 10
2.420440
 20
3.457960
  0
VERTEX
  8
0
  6
CONTINUOUS
 10
2.429240
 20
3.528800
  0
SEQEND
  8
0
  0
SOLID
  8
0
 62
    15
 10
2.420440
 20
3.457960
 11
3.110800
 21
3.071200
 12
2.422640
 22
3.388880
 13
3.113000
 23
3.002120
  0
POLYLINE
  8
0
  6
CONTINUOUS
 66
     1
 40
0.000000
 41
0.000000
  0
VERTEX
  8
0
  6
CONTINUOUS
 10
2.420440
 20
3.457960
  0
VERTEX
  8
0
  6
CONTINUOUS
 10
3.110800
 20
3.071200
  0
VERTEX
  8
0
  6
CONTINUOUS
 10
3.113000
 20
3.002120
  0
VERTEX
  8
0
  6
CONTINUOUS
 10
2.422640
 20
3.388880
  0
VERTEX
  8
0
  6
CONTINUOUS
 10
2.420440
 20
3.457960
  0
SEQEND
  8
0
  0
SOLID
  8
0
 62
    15
 10
2.855160
 20
5.632880
 11
3.545520
 21
5.246120
 12
2.922920
 22
5.583160
 13
3.613280
 23
5.196400
  0
POLYLINE
  8
0
  6
CONTINUOUS
 66
     1
 40
0.000000
 41
0.000000
  0
VERTEX
  8
0
  6
CONTINUOUS
 10
2.855160
 20
5.632880
  0
VERTEX
  8
0
  6
CONTINUOUS
 10
3.545520
 20
5.246120
  0
VERTEX
  8
0
  6
CONTINUOUS
 10
3.613280
 20
5.196400
  0
VERTEX
  8
0
  6
CONTINUOUS
 10
2.922920
 20
5.583160
  0
VERTEX
  8
0
  6
CONTINUOUS
 10
2.855160
 20
5.632880
  0
SEQEND
  8
0
  0
SOLID
  8
0
 62
    15
 10
2.438040
 20
3.322880
 11
3.128840
 21
2.936120
 12
2.468400
 22
3.260840
 13
3.158760
 23
2.874080
  0
POLYLINE
  8
0
  6
CONTINUOUS
 66
     1
 40
0.000000
 41
0.000000
  0
VERTEX
  8
0
  6
CONTINUOUS
 10
2.438040
 20
3.322880
  0
VERTEX
  8
0
  6
CONTINUOUS
 10
3.128840
 20
2.936120
  0
VERTEX
  8
0
  6
CONTINUOUS
 10
3.158760
 20
2.874080
  0
VERTEX
  8
0
  6
CONTINUOUS
 10
2.468400
 20
3.260840
  0
VERTEX
  8
0
  6
CONTINUOUS
 10
2.438040
 20
3.322880
  0
SEQEND
  8
0
  0
SOLID
  8
0
 62
    15
 10
2.468400
 20
3.260840
 11
3.158760
 21
2.874080
 12
2.514600
 22
3.204080
 13
3.205400
 23
2.817320
  0
POLYLINE
  8
0
  6
CONTINUOUS
 66
     1
 40
0.000000
 41
0.000000
  0
VERTEX
  8
0
  6
CONTINUOUS
 10
2.468400
 20
3.260840
  0
VERTEX
  8
0
  6
CONTINUOUS
 10
3.158760
 20
2.874080
  0
VERTEX
  8
0
  6
CONTINUOUS
 10
3.205400
 20
2.817320
  0
VERTEX
  8
0
  6
CONTINUOUS
 10
2.514600
 20
3.204080
  0
VERTEX
  8
0
  6
CONTINUOUS
 10
2.468400
 20
3.260840
  0
SEQEND
  8
0
  0
SOLID
  8
0
 62
    15
 10
2.514600
 20
3.204080
 11
3.205400
 21
2.817320
 12
2.579280
 22
3.153040
 13
3.269640
 23
2.766280
  0
POLYLINE
  8
0
  6
CONTINUOUS
 66
     1
 40
0.000000
 41
0.000000
  0
VERTEX
  8
0
  6
CONTINUOUS
 10
2.514600
 20
3.204080
  0
VERTEX
  8
0
  6
CONTINUOUS
 10
3.205400
 20
2.817320
  0
VERTEX
  8
0
  6
CONTINUOUS
 10
3.269640
 20
2.766280
  0
VERTEX
  8
0
  6
CONTINUOUS
 10
2.579280
 20
3.153040
  0
VERTEX
  8
0
  6
CONTINUOUS
 10
2.514600
 20
3.204080
  0
SEQEND
  8
0
  0
SOLID
  8
0
 62
    15
 10
2.580600
 20
3.154360
 11
3.270960
 21
2.767600
 12
2.580600
 22
2.643520
 13
3.270960
 23
2.256760
  0
POLYLINE
  8
0
  6
CONTINUOUS
 66
     1
 40
0.000000
 41
0.000000
  0
VERTEX
  8
0
  6
CONTINUOUS
 10
2.580600
 20
3.154360
  0
VERTEX
  8
0
  6
CONTINUOUS
 10
3.270960
 20
2.767600
  0
VERTEX
  8
0
  6
CONTINUOUS
 10
3.270960
 20
2.256760
  0
VERTEX
  8
0
  6
CONTINUOUS
 10
2.580600
 20
2.643520
  0
VERTEX
  8
0
  6
CONTINUOUS
 10
2.580600
 20
3.154360
  0
SEQEND
  8
0
  0
SOLID
  8
0
 62
    15
 10
2.580600
 20
2.643520
 11
3.270960
 21
2.256760
 12
2.241800
 22
2.454320
 13
2.932160
 23
2.067560
  0
POLYLINE
  8
0
  6
CONTINUOUS
 66
     1
 40
0.000000
 41
0.000000
  0
VERTEX
  8
0
  6
CONTINUOUS
 10
2.580600
 20
2.643520
  0
VERTEX
  8
0
  6
CONTINUOUS
 10
3.270960
 20
2.256760
  0
VERTEX
  8
0
  6
CONTINUOUS
 10
2.932160
 20
2.067560
  0
VERTEX
  8
0
  6
CONTINUOUS
 10
2.241800
 20
2.454320
  0
VERTEX
  8
0
  6
CONTINUOUS
 10
2.580600
 20
2.643520
  0
SEQEND
  8
0
  0
SOLID
  8
0
 62
    15
 10
2.241800
 20
2.454320
 11
2.932160
 21
2.067560
 12
2.240480
 22
2.453000
 13
2.930840
 23
2.066240
  0
POLYLINE
  8
0
  6
CONTINUOUS
 66
     1
 40
0.000000
 41
0.000000
  0
VERTEX
  8
0
  6
CONTINUOUS
 10
2.241800
 20
2.454320
  0
VERTEX
  8
0
  6
CONTINUOUS
 10
2.932160
 20
2.067560
  0
VERTEX
  8
0
  6
CONTINUOUS
 10
2.930840
 20
2.066240
  0
VERTEX
  8
0
  6
CONTINUOUS
 10
2.240480
 20
2.453000
  0
VERTEX
  8
0
  6
CONTINUOUS
 10
2.241800
 20
2.454320
  0
SEQEND
  8
0
  0
SOLID
  8
0
 62
    15
 10
2.240480
 20
2.453000
 11
2.930840
 21
2.066240
 12
2.375120
 22
2.256760
 13
3.065480
 23
1.870440
  0
POLYLINE
  8
0
  6
CONTINUOUS
 66
     1
 40
0.000000
 41
0.000000
  0
VERTEX
  8
0
  6
CONTINUOUS
 10
2.240480
 20
2.453000
  0
VERTEX
  8
0
  6
CONTINUOUS
 10
2.930840
 20
2.066240
  0
VERTEX
  8
0
  6
CONTINUOUS
 10
3.065480
 20
1.870440
  0
VERTEX
  8
0
  6
CONTINUOUS
 10
2.375120
 20
2.256760
  0
VERTEX
  8
0
  6
CONTINUOUS
 10
2.240480
 20
2.453000
  0
SEQEND
  8
0
  0
SOLID
  8
0
 62
    15
 10
2.375120
 20
2.256760
 11
3.065480
 21
1.870440
 12
2.380400
 22
2.250160
 13
3.071200
 23
1.863400
  0
POLYLINE
  8
0
  6
CONTINUOUS
 66
     1
 40
0.000000
 41
0.000000
  0
VERTEX
  8
0
  6
CONTINUOUS
 10
2.375120
 20
2.256760
  0
VERTEX
  8
0
  6
CONTINUOUS
 10
3.065480
 20
1.870440
  0
VERTEX
  8
0
  6
CONTINUOUS
 10
3.071200
 20
1.863400
  0
VERTEX
  8
0
  6
CONTINUOUS
 10
2.380400
 20
2.250160
  0
VERTEX
  8
0
  6
CONTINUOUS
 10
2.375120
 20
2.256760
  0
SEQEND
  8
0
  0
SOLID
  8
0
 62
    15
 10
2.563880
 20
2.172720
 11
3.254240
 21
1.785960
 12
2.636920
 22
2.112440
 13
3.327280
 23
1.725680
  0
POLYLINE
  8
0
  6
CONTINUOUS
 66
     1
 40
0.000000
 41
0.000000
  0
VERTEX
  8
0
  6
CONTINUOUS
 10
2.563880
 20
2.172720
  0
VERTEX
  8
0
  6
CONTINUOUS
 10
3.254240
 20
1.785960
  0
VERTEX
  8
0
  6
CONTINUOUS
 10
3.327280
 20
1.725680
  0
VERTEX
  8
0
  6
CONTINUOUS
 10
2.636920
 20
2.112440
  0
VERTEX
  8
0
  6
CONTINUOUS
 10
2.563880
 20
2.172720
  0
SEQEND
  8
0
  0
SOLID
  8
0
 62
    15
 10
2.636920
 20
2.112440
 11
3.327280
 21
1.725680
 12
2.696760
 22
2.040720
 13
3.387120
 23
1.654400
  0
POLYLINE
  8
0
  6
CONTINUOUS
 66
     1
 40
0.000000
 41
0.000000
  0
VERTEX
  8
0
  6
CONTINUOUS
 10
2.636920
 20
2.112440
  0
VERTEX
  8
0
  6
CONTINUOUS
 10
3.327280
 20
1.725680
  0
VERTEX
  8
0
  6
CONTINUOUS
 10
3.387120
 20
1.654400
  0
VERTEX
  8
0
  6
CONTINUOUS
 10
2.696760
 20
2.040720
  0
VERTEX
  8
0
  6
CONTINUOUS
 10
2.636920
 20
2.112440
  0
SEQEND
  8
0
  0
SOLID
  8
0
 62
    15
 10
2.696760
 20
2.040720
 11
3.387120
 21
1.654400
 12
2.743400
 22
1.961080
 13
3.433760
 23
1.574320
  0
POLYLINE
  8
0
  6
CONTINUOUS
 66
     1
 40
0.000000
 41
0.000000
  0
VERTEX
  8
0
  6
CONTINUOUS
 10
2.696760
 20
2.040720
  0
VERTEX
  8
0
  6
CONTINUOUS
 10
3.387120
 20
1.654400
  0
VERTEX
  8
0
  6
CONTINUOUS
 10
3.433760
 20
1.574320
  0
VERTEX
  8
0
  6
CONTINUOUS
 10
2.743400
 20
1.961080
  0
VERTEX
  8
0
  6
CONTINUOUS
 10
2.696760
 20
2.040720
  0
SEQEND
  8
0
  0
SOLID
  8
0
 62
    15
 10
2.743400
 20
1.961080
 11
3.433760
 21
1.574320
 12
2.775960
 22
1.874400
 13
3.466320
 23
1.488080
  0
POLYLINE
  8
0
  6
CONTINUOUS
 66
     1
 40
0.000000
 41
0.000000
  0
VERTEX
  8
0
  6
CONTINUOUS
 10
2.743400
 20
1.961080
  0
VERTEX
  8
0
  6
CONTINUOUS
 10
3.433760
 20
1.574320
  0
VERTEX
  8
0
  6
CONTINUOUS
 10
3.466320
 20
1.488080
  0
VERTEX
  8
0
  6
CONTINUOUS
 10
2.775960
 20
1.874400
  0
VERTEX
  8
0
  6
CONTINUOUS
 10
2.743400
 20
1.961080
  0
SEQEND
  8
0
  0
SOLID
  8
0
 62
    15
 10
2.775960
 20
1.874400
 11
3.466320
 21
1.488080
 12
2.794880
 22
1.784200
 13
3.485240
 23
1.397440
  0
POLYLINE
  8
0
  6
CONTINUOUS
 66
     1
 40
0.000000
 41
0.000000
  0
VERTEX
  8
0
  6
CONTINUOUS
 10
2.775960
 20
1.874400
  0
VERTEX
  8
0
  6
CONTINUOUS
 10
3.466320
 20
1.488080
  0
VERTEX
  8
0
  6
CONTINUOUS
 10
3.485240
 20
1.397440
  0
VERTEX
  8
0
  6
CONTINUOUS
 10
2.794880
 20
1.784200
  0
VERTEX
  8
0
  6
CONTINUOUS
 10
2.775960
 20
1.874400
  0
SEQEND
  8
0
  0
SOLID
  8
0
 62
    15
 10
2.794880
 20
1.784200
 11
3.485240
 21
1.397440
 12
2.798840
 22
1.692240
 13
3.489200
 23
1.305480
  0
POLYLINE
  8
0
  6
CONTINUOUS
 66
     1
 40
0.000000
 41
0.000000
  0
VERTEX
  8
0
  6
CONTINUOUS
 10
2.794880
 20
1.784200
  0
VERTEX
  8
0
  6
CONTINUOUS
 10
3.485240
 20
1.397440
  0
VERTEX
  8
0
  6
CONTINUOUS
 10
3.489200
 20
1.305480
  0
VERTEX
  8
0
  6
CONTINUOUS
 10
2.798840
 20
1.692240
  0
VERTEX
  8
0
  6
CONTINUOUS
 10
2.794880
 20
1.784200
  0
SEQEND
  8
0
  0
SOLID
  8
0
 62
    15
 10
2.798840
 20
1.692240
 11
3.489200
 21
1.305480
 12
2.787840
 22
1.601160
 13
3.478200
 23
1.214400
  0
POLYLINE
  8
0
  6
CONTINUOUS
 66
     1
 40
0.000000
 41
0.000000
  0
VERTEX
  8
0
  6
CONTINUOUS
 10
2.798840
 20
1.692240
  0
VERTEX
  8
0
  6
CONTINUOUS
 10
3.489200
 20
1.305480
  0
VERTEX
  8
0
  6
CONTINUOUS
 10
3.478200
 20
1.214400
  0
VERTEX
  8
0
  6
CONTINUOUS
 10
2.787840
 20
1.601160
  0
VERTEX
  8
0
  6
CONTINUOUS
 10
2.798840
 20
1.692240
  0
SEQEND
  8
0
  0
SOLID
  8
0
 62
    15
 10
2.787840
 20
1.601160
 11
3.478200
 21
1.214400
 12
2.761440
 22
1.513160
 13
3.451800
 23
1.126840
  0
POLYLINE
  8
0
  6
CONTINUOUS
 66
     1
 40
0.000000
 41
0.000000
  0
VERTEX
  8
0
  6
CONTINUOUS
 10
2.787840
 20
1.601160
  0
VERTEX
  8
0
  6
CONTINUOUS
 10
3.478200
 20
1.214400
  0
VERTEX
  8
0
  6
CONTINUOUS
 10
3.451800
 20
1.126840
  0
VERTEX
  8
0
  6
CONTINUOUS
 10
2.761440
 20
1.513160
  0
VERTEX
  8
0
  6
CONTINUOUS
 10
2.787840
 20
1.601160
  0
SEQEND
  8
0
  0
SOLID
  8
0
 62
    15
 10
2.761440
 20
1.513160
 11
3.451800
 21
1.126840
 12
2.719200
 22
1.430880
 13
3.409560
 23
1.044560
  0
POLYLINE
  8
0
  6
CONTINUOUS
 66
     1
 40
0.000000
 41
0.000000
  0
VERTEX
  8
0
  6
CONTINUOUS
 10
2.761440
 20
1.513160
  0
VERTEX
  8
0
  6
CONTINUOUS
 10
3.451800
 20
1.126840
  0
VERTEX
  8
0
  6
CONTINUOUS
 10
3.409560
 20
1.044560
  0
VERTEX
  8
0
  6
CONTINUOUS
 10
2.719200
 20
1.430880
  0
VERTEX
  8
0
  6
CONTINUOUS
 10
2.761440
 20
1.513160
  0
SEQEND
  8
0
  0
SOLID
  8
0
 62
    15
 10
2.719200
 20
1.430880
 11
3.409560
 21
1.044560
 12
2.660680
 22
1.356520
 13
3.351040
 23
0.970200
  0
POLYLINE
  8
0
  6
CONTINUOUS
 66
     1
 40
0.000000
 41
0.000000
  0
VERTEX
  8
0
  6
CONTINUOUS
 10
2.719200
 20
1.430880
  0
VERTEX
  8
0
  6
CONTINUOUS
 10
3.409560
 20
1.044560
  0
VERTEX
  8
0
  6
CONTINUOUS
 10
3.351040
 20
0.970200
  0
VERTEX
  8
0
  6
CONTINUOUS
 10
2.660680
 20
1.356520
  0
VERTEX
  8
0
  6
CONTINUOUS
 10
2.719200
 20
1.430880
  0
SEQEND
  8
0
  0
SOLID
  8
0
 62
    15
 10
2.660680
 20
1.356520
 11
3.351040
 21
0.970200
 12
2.585880
 22
1.292720
 13
3.276240
 23
0.905960
  0
POLYLINE
  8
0
  6
CONTINUOUS
 66
     1
 40
0.000000
 41
0.000000
  0
VERTEX
  8
0
  6
CONTINUOUS
 10
2.660680
 20
1.356520
  0
VERTEX
  8
0
  6
CONTINUOUS
 10
3.351040
 20
0.970200
  0
VERTEX
  8
0
  6
CONTINUOUS
 10
3.276240
 20
0.905960
  0
VERTEX
  8
0
  6
CONTINUOUS
 10
2.585880
 20
1.292720
  0
VERTEX
  8
0
  6
CONTINUOUS
 10
2.660680
 20
1.356520
  0
SEQEND
  8
0
  0
SOLID
  8
0
 62
    15
 10
2.585880
 20
1.292720
 11
3.276240
 21
0.905960
 12
2.493920
 22
1.241240
 13
3.184280
 23
0.854480
  0
POLYLINE
  8
0
  6
CONTINUOUS
 66
     1
 40
0.000000
 41
0.000000
  0
VERTEX
  8
0
  6
CONTINUOUS
 10
2.585880
 20
1.292720
  0
VERTEX
  8
0
  6
CONTINUOUS
 10
3.276240
 20
0.905960
  0
VERTEX
  8
0
  6
CONTINUOUS
 10
3.184280
 20
0.854480
  0
VERTEX
  8
0
  6
CONTINUOUS
 10
2.493920
 20
1.241240
  0
VERTEX
  8
0
  6
CONTINUOUS
 10
2.585880
 20
1.292720
  0
SEQEND
  8
0
  0
SOLID
  8
0
 62
    15
 10
2.493920
 20
1.241240
 11
3.184280
 21
0.854480
 12
2.384800
 22
1.205160
 13
3.075160
 23
0.818400
  0
POLYLINE
  8
0
  6
CONTINUOUS
 66
     1
 40
0.000000
 41
0.000000
  0
VERTEX
  8
0
  6
CONTINUOUS
 10
2.493920
 20
1.241240
  0
VERTEX
  8
0
  6
CONTINUOUS
 10
3.184280
 20
0.854480
  0
VERTEX
  8
0
  6
CONTINUOUS
 10
3.075160
 20
0.818400
  0
VERTEX
  8
0
  6
CONTINUOUS
 10
2.384800
 20
1.205160
  0
VERTEX
  8
0
  6
CONTINUOUS
 10
2.493920
 20
1.241240
  0
SEQEND
  8
0
  0
SOLID
  8
0
 62
    15
 10
2.384800
 20
1.205160
 11
3.075160
 21
0.818400
 12
2.258080
 22
1.186240
 13
2.948440
 23
0.799480
  0
POLYLINE
  8
0
  6
CONTINUOUS
 66
     1
 40
0.000000
 41
0.000000
  0
VERTEX
  8
0
  6
CONTINUOUS
 10
2.384800
 20
1.205160
  0
VERTEX
  8
0
  6
CONTINUOUS
 10
3.075160
 20
0.818400
  0
VERTEX
  8
0
  6
CONTINUOUS
 10
2.948440
 20
0.799480
  0
VERTEX
  8
0
  6
CONTINUOUS
 10
2.258080
 20
1.186240
  0
VERTEX
  8
0
  6
CONTINUOUS
 10
2.384800
 20
1.205160
  0
SEQEND
  8
0
  0
SOLID
  8
0
 62
    15
 10
2.258080
 20
1.186240
 11
2.948440
 21
0.799480
 12
2.244440
 22
1.187560
 13
2.934800
 23
0.800800
  0
POLYLINE
  8
0
  6
CONTINUOUS
 66
     1
 40
0.000000
 41
0.000000
  0
VERTEX
  8
0
  6
CONTINUOUS
 10
2.258080
 20
1.186240
  0
VERTEX
  8
0
  6
CONTINUOUS
 10
2.948440
 20
0.799480
  0
VERTEX
  8
0
  6
CONTINUOUS
 10
2.934800
 20
0.800800
  0
VERTEX
  8
0
  6
CONTINUOUS
 10
2.244440
 20
1.187560
  0
VERTEX
  8
0
  6
CONTINUOUS
 10
2.258080
 20
1.186240
  0
SEQEND
  8
0
  0
SOLID
  8
0
 62
    15
 10
2.244440
 20
1.187560
 11
2.934800
 21
0.800800
 12
2.244440
 22
0.800800
 13
2.934800
 23
0.414480
  0
POLYLINE
  8
0
  6
CONTINUOUS
 66
     1
 40
0.000000
 41
0.000000
  0
VERTEX
  8
0
  6
CONTINUOUS
 10
2.244440
 20
1.187560
  0
VERTEX
  8
0
  6
CONTINUOUS
 10
2.934800
 20
0.800800
  0
VERTEX
  8
0
  6
CONTINUOUS
 10
2.934800
 20
0.414480
  0
VERTEX
  8
0
  6
CONTINUOUS
 10
2.244440
 20
0.800800
  0
VERTEX
  8
0
  6
CONTINUOUS
 10
2.244440
 20
1.187560
  0
SEQEND
  8
0
  0
SOLID
  8
0
 62
    15
 10
2.244440
 20
0.800800
 11
2.934800
 21
0.414480
 12
1.826000
 22
0.800800
 13
2.516360
 23
0.414480
  0
POLYLINE
  8
0
  6
CONTINUOUS
 66
     1
 40
0.000000
 41
0.000000
  0
VERTEX
  8
0
  6
CONTINUOUS
 10
2.244440
 20
0.800800
  0
VERTEX
  8
0
  6
CONTINUOUS
 10
2.934800
 20
0.414480
  0
VERTEX
  8
0
  6
CONTINUOUS
 10
2.516360
 20
0.414480
  0
VERTEX
  8
0
  6
CONTINUOUS
 10
1.826000
 20
0.800800
  0
VERTEX
  8
0
  6
CONTINUOUS
 10
2.244440
 20
0.800800
  0
SEQEND
  8
0
  0
SOLID
  8
0
 62
    15
 10
1.826000
 20
0.800800
 11
2.516360
 21
0.414480
 12
1.815440
 22
0.799480
 13
2.505800
 23
0.413160
  0
POLYLINE
  8
0
  6
CONTINUOUS
 66
     1
 40
0.000000
 41
0.000000
  0
VERTEX
  8
0
  6
CONTINUOUS
 10
1.826000
 20
0.800800
  0
VERTEX
  8
0
  6
CONTINUOUS
 10
2.516360
 20
0.414480
  0
VERTEX
  8
0
  6
CONTINUOUS
 10
2.505800
 20
0.413160
  0
VERTEX
  8
0
  6
CONTINUOUS
 10
1.815440
 20
0.799480
  0
VERTEX
  8
0
  6
CONTINUOUS
 10
1.826000
 20
0.800800
  0
SEQEND
  8
0
  0
POLYLINE
  8
0
  6
CONTINUOUS
 66
     1
 40
0.000000
 41
0.000000
  0
VERTEX
  8
0
  6
CONTINUOUS
 10
2.855160
 20
5.632880
  0
VERTEX
  8
0
  6
CONTINUOUS
 10
2.922920
 20
5.583160
  0
VERTEX
  8
0
  6
CONTINUOUS
 10
2.982320
 20
5.532120
  0
VERTEX
  8
0
  6
CONTINUOUS
 10
3.033800
 20
5.480200
  0
VERTEX
  8
0
  6
CONTINUOUS
 10
3.077360
 20
5.427400
  0
VERTEX
  8
0
  6
CONTINUOUS
 10
3.113880
 20
5.373720
  0
VERTEX
  8
0
  6
CONTINUOUS
 10
3.143360
 20
5.319600
  0
VERTEX
  8
0
  6
CONTINUOUS
 10
3.183400
 20
5.210480
  0
VERTEX
  8
0
  6
CONTINUOUS
 10
3.200560
 20
5.100480
  0
VERTEX
  8
0
  6
CONTINUOUS
 10
3.198360
 20
4.990480
  0
VERTEX
  8
0
  6
CONTINUOUS
 10
3.179000
 20
4.882240
  0
VERTEX
  8
0
  6
CONTINUOUS
 10
3.146880
 20
4.776640
  0
VERTEX
  8
0
  6
CONTINUOUS
 10
3.103760
 20
4.675000
  0
VERTEX
  8
0
  6
CONTINUOUS
 10
3.053600
 20
4.577760
  0
VERTEX
  8
0
  6
CONTINUOUS
 10
2.999480
 20
4.486240
  0
VERTEX
  8
0
  6
CONTINUOUS
 10
2.944040
 20
4.402200
  0
VERTEX
  8
0
  6
CONTINUOUS
 10
2.803680
 20
4.201560
  0
VERTEX
  8
0
  6
CONTINUOUS
 10
2.775080
 20
4.155800
  0
VERTEX
  8
0
  6
CONTINUOUS
 10
2.708640
 20
4.065160
  0
VERTEX
  8
0
  6
CONTINUOUS
 10
2.627240
 20
3.949880
  0
VERTEX
  8
0
  6
CONTINUOUS
 10
2.544520
 20
3.817000
  0
VERTEX
  8
0
  6
CONTINUOUS
 10
2.474120
 20
3.674440
  0
VERTEX
  8
0
  6
CONTINUOUS
 10
2.447720
 20
3.601400
  0
VERTEX
  8
0
  6
CONTINUOUS
 10
2.429240
 20
3.528800
  0
VERTEX
  8
0
  6
CONTINUOUS
 10
2.420440
 20
3.457960
  0
VERTEX
  8
0
  6
CONTINUOUS
 10
2.422640
 20
3.388880
  0
VERTEX
  8
0
  6
CONTINUOUS
 10
2.438040
 20
3.322880
  0
VERTEX
  8
0
  6
CONTINUOUS
 10
2.468400
 20
3.260840
  0
VERTEX
  8
0
  6
CONTINUOUS
 10
2.514600
 20
3.204080
  0
VERTEX
  8
0
  6
CONTINUOUS
 10
2.579280
 20
3.153040
  0
VERTEX
  8
0
  6
CONTINUOUS
 10
2.580600
 20
3.154360
  0
VERTEX
  8
0
  6
CONTINUOUS
 10
2.580600
 20
2.643520
  0
VERTEX
  8
0
  6
CONTINUOUS
 10
2.240480
 20
2.453000
  0
VERTEX
  8
0
  6
CONTINUOUS
 10
2.380400
 20
2.250160
  0
VERTEX
  8
0
  6
CONTINUOUS
 10
2.478080
 20
2.219360
  0
VERTEX
  8
0
  6
CONTINUOUS
 10
2.563880
 20
2.172720
  0
VERTEX
  8
0
  6
CONTINUOUS
 10
2.636920
 20
2.112440
  0
VERTEX
  8
0
  6
CONTINUOUS
 10
2.696760
 20
2.040720
  0
VERTEX
  8
0
  6
CONTINUOUS
 10
2.743400
 20
1.961080
  0
VERTEX
  8
0
  6
CONTINUOUS
 10
2.775960
 20
1.874400
  0
VERTEX
  8
0
  6
CONTINUOUS
 10
2.794880
 20
1.784200
  0
VERTEX
  8
0
  6
CONTINUOUS
 10
2.798840
 20
1.692240
  0
VERTEX
  8
0
  6
CONTINUOUS
 10
2.787840
 20
1.601160
  0
VERTEX
  8
0
  6
CONTINUOUS
 10
2.761440
 20
1.513160
  0
VERTEX
  8
0
  6
CONTINUOUS
 10
2.719200
 20
1.430880
  0
VERTEX
  8
0
  6
CONTINUOUS
 10
2.660680
 20
1.356520
  0
VERTEX
  8
0
  6
CONTINUOUS
 10
2.585880
 20
1.292720
  0
VERTEX
  8
0
  6
CONTINUOUS
 10
2.493920
 20
1.241240
  0
VERTEX
  8
0
  6
CONTINUOUS
 10
2.384800
 20
1.205160
  0
VERTEX
  8
0
  6
CONTINUOUS
 10
2.258080
 20
1.186240
  0
VERTEX
  8
0
  6
CONTINUOUS
 10
2.244440
 20
1.187560
  0
VERTEX
  8
0
  6
CONTINUOUS
 10
2.244440
 20
0.800800
  0
VERTEX
  8
0
  6
CONTINUOUS
 10
1.826000
 20
0.800800
  0
VERTEX
  8
0
  6
CONTINUOUS
 10
1.815440
 20
0.799480
  0
VERTEX
  8
0
  6
CONTINUOUS
 10
1.815440
 20
5.630240
  0
VERTEX
  8
0
  6
CONTINUOUS
 10
1.826000
 20
5.632880
  0
VERTEX
  8
0
  6
CONTINUOUS
 10
2.855160
 20
5.632880
  0
SEQEND
  8
0
  0
TEXT
  8
0
 10
3.597000
 20
0.609840
 40
0.138218
  1
BA  218
 41
1.000000
  7
SN0
 71
     0
 72
     5
 11
4.187520
 21
0.609840
  0
TEXT
  8
0
 10
3.275360
 20
0.418440
 40
0.138218
  1
1-3/8" x 4-13/16"
 41
1.000000
  7
SN0
 71
     0
 72
     5
 11
4.508338
 21
0.418440
  0
TEXT
  8
0
 10
7.667440
 20
5.751680
 40
0.138218
  1
crown
 41
1.000000
  7
SN0
 71
     0
 72
     5
 11
8.110330
 21
5.751680
  0
TEXT
  8
0
 10
7.750600
 20
5.560280
 40
0.138218
  1
218
 41
1.000000
  7
SN0
 71
     0
 72
     5
 11
8.027603
 21
5.560280
  0
ENDSEC
  0
EOF
