  0
SECTION
  2
HEADER
  9
$ACADVER
  1
AC1006
  9
$EXTMIN
 10
2.868893
 20
0.510945
  9
$EXTMAX
 10
13.976071
 20
8.953831
  9
$LTSCALE
 40
0.055902
  9
$PDMODE
 70
    35
  9
$PDSIZE
 40
0.044722
  0
ENDSEC
  0
SECTION
  2
TABLES
  0
TABLE
  2
LTYPE
 70
     9
  0
LTYPE
  2
CONTINUOUS
 70
    64
  3
Solid line
 72
    65
 73
     0
 40
0.000000
  0
LTYPE
  2
DASHED
 70
    64
  3
__ __ __ __ __ __ __ __ __ __ __ __ __ __ __
 72
    65
 73
     2
 40
0.000419
 49
0.000280
 49
-0.000140
  0
LTYPE
  2
HIDDEN
 70
    64
  3
 _ _ _ _ _ _ _ _ _ _ _ _ _ _ _ _ _ _ _ _ _ _
 72
    65
 73
     2
 40
0.000210
 49
0.000140
 49
-0.000070
  0
LTYPE
  2
CENTER
 70
    64
  3
____ _ ____ _ ____ _ ____ _ ____ _ ____ _ ____
 72
    65
 73
     4
 40
0.001118
 49
0.000699
 49
-0.000140
 49
0.000140
 49
-0.000140
  0
LTYPE
  2
PHANTOM
 70
    64
  3
_____ _ _ _____ _ _ _____ _ _ _____ _ _ ____
 72
    65
 73
     6
 40
0.001398
 49
0.000699
 49
-0.000140
 49
0.000140
 49
-0.000140
 49
0.000140
 49
-0.000140
  0
LTYPE
  2
DOT
 70
    64
  3
...............................................
 72
    65
 73
     2
 40
0.000140
 49
0.000000
 49
-0.000140
  0
LTYPE
  2
DASHDOT
 70
    64
  3
__ . __ . __ . __ . __ . __ . __ . __ . __ . __
 72
    65
 73
     4
 40
0.000559
 49
0.000280
 49
-0.000140
 49
0.000000
 49
-0.000140
  0
LTYPE
  2
BORDER
 70
    64
  3
__ __ . __ __ . __ __ . __ __ . __ __ . __ __
 72
    65
 73
     6
 40
0.000978
 49
0.000280
 49
-0.000140
 49
0.000280
 49
-0.000140
 49
0.000000
 49
-0.000140
  0
LTYPE
  2
DIVIDE
 70
    64
  3
__ . . __ . . __ . . __ . . __ . . __ . . __
 72
    65
 73
     6
 40
0.000699
 49
0.000280
 49
-0.000140
 49
0.000000
 49
-0.000140
 49
0.000000
 49
-0.000140
  0
LTYPE
  2
DOTDOT
 70
    64
  3
 . .  . .  . .  . .  . .  . . 
 72
    65
 73
     5
 40
0.000307
 49
-0.000140
 49
0.000000
 49
-0.000140
 49
0.000000
 49
-0.000140
  0
ENDTAB
  0
TABLE
  2
STYLE
 70
     4
  0
STYLE
 70
     0
  2
SN0
 40
0.000000
 41
0.000559
 50
0.000000
 71
     0
 42
0.000000
  3
ROMAND
  0
STYLE
 70
    68
  2
SV0
 40
0.000000
 41
0.000559
 50
0.000000
 71
     0
 42
0.000000
  3
ROMAND
  0
STYLE
 70
     0
  2
SN1
 40
0.000000
 41
0.000559
 50
0.000000
 71
     0
 42
0.000000
  3
ROMAND
  0
STYLE
 70
    68
  2
SV1
 40
0.000000
 41
0.000559
 50
0.000000
 71
     0
 42
0.000000
  3
ROMAND
  0
ENDTAB
  0
TABLE
  2
LAYER
 70
     3
  0
LAYER
  2
FOREGROUND
 70
    64
 62
     7
  6
CONTINUOUS
  0
LAYER
  2
BACKGROUND
 70
    65
 62
    -7
  6
CONTINUOUS
  0
LAYER
  2
0
 70
    64
 62
     7
  6
CONTINUOUS
  0
ENDTAB
  0
ENDSEC
  0
SECTION
  2
ENTITIES
  0
POLYLINE
  8
FOREGROUND
  6
CONTINUOUS
 66
     1
 40
0.000000
 41
0.000000
  0
VERTEX
  8
FOREGROUND
  6
CONTINUOUS
 10
0.000000
 20
9.464776
  0
VERTEX
  8
FOREGROUND
  6
CONTINUOUS
 10
8.499906
 20
9.464776
  0
VERTEX
  8
FOREGROUND
  6
CONTINUOUS
 10
8.499906
 20
-1.535070
  0
VERTEX
  8
FOREGROUND
  6
CONTINUOUS
 10
0.000000
 20
-1.535070
  0
VERTEX
  8
FOREGROUND
  6
CONTINUOUS
 10
0.000000
 20
9.464776
  0
SEQEND
  8
0
  0
POLYLINE
  8
FOREGROUND
  6
CONTINUOUS
 66
     1
 40
0.000000
 41
0.000000
  0
VERTEX
  8
FOREGROUND
  6
CONTINUOUS
 10
0.000000
 20
9.464776
  0
VERTEX
  8
FOREGROUND
  6
CONTINUOUS
 10
8.499906
 20
9.464776
  0
VERTEX
  8
FOREGROUND
  6
CONTINUOUS
 10
8.499906
 20
-1.535070
  0
VERTEX
  8
FOREGROUND
  6
CONTINUOUS
 10
0.000000
 20
-1.535070
  0
VERTEX
  8
FOREGROUND
  6
CONTINUOUS
 10
0.000000
 20
9.464776
  0
SEQEND
  8
0
  0
TEXT
  8
0
 10
13.943648
 20
0.517094
 40
0.011709
  1
B242
 41
1.000000
  7
SN0
 71
     0
 72
     5
 11
13.974192
 21
0.517094
  0
SOLID
  8
0
 62
    15
 10
5.862448
 20
6.578553
 11
5.860771
 21
7.328758
 12
5.864125
 22
6.584143
 13
5.861889
 23
7.334349
  0
POLYLINE
  8
0
  6
CONTINUOUS
 66
     1
 40
0.000000
 41
0.000000
  0
VERTEX
  8
0
  6
CONTINUOUS
 10
5.862448
 20
6.578553
  0
VERTEX
  8
0
  6
CONTINUOUS
 10
5.860771
 20
7.328758
  0
VERTEX
  8
0
  6
CONTINUOUS
 10
5.861889
 20
7.334349
  0
VERTEX
  8
0
  6
CONTINUOUS
 10
5.864125
 20
6.584143
  0
VERTEX
  8
0
  6
CONTINUOUS
 10
5.862448
 20
6.578553
  0
SEQEND
  8
0
  0
SOLID
  8
0
 62
    15
 10
2.882869
 20
6.152020
 11
2.880632
 21
6.902226
 12
2.882869
 22
6.961482
 13
2.880632
 23
7.711687
  0
POLYLINE
  8
0
  6
CONTINUOUS
 66
     1
 40
0.000000
 41
0.000000
  0
VERTEX
  8
0
  6
CONTINUOUS
 10
2.882869
 20
6.152020
  0
VERTEX
  8
0
  6
CONTINUOUS
 10
2.880632
 20
6.902226
  0
VERTEX
  8
0
  6
CONTINUOUS
 10
2.880632
 20
7.711687
  0
VERTEX
  8
0
  6
CONTINUOUS
 10
2.882869
 20
6.961482
  0
VERTEX
  8
0
  6
CONTINUOUS
 10
2.882869
 20
6.152020
  0
SEQEND
  8
0
  0
SOLID
  8
0
 62
    15
 10
3.314991
 20
6.813342
 11
3.312755
 21
7.563547
 12
3.375925
 22
6.813342
 13
3.374248
 23
7.563547
  0
POLYLINE
  8
0
  6
CONTINUOUS
 66
     1
 40
0.000000
 41
0.000000
  0
VERTEX
  8
0
  6
CONTINUOUS
 10
3.314991
 20
6.813342
  0
VERTEX
  8
0
  6
CONTINUOUS
 10
3.312755
 20
7.563547
  0
VERTEX
  8
0
  6
CONTINUOUS
 10
3.374248
 20
7.563547
  0
VERTEX
  8
0
  6
CONTINUOUS
 10
3.375925
 20
6.813342
  0
VERTEX
  8
0
  6
CONTINUOUS
 10
3.314991
 20
6.813342
  0
SEQEND
  8
0
  0
SOLID
  8
0
 62
    15
 10
3.310519
 20
6.961482
 11
3.308842
 21
7.711687
 12
3.314991
 22
6.958687
 13
3.312755
 23
7.708892
  0
POLYLINE
  8
0
  6
CONTINUOUS
 66
     1
 40
0.000000
 41
0.000000
  0
VERTEX
  8
0
  6
CONTINUOUS
 10
3.310519
 20
6.961482
  0
VERTEX
  8
0
  6
CONTINUOUS
 10
3.308842
 20
7.711687
  0
VERTEX
  8
0
  6
CONTINUOUS
 10
3.312755
 20
7.708892
  0
VERTEX
  8
0
  6
CONTINUOUS
 10
3.314991
 20
6.958687
  0
VERTEX
  8
0
  6
CONTINUOUS
 10
3.310519
 20
6.961482
  0
SEQEND
  8
0
  0
SOLID
  8
0
 62
    15
 10
3.375925
 20
6.813342
 11
3.374248
 21
7.563547
 12
3.375925
 22
6.816137
 13
3.374248
 23
7.566342
  0
POLYLINE
  8
0
  6
CONTINUOUS
 66
     1
 40
0.000000
 41
0.000000
  0
VERTEX
  8
0
  6
CONTINUOUS
 10
3.375925
 20
6.813342
  0
VERTEX
  8
0
  6
CONTINUOUS
 10
3.374248
 20
7.563547
  0
VERTEX
  8
0
  6
CONTINUOUS
 10
3.374248
 20
7.566342
  0
VERTEX
  8
0
  6
CONTINUOUS
 10
3.375925
 20
6.816137
  0
VERTEX
  8
0
  6
CONTINUOUS
 10
3.375925
 20
6.813342
  0
SEQEND
  8
0
  0
SOLID
  8
0
 62
    15
 10
3.375925
 20
6.816137
 11
3.374248
 21
7.566342
 12
3.379279
 22
6.843529
 13
3.377043
 23
7.593734
  0
POLYLINE
  8
0
  6
CONTINUOUS
 66
     1
 40
0.000000
 41
0.000000
  0
VERTEX
  8
0
  6
CONTINUOUS
 10
3.375925
 20
6.816137
  0
VERTEX
  8
0
  6
CONTINUOUS
 10
3.374248
 20
7.566342
  0
VERTEX
  8
0
  6
CONTINUOUS
 10
3.377043
 20
7.593734
  0
VERTEX
  8
0
  6
CONTINUOUS
 10
3.379279
 20
6.843529
  0
VERTEX
  8
0
  6
CONTINUOUS
 10
3.375925
 20
6.816137
  0
SEQEND
  8
0
  0
SOLID
  8
0
 62
    15
 10
3.379279
 20
6.843529
 11
3.377043
 21
7.593734
 12
3.387105
 22
6.867567
 13
3.384869
 23
7.617772
  0
POLYLINE
  8
0
  6
CONTINUOUS
 66
     1
 40
0.000000
 41
0.000000
  0
VERTEX
  8
0
  6
CONTINUOUS
 10
3.379279
 20
6.843529
  0
VERTEX
  8
0
  6
CONTINUOUS
 10
3.377043
 20
7.593734
  0
VERTEX
  8
0
  6
CONTINUOUS
 10
3.384869
 20
7.617772
  0
VERTEX
  8
0
  6
CONTINUOUS
 10
3.387105
 20
6.867567
  0
VERTEX
  8
0
  6
CONTINUOUS
 10
3.379279
 20
6.843529
  0
SEQEND
  8
0
  0
SOLID
  8
0
 62
    15
 10
3.387105
 20
6.867567
 11
3.384869
 21
7.617772
 12
3.399403
 22
6.887132
 13
3.397726
 23
7.637338
  0
POLYLINE
  8
0
  6
CONTINUOUS
 66
     1
 40
0.000000
 41
0.000000
  0
VERTEX
  8
0
  6
CONTINUOUS
 10
3.387105
 20
6.867567
  0
VERTEX
  8
0
  6
CONTINUOUS
 10
3.384869
 20
7.617772
  0
VERTEX
  8
0
  6
CONTINUOUS
 10
3.397726
 20
7.637338
  0
VERTEX
  8
0
  6
CONTINUOUS
 10
3.399403
 20
6.887132
  0
VERTEX
  8
0
  6
CONTINUOUS
 10
3.387105
 20
6.867567
  0
SEQEND
  8
0
  0
SOLID
  8
0
 62
    15
 10
3.399403
 20
6.887132
 11
3.397726
 21
7.637338
 12
3.415615
 22
6.902785
 13
3.413938
 23
7.652990
  0
POLYLINE
  8
0
  6
CONTINUOUS
 66
     1
 40
0.000000
 41
0.000000
  0
VERTEX
  8
0
  6
CONTINUOUS
 10
3.399403
 20
6.887132
  0
VERTEX
  8
0
  6
CONTINUOUS
 10
3.397726
 20
7.637338
  0
VERTEX
  8
0
  6
CONTINUOUS
 10
3.413938
 20
7.652990
  0
VERTEX
  8
0
  6
CONTINUOUS
 10
3.415615
 20
6.902785
  0
VERTEX
  8
0
  6
CONTINUOUS
 10
3.399403
 20
6.887132
  0
SEQEND
  8
0
  0
SOLID
  8
0
 62
    15
 10
3.415615
 20
6.902785
 11
3.413938
 21
7.652990
 12
3.434622
 22
6.913406
 13
3.432945
 23
7.664171
  0
POLYLINE
  8
0
  6
CONTINUOUS
 66
     1
 40
0.000000
 41
0.000000
  0
VERTEX
  8
0
  6
CONTINUOUS
 10
3.415615
 20
6.902785
  0
VERTEX
  8
0
  6
CONTINUOUS
 10
3.413938
 20
7.652990
  0
VERTEX
  8
0
  6
CONTINUOUS
 10
3.432945
 20
7.664171
  0
VERTEX
  8
0
  6
CONTINUOUS
 10
3.434622
 20
6.913406
  0
VERTEX
  8
0
  6
CONTINUOUS
 10
3.415615
 20
6.902785
  0
SEQEND
  8
0
  0
SOLID
  8
0
 62
    15
 10
3.434622
 20
6.913406
 11
3.432945
 21
7.664171
 12
3.456424
 22
6.919555
 13
3.454187
 23
7.669761
  0
POLYLINE
  8
0
  6
CONTINUOUS
 66
     1
 40
0.000000
 41
0.000000
  0
VERTEX
  8
0
  6
CONTINUOUS
 10
3.434622
 20
6.913406
  0
VERTEX
  8
0
  6
CONTINUOUS
 10
3.432945
 20
7.664171
  0
VERTEX
  8
0
  6
CONTINUOUS
 10
3.454187
 20
7.669761
  0
VERTEX
  8
0
  6
CONTINUOUS
 10
3.456424
 20
6.919555
  0
VERTEX
  8
0
  6
CONTINUOUS
 10
3.434622
 20
6.913406
  0
SEQEND
  8
0
  0
SOLID
  8
0
 62
    15
 10
3.456424
 20
6.919555
 11
3.454187
 21
7.669761
 12
3.479343
 22
6.920673
 13
3.477107
 23
7.670879
  0
POLYLINE
  8
0
  6
CONTINUOUS
 66
     1
 40
0.000000
 41
0.000000
  0
VERTEX
  8
0
  6
CONTINUOUS
 10
3.456424
 20
6.919555
  0
VERTEX
  8
0
  6
CONTINUOUS
 10
3.454187
 20
7.669761
  0
VERTEX
  8
0
  6
CONTINUOUS
 10
3.477107
 20
7.670879
  0
VERTEX
  8
0
  6
CONTINUOUS
 10
3.479343
 20
6.920673
  0
VERTEX
  8
0
  6
CONTINUOUS
 10
3.456424
 20
6.919555
  0
SEQEND
  8
0
  0
SOLID
  8
0
 62
    15
 10
3.479343
 20
6.920673
 11
3.477107
 21
7.670879
 12
3.502822
 22
6.916201
 13
3.501145
 23
7.666407
  0
POLYLINE
  8
0
  6
CONTINUOUS
 66
     1
 40
0.000000
 41
0.000000
  0
VERTEX
  8
0
  6
CONTINUOUS
 10
3.479343
 20
6.920673
  0
VERTEX
  8
0
  6
CONTINUOUS
 10
3.477107
 20
7.670879
  0
VERTEX
  8
0
  6
CONTINUOUS
 10
3.501145
 20
7.666407
  0
VERTEX
  8
0
  6
CONTINUOUS
 10
3.502822
 20
6.916201
  0
VERTEX
  8
0
  6
CONTINUOUS
 10
3.479343
 20
6.920673
  0
SEQEND
  8
0
  0
SOLID
  8
0
 62
    15
 10
3.502822
 20
6.916201
 11
3.501145
 21
7.666407
 12
3.526860
 22
6.906139
 13
3.524624
 23
7.656903
  0
POLYLINE
  8
0
  6
CONTINUOUS
 66
     1
 40
0.000000
 41
0.000000
  0
VERTEX
  8
0
  6
CONTINUOUS
 10
3.502822
 20
6.916201
  0
VERTEX
  8
0
  6
CONTINUOUS
 10
3.501145
 20
7.666407
  0
VERTEX
  8
0
  6
CONTINUOUS
 10
3.524624
 20
7.656903
  0
VERTEX
  8
0
  6
CONTINUOUS
 10
3.526860
 20
6.906139
  0
VERTEX
  8
0
  6
CONTINUOUS
 10
3.502822
 20
6.916201
  0
SEQEND
  8
0
  0
SOLID
  8
0
 62
    15
 10
3.526860
 20
6.906139
 11
3.524624
 21
7.656903
 12
3.550339
 22
6.890486
 13
3.548103
 23
7.640692
  0
POLYLINE
  8
0
  6
CONTINUOUS
 66
     1
 40
0.000000
 41
0.000000
  0
VERTEX
  8
0
  6
CONTINUOUS
 10
3.526860
 20
6.906139
  0
VERTEX
  8
0
  6
CONTINUOUS
 10
3.524624
 20
7.656903
  0
VERTEX
  8
0
  6
CONTINUOUS
 10
3.548103
 20
7.640692
  0
VERTEX
  8
0
  6
CONTINUOUS
 10
3.550339
 20
6.890486
  0
VERTEX
  8
0
  6
CONTINUOUS
 10
3.526860
 20
6.906139
  0
SEQEND
  8
0
  0
SOLID
  8
0
 62
    15
 10
3.550339
 20
6.890486
 11
3.548103
 21
7.640692
 12
3.572700
 22
6.868685
 13
3.570464
 23
7.618890
  0
POLYLINE
  8
0
  6
CONTINUOUS
 66
     1
 40
0.000000
 41
0.000000
  0
VERTEX
  8
0
  6
CONTINUOUS
 10
3.550339
 20
6.890486
  0
VERTEX
  8
0
  6
CONTINUOUS
 10
3.548103
 20
7.640692
  0
VERTEX
  8
0
  6
CONTINUOUS
 10
3.570464
 20
7.618890
  0
VERTEX
  8
0
  6
CONTINUOUS
 10
3.572700
 20
6.868685
  0
VERTEX
  8
0
  6
CONTINUOUS
 10
3.550339
 20
6.890486
  0
SEQEND
  8
0
  0
SOLID
  8
0
 62
    15
 10
3.572700
 20
6.868685
 11
3.570464
 21
7.618890
 12
3.592825
 22
6.840175
 13
3.590588
 23
7.590380
  0
POLYLINE
  8
0
  6
CONTINUOUS
 66
     1
 40
0.000000
 41
0.000000
  0
VERTEX
  8
0
  6
CONTINUOUS
 10
3.572700
 20
6.868685
  0
VERTEX
  8
0
  6
CONTINUOUS
 10
3.570464
 20
7.618890
  0
VERTEX
  8
0
  6
CONTINUOUS
 10
3.590588
 20
7.590380
  0
VERTEX
  8
0
  6
CONTINUOUS
 10
3.592825
 20
6.840175
  0
VERTEX
  8
0
  6
CONTINUOUS
 10
3.572700
 20
6.868685
  0
SEQEND
  8
0
  0
SOLID
  8
0
 62
    15
 10
3.592825
 20
6.840175
 11
3.590588
 21
7.590380
 12
3.610154
 22
6.805515
 13
3.607918
 23
7.555721
  0
POLYLINE
  8
0
  6
CONTINUOUS
 66
     1
 40
0.000000
 41
0.000000
  0
VERTEX
  8
0
  6
CONTINUOUS
 10
3.592825
 20
6.840175
  0
VERTEX
  8
0
  6
CONTINUOUS
 10
3.590588
 20
7.590380
  0
VERTEX
  8
0
  6
CONTINUOUS
 10
3.607918
 20
7.555721
  0
VERTEX
  8
0
  6
CONTINUOUS
 10
3.610154
 20
6.805515
  0
VERTEX
  8
0
  6
CONTINUOUS
 10
3.592825
 20
6.840175
  0
SEQEND
  8
0
  0
SOLID
  8
0
 62
    15
 10
3.610154
 20
6.805515
 11
3.607918
 21
7.555721
 12
3.624689
 22
6.763589
 13
3.622453
 23
7.513794
  0
POLYLINE
  8
0
  6
CONTINUOUS
 66
     1
 40
0.000000
 41
0.000000
  0
VERTEX
  8
0
  6
CONTINUOUS
 10
3.610154
 20
6.805515
  0
VERTEX
  8
0
  6
CONTINUOUS
 10
3.607918
 20
7.555721
  0
VERTEX
  8
0
  6
CONTINUOUS
 10
3.622453
 20
7.513794
  0
VERTEX
  8
0
  6
CONTINUOUS
 10
3.624689
 20
6.763589
  0
VERTEX
  8
0
  6
CONTINUOUS
 10
3.610154
 20
6.805515
  0
SEQEND
  8
0
  0
SOLID
  8
0
 62
    15
 10
3.624689
 20
6.763589
 11
3.622453
 21
7.513794
 12
3.634751
 22
6.714954
 13
3.632515
 23
7.465159
  0
POLYLINE
  8
0
  6
CONTINUOUS
 66
     1
 40
0.000000
 41
0.000000
  0
VERTEX
  8
0
  6
CONTINUOUS
 10
3.624689
 20
6.763589
  0
VERTEX
  8
0
  6
CONTINUOUS
 10
3.622453
 20
7.513794
  0
VERTEX
  8
0
  6
CONTINUOUS
 10
3.632515
 20
7.465159
  0
VERTEX
  8
0
  6
CONTINUOUS
 10
3.634751
 20
6.714954
  0
VERTEX
  8
0
  6
CONTINUOUS
 10
3.624689
 20
6.763589
  0
SEQEND
  8
0
  0
SOLID
  8
0
 62
    15
 10
3.639782
 20
6.657375
 11
3.638105
 21
7.407580
 12
3.690653
 22
6.657375
 13
3.688417
 23
7.407580
  0
POLYLINE
  8
0
  6
CONTINUOUS
 66
     1
 40
0.000000
 41
0.000000
  0
VERTEX
  8
0
  6
CONTINUOUS
 10
3.639782
 20
6.657375
  0
VERTEX
  8
0
  6
CONTINUOUS
 10
3.638105
 20
7.407580
  0
VERTEX
  8
0
  6
CONTINUOUS
 10
3.688417
 20
7.407580
  0
VERTEX
  8
0
  6
CONTINUOUS
 10
3.690653
 20
6.657375
  0
VERTEX
  8
0
  6
CONTINUOUS
 10
3.639782
 20
6.657375
  0
SEQEND
  8
0
  0
SOLID
  8
0
 62
    15
 10
3.634751
 20
6.714954
 11
3.632515
 21
7.465159
 12
3.639782
 22
6.658493
 13
3.638105
 23
7.408698
  0
POLYLINE
  8
0
  6
CONTINUOUS
 66
     1
 40
0.000000
 41
0.000000
  0
VERTEX
  8
0
  6
CONTINUOUS
 10
3.634751
 20
6.714954
  0
VERTEX
  8
0
  6
CONTINUOUS
 10
3.632515
 20
7.465159
  0
VERTEX
  8
0
  6
CONTINUOUS
 10
3.638105
 20
7.408698
  0
VERTEX
  8
0
  6
CONTINUOUS
 10
3.639782
 20
6.658493
  0
VERTEX
  8
0
  6
CONTINUOUS
 10
3.634751
 20
6.714954
  0
SEQEND
  8
0
  0
SOLID
  8
0
 62
    15
 10
3.690653
 20
6.657375
 11
3.688417
 21
7.407580
 12
3.701275
 22
6.699860
 13
3.699038
 23
7.450066
  0
POLYLINE
  8
0
  6
CONTINUOUS
 66
     1
 40
0.000000
 41
0.000000
  0
VERTEX
  8
0
  6
CONTINUOUS
 10
3.690653
 20
6.657375
  0
VERTEX
  8
0
  6
CONTINUOUS
 10
3.688417
 20
7.407580
  0
VERTEX
  8
0
  6
CONTINUOUS
 10
3.699038
 20
7.450066
  0
VERTEX
  8
0
  6
CONTINUOUS
 10
3.701275
 20
6.699860
  0
VERTEX
  8
0
  6
CONTINUOUS
 10
3.690653
 20
6.657375
  0
SEQEND
  8
0
  0
SOLID
  8
0
 62
    15
 10
3.701275
 20
6.699860
 11
3.699038
 21
7.450066
 12
3.719163
 22
6.730606
 13
3.716927
 23
7.480812
  0
POLYLINE
  8
0
  6
CONTINUOUS
 66
     1
 40
0.000000
 41
0.000000
  0
VERTEX
  8
0
  6
CONTINUOUS
 10
3.701275
 20
6.699860
  0
VERTEX
  8
0
  6
CONTINUOUS
 10
3.699038
 20
7.450066
  0
VERTEX
  8
0
  6
CONTINUOUS
 10
3.716927
 20
7.480812
  0
VERTEX
  8
0
  6
CONTINUOUS
 10
3.719163
 20
6.730606
  0
VERTEX
  8
0
  6
CONTINUOUS
 10
3.701275
 20
6.699860
  0
SEQEND
  8
0
  0
SOLID
  8
0
 62
    15
 10
3.719163
 20
6.730606
 11
3.716927
 21
7.480812
 12
3.740965
 22
6.749054
 13
3.739288
 23
7.499819
  0
POLYLINE
  8
0
  6
CONTINUOUS
 66
     1
 40
0.000000
 41
0.000000
  0
VERTEX
  8
0
  6
CONTINUOUS
 10
3.719163
 20
6.730606
  0
VERTEX
  8
0
  6
CONTINUOUS
 10
3.716927
 20
7.480812
  0
VERTEX
  8
0
  6
CONTINUOUS
 10
3.739288
 20
7.499819
  0
VERTEX
  8
0
  6
CONTINUOUS
 10
3.740965
 20
6.749054
  0
VERTEX
  8
0
  6
CONTINUOUS
 10
3.719163
 20
6.730606
  0
SEQEND
  8
0
  0
SOLID
  8
0
 62
    15
 10
3.740965
 20
6.749054
 11
3.739288
 21
7.499819
 12
3.766121
 22
6.756321
 13
3.763885
 23
7.506527
  0
POLYLINE
  8
0
  6
CONTINUOUS
 66
     1
 40
0.000000
 41
0.000000
  0
VERTEX
  8
0
  6
CONTINUOUS
 10
3.740965
 20
6.749054
  0
VERTEX
  8
0
  6
CONTINUOUS
 10
3.739288
 20
7.499819
  0
VERTEX
  8
0
  6
CONTINUOUS
 10
3.763885
 20
7.506527
  0
VERTEX
  8
0
  6
CONTINUOUS
 10
3.766121
 20
6.756321
  0
VERTEX
  8
0
  6
CONTINUOUS
 10
3.740965
 20
6.749054
  0
SEQEND
  8
0
  0
SOLID
  8
0
 62
    15
 10
3.766121
 20
6.756321
 11
3.763885
 21
7.506527
 12
3.790718
 22
6.751290
 13
3.789041
 23
7.501496
  0
POLYLINE
  8
0
  6
CONTINUOUS
 66
     1
 40
0.000000
 41
0.000000
  0
VERTEX
  8
0
  6
CONTINUOUS
 10
3.766121
 20
6.756321
  0
VERTEX
  8
0
  6
CONTINUOUS
 10
3.763885
 20
7.506527
  0
VERTEX
  8
0
  6
CONTINUOUS
 10
3.789041
 20
7.501496
  0
VERTEX
  8
0
  6
CONTINUOUS
 10
3.790718
 20
6.751290
  0
VERTEX
  8
0
  6
CONTINUOUS
 10
3.766121
 20
6.756321
  0
SEQEND
  8
0
  0
SOLID
  8
0
 62
    15
 10
3.790718
 20
6.751290
 11
3.789041
 21
7.501496
 12
3.814197
 22
6.733961
 13
3.811961
 23
7.484166
  0
POLYLINE
  8
0
  6
CONTINUOUS
 66
     1
 40
0.000000
 41
0.000000
  0
VERTEX
  8
0
  6
CONTINUOUS
 10
3.790718
 20
6.751290
  0
VERTEX
  8
0
  6
CONTINUOUS
 10
3.789041
 20
7.501496
  0
VERTEX
  8
0
  6
CONTINUOUS
 10
3.811961
 20
7.484166
  0
VERTEX
  8
0
  6
CONTINUOUS
 10
3.814197
 20
6.733961
  0
VERTEX
  8
0
  6
CONTINUOUS
 10
3.790718
 20
6.751290
  0
SEQEND
  8
0
  0
SOLID
  8
0
 62
    15
 10
3.814197
 20
6.733961
 11
3.811961
 21
7.484166
 12
3.832644
 22
6.704892
 13
3.830967
 23
7.455097
  0
POLYLINE
  8
0
  6
CONTINUOUS
 66
     1
 40
0.000000
 41
0.000000
  0
VERTEX
  8
0
  6
CONTINUOUS
 10
3.814197
 20
6.733961
  0
VERTEX
  8
0
  6
CONTINUOUS
 10
3.811961
 20
7.484166
  0
VERTEX
  8
0
  6
CONTINUOUS
 10
3.830967
 20
7.455097
  0
VERTEX
  8
0
  6
CONTINUOUS
 10
3.832644
 20
6.704892
  0
VERTEX
  8
0
  6
CONTINUOUS
 10
3.814197
 20
6.733961
  0
SEQEND
  8
0
  0
SOLID
  8
0
 62
    15
 10
3.832644
 20
6.704892
 11
3.830967
 21
7.455097
 12
3.845502
 22
6.664083
 13
3.843266
 23
7.414289
  0
POLYLINE
  8
0
  6
CONTINUOUS
 66
     1
 40
0.000000
 41
0.000000
  0
VERTEX
  8
0
  6
CONTINUOUS
 10
3.832644
 20
6.704892
  0
VERTEX
  8
0
  6
CONTINUOUS
 10
3.830967
 20
7.455097
  0
VERTEX
  8
0
  6
CONTINUOUS
 10
3.843266
 20
7.414289
  0
VERTEX
  8
0
  6
CONTINUOUS
 10
3.845502
 20
6.664083
  0
VERTEX
  8
0
  6
CONTINUOUS
 10
3.832644
 20
6.704892
  0
SEQEND
  8
0
  0
SOLID
  8
0
 62
    15
 10
3.845502
 20
6.664083
 11
3.843266
 21
7.414289
 12
3.849415
 22
6.657375
 13
3.847179
 23
7.407580
  0
POLYLINE
  8
0
  6
CONTINUOUS
 66
     1
 40
0.000000
 41
0.000000
  0
VERTEX
  8
0
  6
CONTINUOUS
 10
3.845502
 20
6.664083
  0
VERTEX
  8
0
  6
CONTINUOUS
 10
3.843266
 20
7.414289
  0
VERTEX
  8
0
  6
CONTINUOUS
 10
3.847179
 20
7.407580
  0
VERTEX
  8
0
  6
CONTINUOUS
 10
3.849415
 20
6.657375
  0
VERTEX
  8
0
  6
CONTINUOUS
 10
3.845502
 20
6.664083
  0
SEQEND
  8
0
  0
SOLID
  8
0
 62
    15
 10
3.849415
 20
6.657375
 11
3.847179
 21
7.407580
 12
3.893578
 22
6.657375
 13
3.891342
 23
7.407580
  0
POLYLINE
  8
0
  6
CONTINUOUS
 66
     1
 40
0.000000
 41
0.000000
  0
VERTEX
  8
0
  6
CONTINUOUS
 10
3.849415
 20
6.657375
  0
VERTEX
  8
0
  6
CONTINUOUS
 10
3.847179
 20
7.407580
  0
VERTEX
  8
0
  6
CONTINUOUS
 10
3.891342
 20
7.407580
  0
VERTEX
  8
0
  6
CONTINUOUS
 10
3.893578
 20
6.657375
  0
VERTEX
  8
0
  6
CONTINUOUS
 10
3.849415
 20
6.657375
  0
SEQEND
  8
0
  0
SOLID
  8
0
 62
    15
 10
3.893578
 20
6.657375
 11
3.891342
 21
7.407580
 12
3.898050
 22
6.680295
 13
3.895814
 23
7.430500
  0
POLYLINE
  8
0
  6
CONTINUOUS
 66
     1
 40
0.000000
 41
0.000000
  0
VERTEX
  8
0
  6
CONTINUOUS
 10
3.893578
 20
6.657375
  0
VERTEX
  8
0
  6
CONTINUOUS
 10
3.891342
 20
7.407580
  0
VERTEX
  8
0
  6
CONTINUOUS
 10
3.895814
 20
7.430500
  0
VERTEX
  8
0
  6
CONTINUOUS
 10
3.898050
 20
6.680295
  0
VERTEX
  8
0
  6
CONTINUOUS
 10
3.893578
 20
6.657375
  0
SEQEND
  8
0
  0
SOLID
  8
0
 62
    15
 10
3.898050
 20
6.680295
 11
3.895814
 21
7.430500
 12
3.904758
 22
6.699860
 13
3.903081
 23
7.450066
  0
POLYLINE
  8
0
  6
CONTINUOUS
 66
     1
 40
0.000000
 41
0.000000
  0
VERTEX
  8
0
  6
CONTINUOUS
 10
3.898050
 20
6.680295
  0
VERTEX
  8
0
  6
CONTINUOUS
 10
3.895814
 20
7.430500
  0
VERTEX
  8
0
  6
CONTINUOUS
 10
3.903081
 20
7.450066
  0
VERTEX
  8
0
  6
CONTINUOUS
 10
3.904758
 20
6.699860
  0
VERTEX
  8
0
  6
CONTINUOUS
 10
3.898050
 20
6.680295
  0
SEQEND
  8
0
  0
SOLID
  8
0
 62
    15
 10
3.904758
 20
6.699860
 11
3.903081
 21
7.450066
 12
3.923765
 22
6.729488
 13
3.921529
 23
7.479694
  0
POLYLINE
  8
0
  6
CONTINUOUS
 66
     1
 40
0.000000
 41
0.000000
  0
VERTEX
  8
0
  6
CONTINUOUS
 10
3.904758
 20
6.699860
  0
VERTEX
  8
0
  6
CONTINUOUS
 10
3.903081
 20
7.450066
  0
VERTEX
  8
0
  6
CONTINUOUS
 10
3.921529
 20
7.479694
  0
VERTEX
  8
0
  6
CONTINUOUS
 10
3.923765
 20
6.729488
  0
VERTEX
  8
0
  6
CONTINUOUS
 10
3.904758
 20
6.699860
  0
SEQEND
  8
0
  0
SOLID
  8
0
 62
    15
 10
3.923765
 20
6.729488
 11
3.921529
 21
7.479694
 12
3.947244
 22
6.746259
 13
3.945007
 23
7.496465
  0
POLYLINE
  8
0
  6
CONTINUOUS
 66
     1
 40
0.000000
 41
0.000000
  0
VERTEX
  8
0
  6
CONTINUOUS
 10
3.923765
 20
6.729488
  0
VERTEX
  8
0
  6
CONTINUOUS
 10
3.921529
 20
7.479694
  0
VERTEX
  8
0
  6
CONTINUOUS
 10
3.945007
 20
7.496465
  0
VERTEX
  8
0
  6
CONTINUOUS
 10
3.947244
 20
6.746259
  0
VERTEX
  8
0
  6
CONTINUOUS
 10
3.923765
 20
6.729488
  0
SEQEND
  8
0
  0
SOLID
  8
0
 62
    15
 10
3.947244
 20
6.746259
 11
3.945007
 21
7.496465
 12
3.972399
 22
6.751290
 13
3.970163
 23
7.501496
  0
POLYLINE
  8
0
  6
CONTINUOUS
 66
     1
 40
0.000000
 41
0.000000
  0
VERTEX
  8
0
  6
CONTINUOUS
 10
3.947244
 20
6.746259
  0
VERTEX
  8
0
  6
CONTINUOUS
 10
3.945007
 20
7.496465
  0
VERTEX
  8
0
  6
CONTINUOUS
 10
3.970163
 20
7.501496
  0
VERTEX
  8
0
  6
CONTINUOUS
 10
3.972399
 20
6.751290
  0
VERTEX
  8
0
  6
CONTINUOUS
 10
3.947244
 20
6.746259
  0
SEQEND
  8
0
  0
SOLID
  8
0
 62
    15
 10
3.972399
 20
6.751290
 11
3.970163
 21
7.501496
 12
3.996996
 22
6.745141
 13
3.994760
 23
7.495906
  0
POLYLINE
  8
0
  6
CONTINUOUS
 66
     1
 40
0.000000
 41
0.000000
  0
VERTEX
  8
0
  6
CONTINUOUS
 10
3.972399
 20
6.751290
  0
VERTEX
  8
0
  6
CONTINUOUS
 10
3.970163
 20
7.501496
  0
VERTEX
  8
0
  6
CONTINUOUS
 10
3.994760
 20
7.495906
  0
VERTEX
  8
0
  6
CONTINUOUS
 10
3.996996
 20
6.745141
  0
VERTEX
  8
0
  6
CONTINUOUS
 10
3.972399
 20
6.751290
  0
SEQEND
  8
0
  0
SOLID
  8
0
 62
    15
 10
3.996996
 20
6.745141
 11
3.994760
 21
7.495906
 12
4.017680
 22
6.729488
 13
4.015444
 23
7.479694
  0
POLYLINE
  8
0
  6
CONTINUOUS
 66
     1
 40
0.000000
 41
0.000000
  0
VERTEX
  8
0
  6
CONTINUOUS
 10
3.996996
 20
6.745141
  0
VERTEX
  8
0
  6
CONTINUOUS
 10
3.994760
 20
7.495906
  0
VERTEX
  8
0
  6
CONTINUOUS
 10
4.015444
 20
7.479694
  0
VERTEX
  8
0
  6
CONTINUOUS
 10
4.017680
 20
6.729488
  0
VERTEX
  8
0
  6
CONTINUOUS
 10
3.996996
 20
6.745141
  0
SEQEND
  8
0
  0
SOLID
  8
0
 62
    15
 10
4.017680
 20
6.729488
 11
4.015444
 21
7.479694
 12
4.031656
 22
6.703774
 13
4.029979
 23
7.453979
  0
POLYLINE
  8
0
  6
CONTINUOUS
 66
     1
 40
0.000000
 41
0.000000
  0
VERTEX
  8
0
  6
CONTINUOUS
 10
4.017680
 20
6.729488
  0
VERTEX
  8
0
  6
CONTINUOUS
 10
4.015444
 20
7.479694
  0
VERTEX
  8
0
  6
CONTINUOUS
 10
4.029979
 20
7.453979
  0
VERTEX
  8
0
  6
CONTINUOUS
 10
4.031656
 20
6.703774
  0
VERTEX
  8
0
  6
CONTINUOUS
 10
4.017680
 20
6.729488
  0
SEQEND
  8
0
  0
SOLID
  8
0
 62
    15
 10
4.031656
 20
6.703774
 11
4.029979
 21
7.453979
 12
4.037246
 22
6.669114
 13
4.035010
 23
7.419320
  0
POLYLINE
  8
0
  6
CONTINUOUS
 66
     1
 40
0.000000
 41
0.000000
  0
VERTEX
  8
0
  6
CONTINUOUS
 10
4.031656
 20
6.703774
  0
VERTEX
  8
0
  6
CONTINUOUS
 10
4.029979
 20
7.453979
  0
VERTEX
  8
0
  6
CONTINUOUS
 10
4.035010
 20
7.419320
  0
VERTEX
  8
0
  6
CONTINUOUS
 10
4.037246
 20
6.669114
  0
VERTEX
  8
0
  6
CONTINUOUS
 10
4.031656
 20
6.703774
  0
SEQEND
  8
0
  0
SOLID
  8
0
 62
    15
 10
4.037246
 20
6.669114
 11
4.035010
 21
7.419320
 12
4.037246
 22
6.666319
 13
4.035569
 23
7.417084
  0
POLYLINE
  8
0
  6
CONTINUOUS
 66
     1
 40
0.000000
 41
0.000000
  0
VERTEX
  8
0
  6
CONTINUOUS
 10
4.037246
 20
6.669114
  0
VERTEX
  8
0
  6
CONTINUOUS
 10
4.035010
 20
7.419320
  0
VERTEX
  8
0
  6
CONTINUOUS
 10
4.035569
 20
7.417084
  0
VERTEX
  8
0
  6
CONTINUOUS
 10
4.037246
 20
6.666319
  0
VERTEX
  8
0
  6
CONTINUOUS
 10
4.037246
 20
6.669114
  0
SEQEND
  8
0
  0
SOLID
  8
0
 62
    15
 10
4.158553
 20
6.582466
 11
4.156876
 21
7.332672
 12
4.160230
 22
6.578553
 13
4.157994
 23
7.328758
  0
POLYLINE
  8
0
  6
CONTINUOUS
 66
     1
 40
0.000000
 41
0.000000
  0
VERTEX
  8
0
  6
CONTINUOUS
 10
4.158553
 20
6.582466
  0
VERTEX
  8
0
  6
CONTINUOUS
 10
4.156876
 20
7.332672
  0
VERTEX
  8
0
  6
CONTINUOUS
 10
4.157994
 20
7.328758
  0
VERTEX
  8
0
  6
CONTINUOUS
 10
4.160230
 20
6.578553
  0
VERTEX
  8
0
  6
CONTINUOUS
 10
4.158553
 20
6.582466
  0
SEQEND
  8
0
  0
SOLID
  8
0
 62
    15
 10
4.037246
 20
6.666319
 11
4.035569
 21
7.417084
 12
4.158553
 22
6.666319
 13
4.156876
 23
7.417084
  0
POLYLINE
  8
0
  6
CONTINUOUS
 66
     1
 40
0.000000
 41
0.000000
  0
VERTEX
  8
0
  6
CONTINUOUS
 10
4.037246
 20
6.666319
  0
VERTEX
  8
0
  6
CONTINUOUS
 10
4.035569
 20
7.417084
  0
VERTEX
  8
0
  6
CONTINUOUS
 10
4.156876
 20
7.417084
  0
VERTEX
  8
0
  6
CONTINUOUS
 10
4.158553
 20
6.666319
  0
VERTEX
  8
0
  6
CONTINUOUS
 10
4.037246
 20
6.666319
  0
SEQEND
  8
0
  0
SOLID
  8
0
 62
    15
 10
4.160230
 20
6.578553
 11
4.157994
 21
7.328758
 12
5.862448
 22
6.578553
 13
5.860771
 23
7.328758
  0
POLYLINE
  8
0
  6
CONTINUOUS
 66
     1
 40
0.000000
 41
0.000000
  0
VERTEX
  8
0
  6
CONTINUOUS
 10
4.160230
 20
6.578553
  0
VERTEX
  8
0
  6
CONTINUOUS
 10
4.157994
 20
7.328758
  0
VERTEX
  8
0
  6
CONTINUOUS
 10
5.860771
 20
7.328758
  0
VERTEX
  8
0
  6
CONTINUOUS
 10
5.862448
 20
6.578553
  0
VERTEX
  8
0
  6
CONTINUOUS
 10
4.160230
 20
6.578553
  0
SEQEND
  8
0
  0
SOLID
  8
0
 62
    15
 10
2.882869
 20
6.961482
 11
2.880632
 21
7.711687
 12
3.310519
 22
6.961482
 13
3.308842
 23
7.711687
  0
POLYLINE
  8
0
  6
CONTINUOUS
 66
     1
 40
0.000000
 41
0.000000
  0
VERTEX
  8
0
  6
CONTINUOUS
 10
2.882869
 20
6.961482
  0
VERTEX
  8
0
  6
CONTINUOUS
 10
2.880632
 20
7.711687
  0
VERTEX
  8
0
  6
CONTINUOUS
 10
3.308842
 20
7.711687
  0
VERTEX
  8
0
  6
CONTINUOUS
 10
3.310519
 20
6.961482
  0
VERTEX
  8
0
  6
CONTINUOUS
 10
2.882869
 20
6.961482
  0
SEQEND
  8
0
  0
SOLID
  8
0
 62
    15
 10
5.864125
 20
6.584143
 11
5.861889
 21
7.334349
 12
5.864125
 22
6.667996
 13
5.861889
 23
7.418202
  0
POLYLINE
  8
0
  6
CONTINUOUS
 66
     1
 40
0.000000
 41
0.000000
  0
VERTEX
  8
0
  6
CONTINUOUS
 10
5.864125
 20
6.584143
  0
VERTEX
  8
0
  6
CONTINUOUS
 10
5.861889
 20
7.334349
  0
VERTEX
  8
0
  6
CONTINUOUS
 10
5.861889
 20
7.418202
  0
VERTEX
  8
0
  6
CONTINUOUS
 10
5.864125
 20
6.667996
  0
VERTEX
  8
0
  6
CONTINUOUS
 10
5.864125
 20
6.584143
  0
SEQEND
  8
0
  0
SOLID
  8
0
 62
    15
 10
5.864125
 20
6.667996
 11
5.861889
 21
7.418202
 12
5.985432
 22
6.667996
 13
5.983196
 23
7.418202
  0
POLYLINE
  8
0
  6
CONTINUOUS
 66
     1
 40
0.000000
 41
0.000000
  0
VERTEX
  8
0
  6
CONTINUOUS
 10
5.864125
 20
6.667996
  0
VERTEX
  8
0
  6
CONTINUOUS
 10
5.861889
 20
7.418202
  0
VERTEX
  8
0
  6
CONTINUOUS
 10
5.983196
 20
7.418202
  0
VERTEX
  8
0
  6
CONTINUOUS
 10
5.985432
 20
6.667996
  0
VERTEX
  8
0
  6
CONTINUOUS
 10
5.864125
 20
6.667996
  0
SEQEND
  8
0
  0
SOLID
  8
0
 62
    15
 10
5.985432
 20
6.667996
 11
5.983196
 21
7.418202
 12
5.985432
 22
6.670791
 13
5.983196
 23
7.420997
  0
POLYLINE
  8
0
  6
CONTINUOUS
 66
     1
 40
0.000000
 41
0.000000
  0
VERTEX
  8
0
  6
CONTINUOUS
 10
5.985432
 20
6.667996
  0
VERTEX
  8
0
  6
CONTINUOUS
 10
5.983196
 20
7.418202
  0
VERTEX
  8
0
  6
CONTINUOUS
 10
5.983196
 20
7.420997
  0
VERTEX
  8
0
  6
CONTINUOUS
 10
5.985432
 20
6.670791
  0
VERTEX
  8
0
  6
CONTINUOUS
 10
5.985432
 20
6.667996
  0
SEQEND
  8
0
  0
SOLID
  8
0
 62
    15
 10
5.985432
 20
6.670791
 11
5.983196
 21
7.420997
 12
5.991022
 22
6.704892
 13
5.988786
 23
7.455097
  0
POLYLINE
  8
0
  6
CONTINUOUS
 66
     1
 40
0.000000
 41
0.000000
  0
VERTEX
  8
0
  6
CONTINUOUS
 10
5.985432
 20
6.670791
  0
VERTEX
  8
0
  6
CONTINUOUS
 10
5.983196
 20
7.420997
  0
VERTEX
  8
0
  6
CONTINUOUS
 10
5.988786
 20
7.455097
  0
VERTEX
  8
0
  6
CONTINUOUS
 10
5.991022
 20
6.704892
  0
VERTEX
  8
0
  6
CONTINUOUS
 10
5.985432
 20
6.670791
  0
SEQEND
  8
0
  0
SOLID
  8
0
 62
    15
 10
5.991022
 20
6.704892
 11
5.988786
 21
7.455097
 12
6.004998
 22
6.730606
 13
6.003321
 23
7.480812
  0
POLYLINE
  8
0
  6
CONTINUOUS
 66
     1
 40
0.000000
 41
0.000000
  0
VERTEX
  8
0
  6
CONTINUOUS
 10
5.991022
 20
6.704892
  0
VERTEX
  8
0
  6
CONTINUOUS
 10
5.988786
 20
7.455097
  0
VERTEX
  8
0
  6
CONTINUOUS
 10
6.003321
 20
7.480812
  0
VERTEX
  8
0
  6
CONTINUOUS
 10
6.004998
 20
6.730606
  0
VERTEX
  8
0
  6
CONTINUOUS
 10
5.991022
 20
6.704892
  0
SEQEND
  8
0
  0
SOLID
  8
0
 62
    15
 10
6.004998
 20
6.730606
 11
6.003321
 21
7.480812
 12
6.026241
 22
6.746818
 13
6.024005
 23
7.497024
  0
POLYLINE
  8
0
  6
CONTINUOUS
 66
     1
 40
0.000000
 41
0.000000
  0
VERTEX
  8
0
  6
CONTINUOUS
 10
6.004998
 20
6.730606
  0
VERTEX
  8
0
  6
CONTINUOUS
 10
6.003321
 20
7.480812
  0
VERTEX
  8
0
  6
CONTINUOUS
 10
6.024005
 20
7.497024
  0
VERTEX
  8
0
  6
CONTINUOUS
 10
6.026241
 20
6.746818
  0
VERTEX
  8
0
  6
CONTINUOUS
 10
6.004998
 20
6.730606
  0
SEQEND
  8
0
  0
SOLID
  8
0
 62
    15
 10
6.026241
 20
6.746818
 11
6.024005
 21
7.497024
 12
6.050279
 22
6.752408
 13
6.048042
 23
7.502614
  0
POLYLINE
  8
0
  6
CONTINUOUS
 66
     1
 40
0.000000
 41
0.000000
  0
VERTEX
  8
0
  6
CONTINUOUS
 10
6.026241
 20
6.746818
  0
VERTEX
  8
0
  6
CONTINUOUS
 10
6.024005
 20
7.497024
  0
VERTEX
  8
0
  6
CONTINUOUS
 10
6.048042
 20
7.502614
  0
VERTEX
  8
0
  6
CONTINUOUS
 10
6.050279
 20
6.752408
  0
VERTEX
  8
0
  6
CONTINUOUS
 10
6.026241
 20
6.746818
  0
SEQEND
  8
0
  0
SOLID
  8
0
 62
    15
 10
6.050279
 20
6.752408
 11
6.048042
 21
7.502614
 12
6.075434
 22
6.747377
 13
6.073757
 23
7.497583
  0
POLYLINE
  8
0
  6
CONTINUOUS
 66
     1
 40
0.000000
 41
0.000000
  0
VERTEX
  8
0
  6
CONTINUOUS
 10
6.050279
 20
6.752408
  0
VERTEX
  8
0
  6
CONTINUOUS
 10
6.048042
 20
7.502614
  0
VERTEX
  8
0
  6
CONTINUOUS
 10
6.073757
 20
7.497583
  0
VERTEX
  8
0
  6
CONTINUOUS
 10
6.075434
 20
6.747377
  0
VERTEX
  8
0
  6
CONTINUOUS
 10
6.050279
 20
6.752408
  0
SEQEND
  8
0
  0
SOLID
  8
0
 62
    15
 10
6.075434
 20
6.747377
 11
6.073757
 21
7.497583
 12
6.098913
 22
6.730606
 13
6.096677
 23
7.480812
  0
POLYLINE
  8
0
  6
CONTINUOUS
 66
     1
 40
0.000000
 41
0.000000
  0
VERTEX
  8
0
  6
CONTINUOUS
 10
6.075434
 20
6.747377
  0
VERTEX
  8
0
  6
CONTINUOUS
 10
6.073757
 20
7.497583
  0
VERTEX
  8
0
  6
CONTINUOUS
 10
6.096677
 20
7.480812
  0
VERTEX
  8
0
  6
CONTINUOUS
 10
6.098913
 20
6.730606
  0
VERTEX
  8
0
  6
CONTINUOUS
 10
6.075434
 20
6.747377
  0
SEQEND
  8
0
  0
SOLID
  8
0
 62
    15
 10
6.098913
 20
6.730606
 11
6.096677
 21
7.480812
 12
6.117920
 22
6.700978
 13
6.115684
 23
7.451743
  0
POLYLINE
  8
0
  6
CONTINUOUS
 66
     1
 40
0.000000
 41
0.000000
  0
VERTEX
  8
0
  6
CONTINUOUS
 10
6.098913
 20
6.730606
  0
VERTEX
  8
0
  6
CONTINUOUS
 10
6.096677
 20
7.480812
  0
VERTEX
  8
0
  6
CONTINUOUS
 10
6.115684
 20
7.451743
  0
VERTEX
  8
0
  6
CONTINUOUS
 10
6.117920
 20
6.700978
  0
VERTEX
  8
0
  6
CONTINUOUS
 10
6.098913
 20
6.730606
  0
SEQEND
  8
0
  0
SOLID
  8
0
 62
    15
 10
6.129100
 20
6.658493
 11
6.127423
 21
7.408698
 12
6.173263
 22
6.658493
 13
6.171027
 23
7.408698
  0
POLYLINE
  8
0
  6
CONTINUOUS
 66
     1
 40
0.000000
 41
0.000000
  0
VERTEX
  8
0
  6
CONTINUOUS
 10
6.129100
 20
6.658493
  0
VERTEX
  8
0
  6
CONTINUOUS
 10
6.127423
 20
7.408698
  0
VERTEX
  8
0
  6
CONTINUOUS
 10
6.171027
 20
7.408698
  0
VERTEX
  8
0
  6
CONTINUOUS
 10
6.173263
 20
6.658493
  0
VERTEX
  8
0
  6
CONTINUOUS
 10
6.129100
 20
6.658493
  0
SEQEND
  8
0
  0
SOLID
  8
0
 62
    15
 10
6.124628
 20
6.681413
 11
6.122392
 21
7.432177
 12
6.129100
 22
6.658493
 13
6.127423
 23
7.408698
  0
POLYLINE
  8
0
  6
CONTINUOUS
 66
     1
 40
0.000000
 41
0.000000
  0
VERTEX
  8
0
  6
CONTINUOUS
 10
6.124628
 20
6.681413
  0
VERTEX
  8
0
  6
CONTINUOUS
 10
6.122392
 20
7.432177
  0
VERTEX
  8
0
  6
CONTINUOUS
 10
6.127423
 20
7.408698
  0
VERTEX
  8
0
  6
CONTINUOUS
 10
6.129100
 20
6.658493
  0
VERTEX
  8
0
  6
CONTINUOUS
 10
6.124628
 20
6.681413
  0
SEQEND
  8
0
  0
SOLID
  8
0
 62
    15
 10
6.117920
 20
6.700978
 11
6.115684
 21
7.451743
 12
6.124628
 22
6.681413
 13
6.122392
 23
7.432177
  0
POLYLINE
  8
0
  6
CONTINUOUS
 66
     1
 40
0.000000
 41
0.000000
  0
VERTEX
  8
0
  6
CONTINUOUS
 10
6.117920
 20
6.700978
  0
VERTEX
  8
0
  6
CONTINUOUS
 10
6.115684
 20
7.451743
  0
VERTEX
  8
0
  6
CONTINUOUS
 10
6.122392
 20
7.432177
  0
VERTEX
  8
0
  6
CONTINUOUS
 10
6.124628
 20
6.681413
  0
VERTEX
  8
0
  6
CONTINUOUS
 10
6.117920
 20
6.700978
  0
SEQEND
  8
0
  0
SOLID
  8
0
 62
    15
 10
6.173263
 20
6.658493
 11
6.171027
 21
7.408698
 12
6.177176
 22
6.665201
 13
6.175499
 23
7.415407
  0
POLYLINE
  8
0
  6
CONTINUOUS
 66
     1
 40
0.000000
 41
0.000000
  0
VERTEX
  8
0
  6
CONTINUOUS
 10
6.173263
 20
6.658493
  0
VERTEX
  8
0
  6
CONTINUOUS
 10
6.171027
 20
7.408698
  0
VERTEX
  8
0
  6
CONTINUOUS
 10
6.175499
 20
7.415407
  0
VERTEX
  8
0
  6
CONTINUOUS
 10
6.177176
 20
6.665201
  0
VERTEX
  8
0
  6
CONTINUOUS
 10
6.173263
 20
6.658493
  0
SEQEND
  8
0
  0
SOLID
  8
0
 62
    15
 10
6.177176
 20
6.665201
 11
6.175499
 21
7.415407
 12
6.190034
 22
6.706010
 13
6.187798
 23
7.456774
  0
POLYLINE
  8
0
  6
CONTINUOUS
 66
     1
 40
0.000000
 41
0.000000
  0
VERTEX
  8
0
  6
CONTINUOUS
 10
6.177176
 20
6.665201
  0
VERTEX
  8
0
  6
CONTINUOUS
 10
6.175499
 20
7.415407
  0
VERTEX
  8
0
  6
CONTINUOUS
 10
6.187798
 20
7.456774
  0
VERTEX
  8
0
  6
CONTINUOUS
 10
6.190034
 20
6.706010
  0
VERTEX
  8
0
  6
CONTINUOUS
 10
6.177176
 20
6.665201
  0
SEQEND
  8
0
  0
SOLID
  8
0
 62
    15
 10
6.190034
 20
6.706010
 11
6.187798
 21
7.456774
 12
6.208481
 22
6.735079
 13
6.206804
 23
7.485284
  0
POLYLINE
  8
0
  6
CONTINUOUS
 66
     1
 40
0.000000
 41
0.000000
  0
VERTEX
  8
0
  6
CONTINUOUS
 10
6.190034
 20
6.706010
  0
VERTEX
  8
0
  6
CONTINUOUS
 10
6.187798
 20
7.456774
  0
VERTEX
  8
0
  6
CONTINUOUS
 10
6.206804
 20
7.485284
  0
VERTEX
  8
0
  6
CONTINUOUS
 10
6.208481
 20
6.735079
  0
VERTEX
  8
0
  6
CONTINUOUS
 10
6.190034
 20
6.706010
  0
SEQEND
  8
0
  0
SOLID
  8
0
 62
    15
 10
6.208481
 20
6.735079
 11
6.206804
 21
7.485284
 12
6.231960
 22
6.752408
 13
6.229724
 23
7.502614
  0
POLYLINE
  8
0
  6
CONTINUOUS
 66
     1
 40
0.000000
 41
0.000000
  0
VERTEX
  8
0
  6
CONTINUOUS
 10
6.208481
 20
6.735079
  0
VERTEX
  8
0
  6
CONTINUOUS
 10
6.206804
 20
7.485284
  0
VERTEX
  8
0
  6
CONTINUOUS
 10
6.229724
 20
7.502614
  0
VERTEX
  8
0
  6
CONTINUOUS
 10
6.231960
 20
6.752408
  0
VERTEX
  8
0
  6
CONTINUOUS
 10
6.208481
 20
6.735079
  0
SEQEND
  8
0
  0
SOLID
  8
0
 62
    15
 10
6.231960
 20
6.752408
 11
6.229724
 21
7.502614
 12
6.256557
 22
6.757439
 13
6.254880
 23
7.507645
  0
POLYLINE
  8
0
  6
CONTINUOUS
 66
     1
 40
0.000000
 41
0.000000
  0
VERTEX
  8
0
  6
CONTINUOUS
 10
6.231960
 20
6.752408
  0
VERTEX
  8
0
  6
CONTINUOUS
 10
6.229724
 20
7.502614
  0
VERTEX
  8
0
  6
CONTINUOUS
 10
6.254880
 20
7.507645
  0
VERTEX
  8
0
  6
CONTINUOUS
 10
6.256557
 20
6.757439
  0
VERTEX
  8
0
  6
CONTINUOUS
 10
6.231960
 20
6.752408
  0
SEQEND
  8
0
  0
SOLID
  8
0
 62
    15
 10
6.256557
 20
6.757439
 11
6.254880
 21
7.507645
 12
6.281713
 22
6.750731
 13
6.279477
 23
7.500937
  0
POLYLINE
  8
0
  6
CONTINUOUS
 66
     1
 40
0.000000
 41
0.000000
  0
VERTEX
  8
0
  6
CONTINUOUS
 10
6.256557
 20
6.757439
  0
VERTEX
  8
0
  6
CONTINUOUS
 10
6.254880
 20
7.507645
  0
VERTEX
  8
0
  6
CONTINUOUS
 10
6.279477
 20
7.500937
  0
VERTEX
  8
0
  6
CONTINUOUS
 10
6.281713
 20
6.750731
  0
VERTEX
  8
0
  6
CONTINUOUS
 10
6.256557
 20
6.757439
  0
SEQEND
  8
0
  0
SOLID
  8
0
 62
    15
 10
6.281713
 20
6.750731
 11
6.279477
 21
7.500937
 12
6.303515
 22
6.731725
 13
6.301838
 23
7.481930
  0
POLYLINE
  8
0
  6
CONTINUOUS
 66
     1
 40
0.000000
 41
0.000000
  0
VERTEX
  8
0
  6
CONTINUOUS
 10
6.281713
 20
6.750731
  0
VERTEX
  8
0
  6
CONTINUOUS
 10
6.279477
 20
7.500937
  0
VERTEX
  8
0
  6
CONTINUOUS
 10
6.301838
 20
7.481930
  0
VERTEX
  8
0
  6
CONTINUOUS
 10
6.303515
 20
6.731725
  0
VERTEX
  8
0
  6
CONTINUOUS
 10
6.281713
 20
6.750731
  0
SEQEND
  8
0
  0
SOLID
  8
0
 62
    15
 10
6.303515
 20
6.731725
 11
6.301838
 21
7.481930
 12
6.321404
 22
6.700978
 13
6.319167
 23
7.451184
  0
POLYLINE
  8
0
  6
CONTINUOUS
 66
     1
 40
0.000000
 41
0.000000
  0
VERTEX
  8
0
  6
CONTINUOUS
 10
6.303515
 20
6.731725
  0
VERTEX
  8
0
  6
CONTINUOUS
 10
6.301838
 20
7.481930
  0
VERTEX
  8
0
  6
CONTINUOUS
 10
6.319167
 20
7.451184
  0
VERTEX
  8
0
  6
CONTINUOUS
 10
6.321404
 20
6.700978
  0
VERTEX
  8
0
  6
CONTINUOUS
 10
6.303515
 20
6.731725
  0
SEQEND
  8
0
  0
SOLID
  8
0
 62
    15
 10
6.321404
 20
6.700978
 11
6.319167
 21
7.451184
 12
6.332025
 22
6.658493
 13
6.329789
 23
7.408698
  0
POLYLINE
  8
0
  6
CONTINUOUS
 66
     1
 40
0.000000
 41
0.000000
  0
VERTEX
  8
0
  6
CONTINUOUS
 10
6.321404
 20
6.700978
  0
VERTEX
  8
0
  6
CONTINUOUS
 10
6.319167
 20
7.451184
  0
VERTEX
  8
0
  6
CONTINUOUS
 10
6.329789
 20
7.408698
  0
VERTEX
  8
0
  6
CONTINUOUS
 10
6.332025
 20
6.658493
  0
VERTEX
  8
0
  6
CONTINUOUS
 10
6.321404
 20
6.700978
  0
SEQEND
  8
0
  0
SOLID
  8
0
 62
    15
 10
6.332025
 20
6.658493
 11
6.329789
 21
7.408698
 12
6.382896
 22
6.658493
 13
6.380660
 23
7.408698
  0
POLYLINE
  8
0
  6
CONTINUOUS
 66
     1
 40
0.000000
 41
0.000000
  0
VERTEX
  8
0
  6
CONTINUOUS
 10
6.332025
 20
6.658493
  0
VERTEX
  8
0
  6
CONTINUOUS
 10
6.329789
 20
7.408698
  0
VERTEX
  8
0
  6
CONTINUOUS
 10
6.380660
 20
7.408698
  0
VERTEX
  8
0
  6
CONTINUOUS
 10
6.382896
 20
6.658493
  0
VERTEX
  8
0
  6
CONTINUOUS
 10
6.332025
 20
6.658493
  0
SEQEND
  8
0
  0
SOLID
  8
0
 62
    15
 10
6.382896
 20
6.658493
 11
6.380660
 21
7.408698
 12
6.382896
 22
6.660170
 13
6.380660
 23
7.410375
  0
POLYLINE
  8
0
  6
CONTINUOUS
 66
     1
 40
0.000000
 41
0.000000
  0
VERTEX
  8
0
  6
CONTINUOUS
 10
6.382896
 20
6.658493
  0
VERTEX
  8
0
  6
CONTINUOUS
 10
6.380660
 20
7.408698
  0
VERTEX
  8
0
  6
CONTINUOUS
 10
6.380660
 20
7.410375
  0
VERTEX
  8
0
  6
CONTINUOUS
 10
6.382896
 20
6.660170
  0
VERTEX
  8
0
  6
CONTINUOUS
 10
6.382896
 20
6.658493
  0
SEQEND
  8
0
  0
SOLID
  8
0
 62
    15
 10
6.382896
 20
6.660170
 11
6.380660
 21
7.410375
 12
6.387927
 22
6.716072
 13
6.386250
 23
7.466277
  0
POLYLINE
  8
0
  6
CONTINUOUS
 66
     1
 40
0.000000
 41
0.000000
  0
VERTEX
  8
0
  6
CONTINUOUS
 10
6.382896
 20
6.660170
  0
VERTEX
  8
0
  6
CONTINUOUS
 10
6.380660
 20
7.410375
  0
VERTEX
  8
0
  6
CONTINUOUS
 10
6.386250
 20
7.466277
  0
VERTEX
  8
0
  6
CONTINUOUS
 10
6.387927
 20
6.716072
  0
VERTEX
  8
0
  6
CONTINUOUS
 10
6.382896
 20
6.660170
  0
SEQEND
  8
0
  0
SOLID
  8
0
 62
    15
 10
6.387927
 20
6.716072
 11
6.386250
 21
7.466277
 12
6.397989
 22
6.765266
 13
6.396312
 23
7.515471
  0
POLYLINE
  8
0
  6
CONTINUOUS
 66
     1
 40
0.000000
 41
0.000000
  0
VERTEX
  8
0
  6
CONTINUOUS
 10
6.387927
 20
6.716072
  0
VERTEX
  8
0
  6
CONTINUOUS
 10
6.386250
 20
7.466277
  0
VERTEX
  8
0
  6
CONTINUOUS
 10
6.396312
 20
7.515471
  0
VERTEX
  8
0
  6
CONTINUOUS
 10
6.397989
 20
6.765266
  0
VERTEX
  8
0
  6
CONTINUOUS
 10
6.387927
 20
6.716072
  0
SEQEND
  8
0
  0
SOLID
  8
0
 62
    15
 10
6.397989
 20
6.765266
 11
6.396312
 21
7.515471
 12
6.412524
 22
6.806633
 13
6.410288
 23
7.556839
  0
POLYLINE
  8
0
  6
CONTINUOUS
 66
     1
 40
0.000000
 41
0.000000
  0
VERTEX
  8
0
  6
CONTINUOUS
 10
6.397989
 20
6.765266
  0
VERTEX
  8
0
  6
CONTINUOUS
 10
6.396312
 20
7.515471
  0
VERTEX
  8
0
  6
CONTINUOUS
 10
6.410288
 20
7.556839
  0
VERTEX
  8
0
  6
CONTINUOUS
 10
6.412524
 20
6.806633
  0
VERTEX
  8
0
  6
CONTINUOUS
 10
6.397989
 20
6.765266
  0
SEQEND
  8
0
  0
SOLID
  8
0
 62
    15
 10
6.412524
 20
6.806633
 11
6.410288
 21
7.556839
 12
6.429853
 22
6.841852
 13
6.427617
 23
7.592057
  0
POLYLINE
  8
0
  6
CONTINUOUS
 66
     1
 40
0.000000
 41
0.000000
  0
VERTEX
  8
0
  6
CONTINUOUS
 10
6.412524
 20
6.806633
  0
VERTEX
  8
0
  6
CONTINUOUS
 10
6.410288
 20
7.556839
  0
VERTEX
  8
0
  6
CONTINUOUS
 10
6.427617
 20
7.592057
  0
VERTEX
  8
0
  6
CONTINUOUS
 10
6.429853
 20
6.841852
  0
VERTEX
  8
0
  6
CONTINUOUS
 10
6.412524
 20
6.806633
  0
SEQEND
  8
0
  0
SOLID
  8
0
 62
    15
 10
6.429853
 20
6.841852
 11
6.427617
 21
7.592057
 12
6.449978
 22
6.869803
 13
6.448301
 23
7.620008
  0
POLYLINE
  8
0
  6
CONTINUOUS
 66
     1
 40
0.000000
 41
0.000000
  0
VERTEX
  8
0
  6
CONTINUOUS
 10
6.429853
 20
6.841852
  0
VERTEX
  8
0
  6
CONTINUOUS
 10
6.427617
 20
7.592057
  0
VERTEX
  8
0
  6
CONTINUOUS
 10
6.448301
 20
7.620008
  0
VERTEX
  8
0
  6
CONTINUOUS
 10
6.449978
 20
6.869803
  0
VERTEX
  8
0
  6
CONTINUOUS
 10
6.429853
 20
6.841852
  0
SEQEND
  8
0
  0
SOLID
  8
0
 62
    15
 10
6.449978
 20
6.869803
 11
6.448301
 21
7.620008
 12
6.472339
 22
6.891604
 13
6.470103
 23
7.642369
  0
POLYLINE
  8
0
  6
CONTINUOUS
 66
     1
 40
0.000000
 41
0.000000
  0
VERTEX
  8
0
  6
CONTINUOUS
 10
6.449978
 20
6.869803
  0
VERTEX
  8
0
  6
CONTINUOUS
 10
6.448301
 20
7.620008
  0
VERTEX
  8
0
  6
CONTINUOUS
 10
6.470103
 20
7.642369
  0
VERTEX
  8
0
  6
CONTINUOUS
 10
6.472339
 20
6.891604
  0
VERTEX
  8
0
  6
CONTINUOUS
 10
6.449978
 20
6.869803
  0
SEQEND
  8
0
  0
SOLID
  8
0
 62
    15
 10
6.472339
 20
6.891604
 11
6.470103
 21
7.642369
 12
6.495818
 22
6.907816
 13
6.493582
 23
7.658021
  0
POLYLINE
  8
0
  6
CONTINUOUS
 66
     1
 40
0.000000
 41
0.000000
  0
VERTEX
  8
0
  6
CONTINUOUS
 10
6.472339
 20
6.891604
  0
VERTEX
  8
0
  6
CONTINUOUS
 10
6.470103
 20
7.642369
  0
VERTEX
  8
0
  6
CONTINUOUS
 10
6.493582
 20
7.658021
  0
VERTEX
  8
0
  6
CONTINUOUS
 10
6.495818
 20
6.907816
  0
VERTEX
  8
0
  6
CONTINUOUS
 10
6.472339
 20
6.891604
  0
SEQEND
  8
0
  0
SOLID
  8
0
 62
    15
 10
6.495818
 20
6.907816
 11
6.493582
 21
7.658021
 12
6.519856
 22
6.917878
 13
6.517620
 23
7.668084
  0
POLYLINE
  8
0
  6
CONTINUOUS
 66
     1
 40
0.000000
 41
0.000000
  0
VERTEX
  8
0
  6
CONTINUOUS
 10
6.495818
 20
6.907816
  0
VERTEX
  8
0
  6
CONTINUOUS
 10
6.493582
 20
7.658021
  0
VERTEX
  8
0
  6
CONTINUOUS
 10
6.517620
 20
7.668084
  0
VERTEX
  8
0
  6
CONTINUOUS
 10
6.519856
 20
6.917878
  0
VERTEX
  8
0
  6
CONTINUOUS
 10
6.495818
 20
6.907816
  0
SEQEND
  8
0
  0
SOLID
  8
0
 62
    15
 10
6.519856
 20
6.917878
 11
6.517620
 21
7.668084
 12
6.543335
 22
6.921791
 13
6.541658
 23
7.672556
  0
POLYLINE
  8
0
  6
CONTINUOUS
 66
     1
 40
0.000000
 41
0.000000
  0
VERTEX
  8
0
  6
CONTINUOUS
 10
6.519856
 20
6.917878
  0
VERTEX
  8
0
  6
CONTINUOUS
 10
6.517620
 20
7.668084
  0
VERTEX
  8
0
  6
CONTINUOUS
 10
6.541658
 20
7.672556
  0
VERTEX
  8
0
  6
CONTINUOUS
 10
6.543335
 20
6.921791
  0
VERTEX
  8
0
  6
CONTINUOUS
 10
6.519856
 20
6.917878
  0
SEQEND
  8
0
  0
SOLID
  8
0
 62
    15
 10
6.543335
 20
6.921791
 11
6.541658
 21
7.672556
 12
6.566254
 22
6.921232
 13
6.564577
 23
7.671438
  0
POLYLINE
  8
0
  6
CONTINUOUS
 66
     1
 40
0.000000
 41
0.000000
  0
VERTEX
  8
0
  6
CONTINUOUS
 10
6.543335
 20
6.921791
  0
VERTEX
  8
0
  6
CONTINUOUS
 10
6.541658
 20
7.672556
  0
VERTEX
  8
0
  6
CONTINUOUS
 10
6.564577
 20
7.671438
  0
VERTEX
  8
0
  6
CONTINUOUS
 10
6.566254
 20
6.921232
  0
VERTEX
  8
0
  6
CONTINUOUS
 10
6.543335
 20
6.921791
  0
SEQEND
  8
0
  0
SOLID
  8
0
 62
    15
 10
6.566254
 20
6.921232
 11
6.564577
 21
7.671438
 12
6.588056
 22
6.915083
 13
6.585820
 23
7.665289
  0
POLYLINE
  8
0
  6
CONTINUOUS
 66
     1
 40
0.000000
 41
0.000000
  0
VERTEX
  8
0
  6
CONTINUOUS
 10
6.566254
 20
6.921232
  0
VERTEX
  8
0
  6
CONTINUOUS
 10
6.564577
 20
7.671438
  0
VERTEX
  8
0
  6
CONTINUOUS
 10
6.585820
 20
7.665289
  0
VERTEX
  8
0
  6
CONTINUOUS
 10
6.588056
 20
6.915083
  0
VERTEX
  8
0
  6
CONTINUOUS
 10
6.566254
 20
6.921232
  0
SEQEND
  8
0
  0
SOLID
  8
0
 62
    15
 10
6.588056
 20
6.915083
 11
6.585820
 21
7.665289
 12
6.607063
 22
6.903903
 13
6.604827
 23
7.654108
  0
POLYLINE
  8
0
  6
CONTINUOUS
 66
     1
 40
0.000000
 41
0.000000
  0
VERTEX
  8
0
  6
CONTINUOUS
 10
6.588056
 20
6.915083
  0
VERTEX
  8
0
  6
CONTINUOUS
 10
6.585820
 20
7.665289
  0
VERTEX
  8
0
  6
CONTINUOUS
 10
6.604827
 20
7.654108
  0
VERTEX
  8
0
  6
CONTINUOUS
 10
6.607063
 20
6.903903
  0
VERTEX
  8
0
  6
CONTINUOUS
 10
6.588056
 20
6.915083
  0
SEQEND
  8
0
  0
SOLID
  8
0
 62
    15
 10
6.607063
 20
6.903903
 11
6.604827
 21
7.654108
 12
6.623275
 22
6.888809
 13
6.621038
 23
7.639015
  0
POLYLINE
  8
0
  6
CONTINUOUS
 66
     1
 40
0.000000
 41
0.000000
  0
VERTEX
  8
0
  6
CONTINUOUS
 10
6.607063
 20
6.903903
  0
VERTEX
  8
0
  6
CONTINUOUS
 10
6.604827
 20
7.654108
  0
VERTEX
  8
0
  6
CONTINUOUS
 10
6.621038
 20
7.639015
  0
VERTEX
  8
0
  6
CONTINUOUS
 10
6.623275
 20
6.888809
  0
VERTEX
  8
0
  6
CONTINUOUS
 10
6.607063
 20
6.903903
  0
SEQEND
  8
0
  0
SOLID
  8
0
 62
    15
 10
6.623275
 20
6.888809
 11
6.621038
 21
7.639015
 12
6.635573
 22
6.868685
 13
6.633337
 23
7.618890
  0
POLYLINE
  8
0
  6
CONTINUOUS
 66
     1
 40
0.000000
 41
0.000000
  0
VERTEX
  8
0
  6
CONTINUOUS
 10
6.623275
 20
6.888809
  0
VERTEX
  8
0
  6
CONTINUOUS
 10
6.621038
 20
7.639015
  0
VERTEX
  8
0
  6
CONTINUOUS
 10
6.633337
 20
7.618890
  0
VERTEX
  8
0
  6
CONTINUOUS
 10
6.635573
 20
6.868685
  0
VERTEX
  8
0
  6
CONTINUOUS
 10
6.623275
 20
6.888809
  0
SEQEND
  8
0
  0
SOLID
  8
0
 62
    15
 10
6.646753
 20
6.814460
 11
6.644517
 21
7.564665
 12
6.708246
 22
6.814460
 13
6.706010
 23
7.564665
  0
POLYLINE
  8
0
  6
CONTINUOUS
 66
     1
 40
0.000000
 41
0.000000
  0
VERTEX
  8
0
  6
CONTINUOUS
 10
6.646753
 20
6.814460
  0
VERTEX
  8
0
  6
CONTINUOUS
 10
6.644517
 20
7.564665
  0
VERTEX
  8
0
  6
CONTINUOUS
 10
6.706010
 20
7.564665
  0
VERTEX
  8
0
  6
CONTINUOUS
 10
6.708246
 20
6.814460
  0
VERTEX
  8
0
  6
CONTINUOUS
 10
6.646753
 20
6.814460
  0
SEQEND
  8
0
  0
SOLID
  8
0
 62
    15
 10
6.643399
 20
6.845206
 11
6.641722
 21
7.595411
 12
6.646753
 22
6.817255
 13
6.644517
 23
7.567460
  0
POLYLINE
  8
0
  6
CONTINUOUS
 66
     1
 40
0.000000
 41
0.000000
  0
VERTEX
  8
0
  6
CONTINUOUS
 10
6.643399
 20
6.845206
  0
VERTEX
  8
0
  6
CONTINUOUS
 10
6.641722
 20
7.595411
  0
VERTEX
  8
0
  6
CONTINUOUS
 10
6.644517
 20
7.567460
  0
VERTEX
  8
0
  6
CONTINUOUS
 10
6.646753
 20
6.817255
  0
VERTEX
  8
0
  6
CONTINUOUS
 10
6.643399
 20
6.845206
  0
SEQEND
  8
0
  0
SOLID
  8
0
 62
    15
 10
6.635573
 20
6.868685
 11
6.633337
 21
7.618890
 12
6.643399
 22
6.845206
 13
6.641722
 23
7.595411
  0
POLYLINE
  8
0
  6
CONTINUOUS
 66
     1
 40
0.000000
 41
0.000000
  0
VERTEX
  8
0
  6
CONTINUOUS
 10
6.635573
 20
6.868685
  0
VERTEX
  8
0
  6
CONTINUOUS
 10
6.633337
 20
7.618890
  0
VERTEX
  8
0
  6
CONTINUOUS
 10
6.641722
 20
7.595411
  0
VERTEX
  8
0
  6
CONTINUOUS
 10
6.643399
 20
6.845206
  0
VERTEX
  8
0
  6
CONTINUOUS
 10
6.635573
 20
6.868685
  0
SEQEND
  8
0
  0
SOLID
  8
0
 62
    15
 10
6.708246
 20
6.814460
 11
6.706010
 21
7.564665
 12
6.708246
 22
6.959805
 13
6.706010
 23
7.710010
  0
POLYLINE
  8
0
  6
CONTINUOUS
 66
     1
 40
0.000000
 41
0.000000
  0
VERTEX
  8
0
  6
CONTINUOUS
 10
6.708246
 20
6.814460
  0
VERTEX
  8
0
  6
CONTINUOUS
 10
6.706010
 20
7.564665
  0
VERTEX
  8
0
  6
CONTINUOUS
 10
6.706010
 20
7.710010
  0
VERTEX
  8
0
  6
CONTINUOUS
 10
6.708246
 20
6.959805
  0
VERTEX
  8
0
  6
CONTINUOUS
 10
6.708246
 20
6.814460
  0
SEQEND
  8
0
  0
SOLID
  8
0
 62
    15
 10
6.708246
 20
6.959805
 11
6.706010
 21
7.710010
 12
6.714954
 22
6.961482
 13
6.712718
 23
7.711687
  0
POLYLINE
  8
0
  6
CONTINUOUS
 66
     1
 40
0.000000
 41
0.000000
  0
VERTEX
  8
0
  6
CONTINUOUS
 10
6.708246
 20
6.959805
  0
VERTEX
  8
0
  6
CONTINUOUS
 10
6.706010
 20
7.710010
  0
VERTEX
  8
0
  6
CONTINUOUS
 10
6.712718
 20
7.711687
  0
VERTEX
  8
0
  6
CONTINUOUS
 10
6.714954
 20
6.961482
  0
VERTEX
  8
0
  6
CONTINUOUS
 10
6.708246
 20
6.959805
  0
SEQEND
  8
0
  0
SOLID
  8
0
 62
    15
 10
6.714954
 20
6.961482
 11
6.712718
 21
7.711687
 12
7.206892
 22
6.961482
 13
7.204656
 23
7.711687
  0
POLYLINE
  8
0
  6
CONTINUOUS
 66
     1
 40
0.000000
 41
0.000000
  0
VERTEX
  8
0
  6
CONTINUOUS
 10
6.714954
 20
6.961482
  0
VERTEX
  8
0
  6
CONTINUOUS
 10
6.712718
 20
7.711687
  0
VERTEX
  8
0
  6
CONTINUOUS
 10
7.204656
 20
7.711687
  0
VERTEX
  8
0
  6
CONTINUOUS
 10
7.206892
 20
6.961482
  0
VERTEX
  8
0
  6
CONTINUOUS
 10
6.714954
 20
6.961482
  0
SEQEND
  8
0
  0
SOLID
  8
0
 62
    15
 10
7.206892
 20
6.961482
 11
7.204656
 21
7.711687
 12
7.215836
 22
6.961482
 13
7.214159
 23
7.711687
  0
POLYLINE
  8
0
  6
CONTINUOUS
 66
     1
 40
0.000000
 41
0.000000
  0
VERTEX
  8
0
  6
CONTINUOUS
 10
7.206892
 20
6.961482
  0
VERTEX
  8
0
  6
CONTINUOUS
 10
7.204656
 20
7.711687
  0
VERTEX
  8
0
  6
CONTINUOUS
 10
7.214159
 20
7.711687
  0
VERTEX
  8
0
  6
CONTINUOUS
 10
7.215836
 20
6.961482
  0
VERTEX
  8
0
  6
CONTINUOUS
 10
7.206892
 20
6.961482
  0
SEQEND
  8
0
  0
POLYLINE
  8
0
  6
CONTINUOUS
 66
     1
 40
0.000000
 41
0.000000
  0
VERTEX
  8
0
  6
CONTINUOUS
 10
7.215836
 20
6.961482
  0
VERTEX
  8
0
  6
CONTINUOUS
 10
7.215836
 20
6.152020
  0
VERTEX
  8
0
  6
CONTINUOUS
 10
2.882869
 20
6.152020
  0
VERTEX
  8
0
  6
CONTINUOUS
 10
2.882869
 20
6.961482
  0
VERTEX
  8
0
  6
CONTINUOUS
 10
3.310519
 20
6.961482
  0
VERTEX
  8
0
  6
CONTINUOUS
 10
3.314991
 20
6.958687
  0
VERTEX
  8
0
  6
CONTINUOUS
 10
3.314991
 20
6.813342
  0
VERTEX
  8
0
  6
CONTINUOUS
 10
3.375925
 20
6.813342
  0
VERTEX
  8
0
  6
CONTINUOUS
 10
3.379279
 20
6.843529
  0
VERTEX
  8
0
  6
CONTINUOUS
 10
3.387105
 20
6.867567
  0
VERTEX
  8
0
  6
CONTINUOUS
 10
3.399403
 20
6.887132
  0
VERTEX
  8
0
  6
CONTINUOUS
 10
3.415615
 20
6.902785
  0
VERTEX
  8
0
  6
CONTINUOUS
 10
3.434622
 20
6.913406
  0
VERTEX
  8
0
  6
CONTINUOUS
 10
3.456424
 20
6.919555
  0
VERTEX
  8
0
  6
CONTINUOUS
 10
3.479343
 20
6.920673
  0
VERTEX
  8
0
  6
CONTINUOUS
 10
3.502822
 20
6.916201
  0
VERTEX
  8
0
  6
CONTINUOUS
 10
3.526860
 20
6.906139
  0
VERTEX
  8
0
  6
CONTINUOUS
 10
3.550339
 20
6.890486
  0
VERTEX
  8
0
  6
CONTINUOUS
 10
3.572700
 20
6.868685
  0
VERTEX
  8
0
  6
CONTINUOUS
 10
3.592825
 20
6.840175
  0
VERTEX
  8
0
  6
CONTINUOUS
 10
3.610154
 20
6.805515
  0
VERTEX
  8
0
  6
CONTINUOUS
 10
3.624689
 20
6.763589
  0
VERTEX
  8
0
  6
CONTINUOUS
 10
3.634751
 20
6.714954
  0
VERTEX
  8
0
  6
CONTINUOUS
 10
3.639782
 20
6.657375
  0
VERTEX
  8
0
  6
CONTINUOUS
 10
3.690653
 20
6.657375
  0
VERTEX
  8
0
  6
CONTINUOUS
 10
3.701275
 20
6.699860
  0
VERTEX
  8
0
  6
CONTINUOUS
 10
3.719163
 20
6.730606
  0
VERTEX
  8
0
  6
CONTINUOUS
 10
3.740965
 20
6.749054
  0
VERTEX
  8
0
  6
CONTINUOUS
 10
3.766121
 20
6.756321
  0
VERTEX
  8
0
  6
CONTINUOUS
 10
3.790718
 20
6.751290
  0
VERTEX
  8
0
  6
CONTINUOUS
 10
3.814197
 20
6.733961
  0
VERTEX
  8
0
  6
CONTINUOUS
 10
3.832644
 20
6.704892
  0
VERTEX
  8
0
  6
CONTINUOUS
 10
3.845502
 20
6.664083
  0
VERTEX
  8
0
  6
CONTINUOUS
 10
3.849415
 20
6.657375
  0
VERTEX
  8
0
  6
CONTINUOUS
 10
3.893578
 20
6.657375
  0
VERTEX
  8
0
  6
CONTINUOUS
 10
3.898050
 20
6.680295
  0
VERTEX
  8
0
  6
CONTINUOUS
 10
3.904758
 20
6.699860
  0
VERTEX
  8
0
  6
CONTINUOUS
 10
3.923765
 20
6.729488
  0
VERTEX
  8
0
  6
CONTINUOUS
 10
3.947244
 20
6.746259
  0
VERTEX
  8
0
  6
CONTINUOUS
 10
3.972399
 20
6.751290
  0
VERTEX
  8
0
  6
CONTINUOUS
 10
3.996996
 20
6.745141
  0
VERTEX
  8
0
  6
CONTINUOUS
 10
4.017680
 20
6.729488
  0
VERTEX
  8
0
  6
CONTINUOUS
 10
4.031656
 20
6.703774
  0
VERTEX
  8
0
  6
CONTINUOUS
 10
4.037246
 20
6.666319
  0
VERTEX
  8
0
  6
CONTINUOUS
 10
4.158553
 20
6.666319
  0
VERTEX
  8
0
  6
CONTINUOUS
 10
4.158553
 20
6.582466
  0
VERTEX
  8
0
  6
CONTINUOUS
 10
4.160230
 20
6.578553
  0
VERTEX
  8
0
  6
CONTINUOUS
 10
5.862448
 20
6.578553
  0
VERTEX
  8
0
  6
CONTINUOUS
 10
5.864125
 20
6.584143
  0
VERTEX
  8
0
  6
CONTINUOUS
 10
5.864125
 20
6.667996
  0
VERTEX
  8
0
  6
CONTINUOUS
 10
5.985432
 20
6.667996
  0
VERTEX
  8
0
  6
CONTINUOUS
 10
5.991022
 20
6.704892
  0
VERTEX
  8
0
  6
CONTINUOUS
 10
6.004998
 20
6.730606
  0
VERTEX
  8
0
  6
CONTINUOUS
 10
6.026241
 20
6.746818
  0
VERTEX
  8
0
  6
CONTINUOUS
 10
6.050279
 20
6.752408
  0
VERTEX
  8
0
  6
CONTINUOUS
 10
6.075434
 20
6.747377
  0
VERTEX
  8
0
  6
CONTINUOUS
 10
6.098913
 20
6.730606
  0
VERTEX
  8
0
  6
CONTINUOUS
 10
6.117920
 20
6.700978
  0
VERTEX
  8
0
  6
CONTINUOUS
 10
6.124628
 20
6.681413
  0
VERTEX
  8
0
  6
CONTINUOUS
 10
6.129100
 20
6.658493
  0
VERTEX
  8
0
  6
CONTINUOUS
 10
6.173263
 20
6.658493
  0
VERTEX
  8
0
  6
CONTINUOUS
 10
6.177176
 20
6.665201
  0
VERTEX
  8
0
  6
CONTINUOUS
 10
6.190034
 20
6.706010
  0
VERTEX
  8
0
  6
CONTINUOUS
 10
6.208481
 20
6.735079
  0
VERTEX
  8
0
  6
CONTINUOUS
 10
6.231960
 20
6.752408
  0
VERTEX
  8
0
  6
CONTINUOUS
 10
6.256557
 20
6.757439
  0
VERTEX
  8
0
  6
CONTINUOUS
 10
6.281713
 20
6.750731
  0
VERTEX
  8
0
  6
CONTINUOUS
 10
6.303515
 20
6.731725
  0
VERTEX
  8
0
  6
CONTINUOUS
 10
6.321404
 20
6.700978
  0
VERTEX
  8
0
  6
CONTINUOUS
 10
6.332025
 20
6.658493
  0
VERTEX
  8
0
  6
CONTINUOUS
 10
6.382896
 20
6.658493
  0
VERTEX
  8
0
  6
CONTINUOUS
 10
6.387927
 20
6.716072
  0
VERTEX
  8
0
  6
CONTINUOUS
 10
6.397989
 20
6.765266
  0
VERTEX
  8
0
  6
CONTINUOUS
 10
6.412524
 20
6.806633
  0
VERTEX
  8
0
  6
CONTINUOUS
 10
6.429853
 20
6.841852
  0
VERTEX
  8
0
  6
CONTINUOUS
 10
6.449978
 20
6.869803
  0
VERTEX
  8
0
  6
CONTINUOUS
 10
6.472339
 20
6.891604
  0
VERTEX
  8
0
  6
CONTINUOUS
 10
6.495818
 20
6.907816
  0
VERTEX
  8
0
  6
CONTINUOUS
 10
6.519856
 20
6.917878
  0
VERTEX
  8
0
  6
CONTINUOUS
 10
6.543335
 20
6.921791
  0
VERTEX
  8
0
  6
CONTINUOUS
 10
6.566254
 20
6.921232
  0
VERTEX
  8
0
  6
CONTINUOUS
 10
6.588056
 20
6.915083
  0
VERTEX
  8
0
  6
CONTINUOUS
 10
6.607063
 20
6.903903
  0
VERTEX
  8
0
  6
CONTINUOUS
 10
6.623275
 20
6.888809
  0
VERTEX
  8
0
  6
CONTINUOUS
 10
6.635573
 20
6.868685
  0
VERTEX
  8
0
  6
CONTINUOUS
 10
6.643399
 20
6.845206
  0
VERTEX
  8
0
  6
CONTINUOUS
 10
6.646753
 20
6.814460
  0
VERTEX
  8
0
  6
CONTINUOUS
 10
6.708246
 20
6.814460
  0
VERTEX
  8
0
  6
CONTINUOUS
 10
6.708246
 20
6.959805
  0
VERTEX
  8
0
  6
CONTINUOUS
 10
6.714954
 20
6.961482
  0
VERTEX
  8
0
  6
CONTINUOUS
 10
7.215836
 20
6.961482
  0
SEQEND
  8
0
  0
TEXT
  8
0
 10
4.752792
 20
5.883131
 40
0.137965
  1
BA  216
 41
1.000000
  7
SN1
 71
     0
 72
     5
 11
5.342583
 21
5.883131
  0
TEXT
  8
0
 10
4.550427
 20
5.691387
 40
0.137965
  1
3/4" x 4-7/16"
 41
1.000000
  7
SN1
 71
     0
 72
     5
 11
5.544519
 21
5.691387
  0
POLYLINE
  8
0
  6
CONTINUOUS
 66
     1
 40
0.013976
 41
0.013976
  0
VERTEX
  8
0
  6
CONTINUOUS
 10
7.200743
 20
8.946005
  0
VERTEX
  8
0
  6
CONTINUOUS
 10
6.708805
 20
8.946005
  0
VERTEX
  8
0
  6
CONTINUOUS
 10
6.702096
 20
8.944887
  0
VERTEX
  8
0
  6
CONTINUOUS
 10
6.702096
 20
8.799541
  0
VERTEX
  8
0
  6
CONTINUOUS
 10
6.641163
 20
8.799541
  0
VERTEX
  8
0
  6
CONTINUOUS
 10
6.637809
 20
8.829728
  0
VERTEX
  8
0
  6
CONTINUOUS
 10
6.629983
 20
8.853766
  0
VERTEX
  8
0
  6
CONTINUOUS
 10
6.617684
 20
8.873332
  0
VERTEX
  8
0
  6
CONTINUOUS
 10
6.601473
 20
8.888985
  0
VERTEX
  8
0
  6
CONTINUOUS
 10
6.581907
 20
8.900165
  0
VERTEX
  8
0
  6
CONTINUOUS
 10
6.560664
 20
8.905755
  0
VERTEX
  8
0
  6
CONTINUOUS
 10
6.537744
 20
8.906873
  0
VERTEX
  8
0
  6
CONTINUOUS
 10
6.514266
 20
8.902401
  0
VERTEX
  8
0
  6
CONTINUOUS
 10
6.490228
 20
8.892898
  0
VERTEX
  8
0
  6
CONTINUOUS
 10
6.466749
 20
8.876686
  0
VERTEX
  8
0
  6
CONTINUOUS
 10
6.444388
 20
8.854884
  0
VERTEX
  8
0
  6
CONTINUOUS
 10
6.424263
 20
8.826933
  0
VERTEX
  8
0
  6
CONTINUOUS
 10
6.406375
 20
8.791715
  0
VERTEX
  8
0
  6
CONTINUOUS
 10
6.392399
 20
8.750347
  0
VERTEX
  8
0
  6
CONTINUOUS
 10
6.382337
 20
8.701713
  0
VERTEX
  8
0
  6
CONTINUOUS
 10
6.376747
 20
8.643575
  0
VERTEX
  8
0
  6
CONTINUOUS
 10
6.326435
 20
8.643575
  0
VERTEX
  8
0
  6
CONTINUOUS
 10
6.319167
 20
8.676557
  0
VERTEX
  8
0
  6
CONTINUOUS
 10
6.307428
 20
8.702831
  0
VERTEX
  8
0
  6
CONTINUOUS
 10
6.292893
 20
8.722396
  0
VERTEX
  8
0
  6
CONTINUOUS
 10
6.276123
 20
8.735254
  0
VERTEX
  8
0
  6
CONTINUOUS
 10
6.263824
 20
8.740285
  0
VERTEX
  8
0
  6
CONTINUOUS
 10
6.250967
 20
8.742521
  0
VERTEX
  8
0
  6
CONTINUOUS
 10
6.238668
 20
8.741403
  0
VERTEX
  8
0
  6
CONTINUOUS
 10
6.225811
 20
8.737490
  0
VERTEX
  8
0
  6
CONTINUOUS
 10
6.208481
 20
8.725751
  0
VERTEX
  8
0
  6
CONTINUOUS
 10
6.192829
 20
8.707303
  0
VERTEX
  8
0
  6
CONTINUOUS
 10
6.180530
 20
8.682147
  0
VERTEX
  8
0
  6
CONTINUOUS
 10
6.171586
 20
8.650283
  0
VERTEX
  8
0
  6
CONTINUOUS
 10
6.167673
 20
8.643575
  0
VERTEX
  8
0
  6
CONTINUOUS
 10
6.123510
 20
8.643575
  0
VERTEX
  8
0
  6
CONTINUOUS
 10
6.115684
 20
8.676557
  0
VERTEX
  8
0
  6
CONTINUOUS
 10
6.103386
 20
8.702272
  0
VERTEX
  8
0
  6
CONTINUOUS
 10
6.093323
 20
8.715688
  0
VERTEX
  8
0
  6
CONTINUOUS
 10
6.082143
 20
8.725751
  0
VERTEX
  8
0
  6
CONTINUOUS
 10
6.069844
 20
8.732459
  0
VERTEX
  8
0
  6
CONTINUOUS
 10
6.057546
 20
8.736372
  0
VERTEX
  8
0
  6
CONTINUOUS
 10
6.044688
 20
8.737490
  0
VERTEX
  8
0
  6
CONTINUOUS
 10
6.032390
 20
8.735813
  0
VERTEX
  8
0
  6
CONTINUOUS
 10
6.020650
 20
8.731900
  0
VERTEX
  8
0
  6
CONTINUOUS
 10
6.009470
 20
8.725192
  0
VERTEX
  8
0
  6
CONTINUOUS
 10
5.991581
 20
8.703949
  0
VERTEX
  8
0
  6
CONTINUOUS
 10
5.983196
 20
8.682147
  0
VERTEX
  8
0
  6
CONTINUOUS
 10
5.979842
 20
8.653078
  0
VERTEX
  8
0
  6
CONTINUOUS
 10
5.858535
 20
8.653078
  0
VERTEX
  8
0
  6
CONTINUOUS
 10
5.858535
 20
8.569225
  0
VERTEX
  8
0
  6
CONTINUOUS
 10
5.856857
 20
8.563635
  0
VERTEX
  8
0
  6
CONTINUOUS
 10
4.154081
 20
8.563635
  0
VERTEX
  8
0
  6
CONTINUOUS
 10
4.152963
 20
8.567548
  0
VERTEX
  8
0
  6
CONTINUOUS
 10
4.152963
 20
8.651401
  0
VERTEX
  8
0
  6
CONTINUOUS
 10
4.031656
 20
8.651401
  0
VERTEX
  8
0
  6
CONTINUOUS
 10
4.028302
 20
8.681029
  0
VERTEX
  8
0
  6
CONTINUOUS
 10
4.019916
 20
8.702831
  0
VERTEX
  8
0
  6
CONTINUOUS
 10
4.011531
 20
8.714570
  0
VERTEX
  8
0
  6
CONTINUOUS
 10
4.002028
 20
8.723514
  0
VERTEX
  8
0
  6
CONTINUOUS
 10
3.990847
 20
8.730223
  0
VERTEX
  8
0
  6
CONTINUOUS
 10
3.979108
 20
8.734695
  0
VERTEX
  8
0
  6
CONTINUOUS
 10
3.966809
 20
8.736372
  0
VERTEX
  8
0
  6
CONTINUOUS
 10
3.953952
 20
8.735254
  0
VERTEX
  8
0
  6
CONTINUOUS
 10
3.941653
 20
8.731341
  0
VERTEX
  8
0
  6
CONTINUOUS
 10
3.929355
 20
8.724633
  0
VERTEX
  8
0
  6
CONTINUOUS
 10
3.912584
 20
8.708421
  0
VERTEX
  8
0
  6
CONTINUOUS
 10
3.899168
 20
8.684942
  0
VERTEX
  8
0
  6
CONTINUOUS
 10
3.889664
 20
8.654196
  0
VERTEX
  8
0
  6
CONTINUOUS
 10
3.887428
 20
8.642457
  0
VERTEX
  8
0
  6
CONTINUOUS
 10
3.843825
 20
8.642457
  0
VERTEX
  8
0
  6
CONTINUOUS
 10
3.839353
 20
8.649165
  0
VERTEX
  8
0
  6
CONTINUOUS
 10
3.830967
 20
8.681029
  0
VERTEX
  8
0
  6
CONTINUOUS
 10
3.813638
 20
8.712893
  0
VERTEX
  8
0
  6
CONTINUOUS
 10
3.797426
 20
8.729105
  0
VERTEX
  8
0
  6
CONTINUOUS
 10
3.785128
 20
8.736372
  0
VERTEX
  8
0
  6
CONTINUOUS
 10
3.772829
 20
8.740285
  0
VERTEX
  8
0
  6
CONTINUOUS
 10
3.760531
 20
8.741403
  0
VERTEX
  8
0
  6
CONTINUOUS
 10
3.747673
 20
8.739167
  0
VERTEX
  8
0
  6
CONTINUOUS
 10
3.735375
 20
8.734136
  0
VERTEX
  8
0
  6
CONTINUOUS
 10
3.718604
 20
8.721278
  0
VERTEX
  8
0
  6
CONTINUOUS
 10
3.704070
 20
8.701713
  0
VERTEX
  8
0
  6
CONTINUOUS
 10
3.692330
 20
8.675439
  0
VERTEX
  8
0
  6
CONTINUOUS
 10
3.685063
 20
8.642457
  0
VERTEX
  8
0
  6
CONTINUOUS
 10
3.634192
 20
8.642457
  0
VERTEX
  8
0
  6
CONTINUOUS
 10
3.628602
 20
8.700036
  0
VERTEX
  8
0
  6
CONTINUOUS
 10
3.618540
 20
8.748670
  0
VERTEX
  8
0
  6
CONTINUOUS
 10
3.604564
 20
8.790597
  0
VERTEX
  8
0
  6
CONTINUOUS
 10
3.587234
 20
8.825256
  0
VERTEX
  8
0
  6
CONTINUOUS
 10
3.566551
 20
8.853207
  0
VERTEX
  8
0
  6
CONTINUOUS
 10
3.544749
 20
8.875568
  0
VERTEX
  8
0
  6
CONTINUOUS
 10
3.521270
 20
8.891221
  0
VERTEX
  8
0
  6
CONTINUOUS
 10
3.497232
 20
8.901283
  0
VERTEX
  8
0
  6
CONTINUOUS
 10
3.473194
 20
8.905755
  0
VERTEX
  8
0
  6
CONTINUOUS
 10
3.450274
 20
8.904637
  0
VERTEX
  8
0
  6
CONTINUOUS
 10
3.429032
 20
8.898488
  0
VERTEX
  8
0
  6
CONTINUOUS
 10
3.410025
 20
8.887866
  0
VERTEX
  8
0
  6
CONTINUOUS
 10
3.393813
 20
8.872214
  0
VERTEX
  8
0
  6
CONTINUOUS
 10
3.381515
 20
8.852648
  0
VERTEX
  8
0
  6
CONTINUOUS
 10
3.373130
 20
8.828610
  0
VERTEX
  8
0
  6
CONTINUOUS
 10
3.370334
 20
8.801218
  0
VERTEX
  8
0
  6
CONTINUOUS
 10
3.370334
 20
8.798423
  0
VERTEX
  8
0
  6
CONTINUOUS
 10
3.308842
 20
8.798423
  0
VERTEX
  8
0
  6
CONTINUOUS
 10
3.308842
 20
8.943769
  0
VERTEX
  8
0
  6
CONTINUOUS
 10
3.304929
 20
8.946005
  0
VERTEX
  8
0
  6
CONTINUOUS
 10
2.876719
 20
8.946005
  0
VERTEX
  8
0
  6
CONTINUOUS
 10
2.876719
 20
8.137102
  0
VERTEX
  8
0
  6
CONTINUOUS
 10
7.210246
 20
8.137102
  0
VERTEX
  8
0
  6
CONTINUOUS
 10
7.210246
 20
8.946005
  0
VERTEX
  8
0
  6
CONTINUOUS
 10
7.200743
 20
8.946005
  0
SEQEND
  8
0
  0
TEXT
  8
0
 10
4.794719
 20
8.371332
 40
0.137965
  1
BA  216
 41
1.000000
  7
SN1
 71
     0
 72
     5
 11
5.384510
 21
8.371332
  0
TEXT
  8
0
 10
4.592912
 20
8.179588
 40
0.137965
  1
3/4" x 4-7/16"
 41
1.000000
  7
SN1
 71
     0
 72
     5
 11
5.587005
 21
8.179588
  0
ENDSEC
  0
EOF
