  0
SECTION
  2
HEADER
  9
$ACADVER
  1
AC1006
  9
$EXTMIN
 10
2.101000
 20
0.585640
  9
$EXTMAX
 10
6.233920
 20
3.867160
  9
$LTSCALE
 40
0.044000
  9
$PDMODE
 70
    35
  9
$PDSIZE
 40
0.035200
  0
ENDSEC
  0
SECTION
  2
TABLES
  0
TABLE
  2
LTYPE
 70
     9
  0
LTYPE
  2
CONTINUOUS
 70
    64
  3
Solid line
 72
    65
 73
     0
 40
0.000000
  0
LTYPE
  2
DASHED
 70
    64
  3
__ __ __ __ __ __ __ __ __ __ __ __ __ __ __
 72
    65
 73
     2
 40
0.000330
 49
0.000220
 49
-0.000110
  0
LTYPE
  2
HIDDEN
 70
    64
  3
 _ _ _ _ _ _ _ _ _ _ _ _ _ _ _ _ _ _ _ _ _ _
 72
    65
 73
     2
 40
0.000165
 49
0.000110
 49
-0.000055
  0
LTYPE
  2
CENTER
 70
    64
  3
____ _ ____ _ ____ _ ____ _ ____ _ ____ _ ____
 72
    65
 73
     4
 40
0.000880
 49
0.000550
 49
-0.000110
 49
0.000110
 49
-0.000110
  0
LTYPE
  2
PHANTOM
 70
    64
  3
_____ _ _ _____ _ _ _____ _ _ _____ _ _ ____
 72
    65
 73
     6
 40
0.001100
 49
0.000550
 49
-0.000110
 49
0.000110
 49
-0.000110
 49
0.000110
 49
-0.000110
  0
LTYPE
  2
DOT
 70
    64
  3
...............................................
 72
    65
 73
     2
 40
0.000110
 49
0.000000
 49
-0.000110
  0
LTYPE
  2
DASHDOT
 70
    64
  3
__ . __ . __ . __ . __ . __ . __ . __ . __ . __
 72
    65
 73
     4
 40
0.000440
 49
0.000220
 49
-0.000110
 49
0.000000
 49
-0.000110
  0
LTYPE
  2
BORDER
 70
    64
  3
__ __ . __ __ . __ __ . __ __ . __ __ . __ __
 72
    65
 73
     6
 40
0.000770
 49
0.000220
 49
-0.000110
 49
0.000220
 49
-0.000110
 49
0.000000
 49
-0.000110
  0
LTYPE
  2
DIVIDE
 70
    64
  3
__ . . __ . . __ . . __ . . __ . . __ . . __
 72
    65
 73
     6
 40
0.000550
 49
0.000220
 49
-0.000110
 49
0.000000
 49
-0.000110
 49
0.000000
 49
-0.000110
  0
LTYPE
  2
DOTDOT
 70
    64
  3
 . .  . .  . .  . .  . .  . . 
 72
    65
 73
     5
 40
0.000242
 49
-0.000110
 49
0.000000
 49
-0.000110
 49
0.000000
 49
-0.000110
  0
ENDTAB
  0
TABLE
  2
STYLE
 70
     2
  0
STYLE
 70
     0
  2
SN0
 40
0.000000
 41
0.000440
 50
0.000000
 71
     0
 42
0.000000
  3
ROMAND
  0
STYLE
 70
    68
  2
SV0
 40
0.000000
 41
0.000440
 50
0.000000
 71
     0
 42
0.000000
  3
ROMAND
  0
ENDTAB
  0
TABLE
  2
LAYER
 70
     3
  0
LAYER
  2
FOREGROUND
 70
    64
 62
     7
  6
CONTINUOUS
  0
LAYER
  2
BACKGROUND
 70
    65
 62
    -7
  6
CONTINUOUS
  0
LAYER
  2
0
 70
    64
 62
     7
  6
CONTINUOUS
  0
ENDTAB
  0
ENDSEC
  0
SECTION
  2
ENTITIES
  0
POLYLINE
  8
FOREGROUND
  6
CONTINUOUS
 66
     1
 40
0.000000
 41
0.000000
  0
VERTEX
  8
FOREGROUND
  6
CONTINUOUS
 10
0.000000
 20
4.452800
  0
VERTEX
  8
FOREGROUND
  6
CONTINUOUS
 10
8.499920
 20
4.452800
  0
VERTEX
  8
FOREGROUND
  6
CONTINUOUS
 10
8.499920
 20
-6.547200
  0
VERTEX
  8
FOREGROUND
  6
CONTINUOUS
 10
0.000000
 20
-6.547200
  0
VERTEX
  8
FOREGROUND
  6
CONTINUOUS
 10
0.000000
 20
4.452800
  0
SEQEND
  8
0
  0
POLYLINE
  8
FOREGROUND
  6
CONTINUOUS
 66
     1
 40
0.000000
 41
0.000000
  0
VERTEX
  8
FOREGROUND
  6
CONTINUOUS
 10
0.000000
 20
4.452800
  0
VERTEX
  8
FOREGROUND
  6
CONTINUOUS
 10
8.499920
 20
4.452800
  0
VERTEX
  8
FOREGROUND
  6
CONTINUOUS
 10
8.499920
 20
-6.547200
  0
VERTEX
  8
FOREGROUND
  6
CONTINUOUS
 10
0.000000
 20
-6.547200
  0
VERTEX
  8
FOREGROUND
  6
CONTINUOUS
 10
0.000000
 20
4.452800
  0
SEQEND
  8
0
  0
SOLID
  8
0
 62
    15
 10
2.836680
 20
1.884520
 11
2.831840
 21
2.622840
 12
2.805880
 22
1.886720
 13
2.800600
 23
2.625040
  0
POLYLINE
  8
0
  6
CONTINUOUS
 66
     1
 40
0.000000
 41
0.000000
  0
VERTEX
  8
0
  6
CONTINUOUS
 10
2.836680
 20
1.884520
  0
VERTEX
  8
0
  6
CONTINUOUS
 10
2.831840
 20
2.622840
  0
VERTEX
  8
0
  6
CONTINUOUS
 10
2.800600
 20
2.625040
  0
VERTEX
  8
0
  6
CONTINUOUS
 10
2.805880
 20
1.886720
  0
VERTEX
  8
0
  6
CONTINUOUS
 10
2.836680
 20
1.884520
  0
SEQEND
  8
0
  0
SOLID
  8
0
 62
    15
 10
6.232160
 20
1.480160
 11
6.227320
 21
2.218480
 12
5.780280
 22
1.885400
 13
5.775440
 23
2.623720
  0
POLYLINE
  8
0
  6
CONTINUOUS
 66
     1
 40
0.000000
 41
0.000000
  0
VERTEX
  8
0
  6
CONTINUOUS
 10
6.232160
 20
1.480160
  0
VERTEX
  8
0
  6
CONTINUOUS
 10
6.227320
 20
2.218480
  0
VERTEX
  8
0
  6
CONTINUOUS
 10
5.775440
 20
2.623720
  0
VERTEX
  8
0
  6
CONTINUOUS
 10
5.780280
 20
1.885400
  0
VERTEX
  8
0
  6
CONTINUOUS
 10
6.232160
 20
1.480160
  0
SEQEND
  8
0
  0
SOLID
  8
0
 62
    15
 10
3.454880
 20
1.752080
 11
3.450040
 21
2.490400
 12
3.393720
 22
1.752080
 13
3.388880
 23
2.490400
  0
POLYLINE
  8
0
  6
CONTINUOUS
 66
     1
 40
0.000000
 41
0.000000
  0
VERTEX
  8
0
  6
CONTINUOUS
 10
3.454880
 20
1.752080
  0
VERTEX
  8
0
  6
CONTINUOUS
 10
3.450040
 20
2.490400
  0
VERTEX
  8
0
  6
CONTINUOUS
 10
3.388880
 20
2.490400
  0
VERTEX
  8
0
  6
CONTINUOUS
 10
3.393720
 20
1.752080
  0
VERTEX
  8
0
  6
CONTINUOUS
 10
3.454880
 20
1.752080
  0
SEQEND
  8
0
  0
SOLID
  8
0
 62
    15
 10
3.454880
 20
1.885400
 11
3.450040
 21
2.623720
 12
3.454880
 22
1.752080
 13
3.450040
 23
2.490400
  0
POLYLINE
  8
0
  6
CONTINUOUS
 66
     1
 40
0.000000
 41
0.000000
  0
VERTEX
  8
0
  6
CONTINUOUS
 10
3.454880
 20
1.885400
  0
VERTEX
  8
0
  6
CONTINUOUS
 10
3.450040
 20
2.623720
  0
VERTEX
  8
0
  6
CONTINUOUS
 10
3.450040
 20
2.490400
  0
VERTEX
  8
0
  6
CONTINUOUS
 10
3.454880
 20
1.752080
  0
VERTEX
  8
0
  6
CONTINUOUS
 10
3.454880
 20
1.885400
  0
SEQEND
  8
0
  0
SOLID
  8
0
 62
    15
 10
5.780280
 20
1.885400
 11
5.775440
 21
2.623720
 12
3.454880
 22
1.885400
 13
3.450040
 23
2.623720
  0
POLYLINE
  8
0
  6
CONTINUOUS
 66
     1
 40
0.000000
 41
0.000000
  0
VERTEX
  8
0
  6
CONTINUOUS
 10
5.780280
 20
1.885400
  0
VERTEX
  8
0
  6
CONTINUOUS
 10
5.775440
 20
2.623720
  0
VERTEX
  8
0
  6
CONTINUOUS
 10
3.450040
 20
2.623720
  0
VERTEX
  8
0
  6
CONTINUOUS
 10
3.454880
 20
1.885400
  0
VERTEX
  8
0
  6
CONTINUOUS
 10
5.780280
 20
1.885400
  0
SEQEND
  8
0
  0
SOLID
  8
0
 62
    15
 10
3.393720
 20
1.752080
 11
3.388880
 21
2.490400
 12
3.392400
 22
1.753400
 13
3.387120
 23
2.491720
  0
POLYLINE
  8
0
  6
CONTINUOUS
 66
     1
 40
0.000000
 41
0.000000
  0
VERTEX
  8
0
  6
CONTINUOUS
 10
3.393720
 20
1.752080
  0
VERTEX
  8
0
  6
CONTINUOUS
 10
3.388880
 20
2.490400
  0
VERTEX
  8
0
  6
CONTINUOUS
 10
3.387120
 20
2.491720
  0
VERTEX
  8
0
  6
CONTINUOUS
 10
3.392400
 20
1.753400
  0
VERTEX
  8
0
  6
CONTINUOUS
 10
3.393720
 20
1.752080
  0
SEQEND
  8
0
  0
SOLID
  8
0
 62
    15
 10
3.392400
 20
1.753400
 11
3.387120
 21
2.491720
 12
3.380960
 22
1.781120
 13
3.376120
 23
2.519440
  0
POLYLINE
  8
0
  6
CONTINUOUS
 66
     1
 40
0.000000
 41
0.000000
  0
VERTEX
  8
0
  6
CONTINUOUS
 10
3.392400
 20
1.753400
  0
VERTEX
  8
0
  6
CONTINUOUS
 10
3.387120
 20
2.491720
  0
VERTEX
  8
0
  6
CONTINUOUS
 10
3.376120
 20
2.519440
  0
VERTEX
  8
0
  6
CONTINUOUS
 10
3.380960
 20
1.781120
  0
VERTEX
  8
0
  6
CONTINUOUS
 10
3.392400
 20
1.753400
  0
SEQEND
  8
0
  0
SOLID
  8
0
 62
    15
 10
3.380960
 20
1.781120
 11
3.376120
 21
2.519440
 12
3.365560
 22
1.806640
 13
3.360720
 23
2.544960
  0
POLYLINE
  8
0
  6
CONTINUOUS
 66
     1
 40
0.000000
 41
0.000000
  0
VERTEX
  8
0
  6
CONTINUOUS
 10
3.380960
 20
1.781120
  0
VERTEX
  8
0
  6
CONTINUOUS
 10
3.376120
 20
2.519440
  0
VERTEX
  8
0
  6
CONTINUOUS
 10
3.360720
 20
2.544960
  0
VERTEX
  8
0
  6
CONTINUOUS
 10
3.365560
 20
1.806640
  0
VERTEX
  8
0
  6
CONTINUOUS
 10
3.380960
 20
1.781120
  0
SEQEND
  8
0
  0
SOLID
  8
0
 62
    15
 10
3.365560
 20
1.806640
 11
3.360720
 21
2.544960
 12
3.346640
 22
1.829080
 13
3.341360
 23
2.567400
  0
POLYLINE
  8
0
  6
CONTINUOUS
 66
     1
 40
0.000000
 41
0.000000
  0
VERTEX
  8
0
  6
CONTINUOUS
 10
3.365560
 20
1.806640
  0
VERTEX
  8
0
  6
CONTINUOUS
 10
3.360720
 20
2.544960
  0
VERTEX
  8
0
  6
CONTINUOUS
 10
3.341360
 20
2.567400
  0
VERTEX
  8
0
  6
CONTINUOUS
 10
3.346640
 20
1.829080
  0
VERTEX
  8
0
  6
CONTINUOUS
 10
3.365560
 20
1.806640
  0
SEQEND
  8
0
  0
SOLID
  8
0
 62
    15
 10
3.346640
 20
1.829080
 11
3.341360
 21
2.567400
 12
3.324200
 22
1.848880
 13
3.319360
 23
2.587200
  0
POLYLINE
  8
0
  6
CONTINUOUS
 66
     1
 40
0.000000
 41
0.000000
  0
VERTEX
  8
0
  6
CONTINUOUS
 10
3.346640
 20
1.829080
  0
VERTEX
  8
0
  6
CONTINUOUS
 10
3.341360
 20
2.567400
  0
VERTEX
  8
0
  6
CONTINUOUS
 10
3.319360
 20
2.587200
  0
VERTEX
  8
0
  6
CONTINUOUS
 10
3.324200
 20
1.848880
  0
VERTEX
  8
0
  6
CONTINUOUS
 10
3.346640
 20
1.829080
  0
SEQEND
  8
0
  0
SOLID
  8
0
 62
    15
 10
3.324200
 20
1.848880
 11
3.319360
 21
2.587200
 12
3.299120
 22
1.864720
 13
3.293840
 23
2.603040
  0
POLYLINE
  8
0
  6
CONTINUOUS
 66
     1
 40
0.000000
 41
0.000000
  0
VERTEX
  8
0
  6
CONTINUOUS
 10
3.324200
 20
1.848880
  0
VERTEX
  8
0
  6
CONTINUOUS
 10
3.319360
 20
2.587200
  0
VERTEX
  8
0
  6
CONTINUOUS
 10
3.293840
 20
2.603040
  0
VERTEX
  8
0
  6
CONTINUOUS
 10
3.299120
 20
1.864720
  0
VERTEX
  8
0
  6
CONTINUOUS
 10
3.324200
 20
1.848880
  0
SEQEND
  8
0
  0
SOLID
  8
0
 62
    15
 10
3.299120
 20
1.864720
 11
3.293840
 21
2.603040
 12
3.271400
 22
1.876600
 13
3.266560
 23
2.614920
  0
POLYLINE
  8
0
  6
CONTINUOUS
 66
     1
 40
0.000000
 41
0.000000
  0
VERTEX
  8
0
  6
CONTINUOUS
 10
3.299120
 20
1.864720
  0
VERTEX
  8
0
  6
CONTINUOUS
 10
3.293840
 20
2.603040
  0
VERTEX
  8
0
  6
CONTINUOUS
 10
3.266560
 20
2.614920
  0
VERTEX
  8
0
  6
CONTINUOUS
 10
3.271400
 20
1.876600
  0
VERTEX
  8
0
  6
CONTINUOUS
 10
3.299120
 20
1.864720
  0
SEQEND
  8
0
  0
SOLID
  8
0
 62
    15
 10
3.271400
 20
1.876600
 11
3.266560
 21
2.614920
 12
3.241920
 22
1.884080
 13
3.237080
 23
2.622400
  0
POLYLINE
  8
0
  6
CONTINUOUS
 66
     1
 40
0.000000
 41
0.000000
  0
VERTEX
  8
0
  6
CONTINUOUS
 10
3.271400
 20
1.876600
  0
VERTEX
  8
0
  6
CONTINUOUS
 10
3.266560
 20
2.614920
  0
VERTEX
  8
0
  6
CONTINUOUS
 10
3.237080
 20
2.622400
  0
VERTEX
  8
0
  6
CONTINUOUS
 10
3.241920
 20
1.884080
  0
VERTEX
  8
0
  6
CONTINUOUS
 10
3.271400
 20
1.876600
  0
SEQEND
  8
0
  0
SOLID
  8
0
 62
    15
 10
3.241920
 20
1.884080
 11
3.237080
 21
2.622400
 12
3.211120
 22
1.886720
 13
3.205840
 23
2.625040
  0
POLYLINE
  8
0
  6
CONTINUOUS
 66
     1
 40
0.000000
 41
0.000000
  0
VERTEX
  8
0
  6
CONTINUOUS
 10
3.241920
 20
1.884080
  0
VERTEX
  8
0
  6
CONTINUOUS
 10
3.237080
 20
2.622400
  0
VERTEX
  8
0
  6
CONTINUOUS
 10
3.205840
 20
2.625040
  0
VERTEX
  8
0
  6
CONTINUOUS
 10
3.211120
 20
1.886720
  0
VERTEX
  8
0
  6
CONTINUOUS
 10
3.241920
 20
1.884080
  0
SEQEND
  8
0
  0
SOLID
  8
0
 62
    15
 10
3.211120
 20
1.886720
 11
3.205840
 21
2.625040
 12
3.180320
 22
1.884520
 13
3.175480
 23
2.622840
  0
POLYLINE
  8
0
  6
CONTINUOUS
 66
     1
 40
0.000000
 41
0.000000
  0
VERTEX
  8
0
  6
CONTINUOUS
 10
3.211120
 20
1.886720
  0
VERTEX
  8
0
  6
CONTINUOUS
 10
3.205840
 20
2.625040
  0
VERTEX
  8
0
  6
CONTINUOUS
 10
3.175480
 20
2.622840
  0
VERTEX
  8
0
  6
CONTINUOUS
 10
3.180320
 20
1.884520
  0
VERTEX
  8
0
  6
CONTINUOUS
 10
3.211120
 20
1.886720
  0
SEQEND
  8
0
  0
SOLID
  8
0
 62
    15
 10
3.180320
 20
1.884520
 11
3.175480
 21
2.622840
 12
3.151280
 22
1.877040
 13
3.146440
 23
2.615360
  0
POLYLINE
  8
0
  6
CONTINUOUS
 66
     1
 40
0.000000
 41
0.000000
  0
VERTEX
  8
0
  6
CONTINUOUS
 10
3.180320
 20
1.884520
  0
VERTEX
  8
0
  6
CONTINUOUS
 10
3.175480
 20
2.622840
  0
VERTEX
  8
0
  6
CONTINUOUS
 10
3.146440
 20
2.615360
  0
VERTEX
  8
0
  6
CONTINUOUS
 10
3.151280
 20
1.877040
  0
VERTEX
  8
0
  6
CONTINUOUS
 10
3.180320
 20
1.884520
  0
SEQEND
  8
0
  0
SOLID
  8
0
 62
    15
 10
3.151280
 20
1.877040
 11
3.146440
 21
2.615360
 12
3.124440
 22
1.865160
 13
3.119160
 23
2.603480
  0
POLYLINE
  8
0
  6
CONTINUOUS
 66
     1
 40
0.000000
 41
0.000000
  0
VERTEX
  8
0
  6
CONTINUOUS
 10
3.151280
 20
1.877040
  0
VERTEX
  8
0
  6
CONTINUOUS
 10
3.146440
 20
2.615360
  0
VERTEX
  8
0
  6
CONTINUOUS
 10
3.119160
 20
2.603480
  0
VERTEX
  8
0
  6
CONTINUOUS
 10
3.124440
 20
1.865160
  0
VERTEX
  8
0
  6
CONTINUOUS
 10
3.151280
 20
1.877040
  0
SEQEND
  8
0
  0
SOLID
  8
0
 62
    15
 10
3.124440
 20
1.865160
 11
3.119160
 21
2.603480
 12
3.099800
 22
1.849320
 13
3.094960
 23
2.587640
  0
POLYLINE
  8
0
  6
CONTINUOUS
 66
     1
 40
0.000000
 41
0.000000
  0
VERTEX
  8
0
  6
CONTINUOUS
 10
3.124440
 20
1.865160
  0
VERTEX
  8
0
  6
CONTINUOUS
 10
3.119160
 20
2.603480
  0
VERTEX
  8
0
  6
CONTINUOUS
 10
3.094960
 20
2.587640
  0
VERTEX
  8
0
  6
CONTINUOUS
 10
3.099800
 20
1.849320
  0
VERTEX
  8
0
  6
CONTINUOUS
 10
3.124440
 20
1.865160
  0
SEQEND
  8
0
  0
SOLID
  8
0
 62
    15
 10
3.099800
 20
1.849320
 11
3.094960
 21
2.587640
 12
3.078680
 22
1.829520
 13
3.073400
 23
2.567840
  0
POLYLINE
  8
0
  6
CONTINUOUS
 66
     1
 40
0.000000
 41
0.000000
  0
VERTEX
  8
0
  6
CONTINUOUS
 10
3.099800
 20
1.849320
  0
VERTEX
  8
0
  6
CONTINUOUS
 10
3.094960
 20
2.587640
  0
VERTEX
  8
0
  6
CONTINUOUS
 10
3.073400
 20
2.567840
  0
VERTEX
  8
0
  6
CONTINUOUS
 10
3.078680
 20
1.829520
  0
VERTEX
  8
0
  6
CONTINUOUS
 10
3.099800
 20
1.849320
  0
SEQEND
  8
0
  0
SOLID
  8
0
 62
    15
 10
3.078680
 20
1.829520
 11
3.073400
 21
2.567840
 12
3.060200
 22
1.807080
 13
3.055360
 23
2.545400
  0
POLYLINE
  8
0
  6
CONTINUOUS
 66
     1
 40
0.000000
 41
0.000000
  0
VERTEX
  8
0
  6
CONTINUOUS
 10
3.078680
 20
1.829520
  0
VERTEX
  8
0
  6
CONTINUOUS
 10
3.073400
 20
2.567840
  0
VERTEX
  8
0
  6
CONTINUOUS
 10
3.055360
 20
2.545400
  0
VERTEX
  8
0
  6
CONTINUOUS
 10
3.060200
 20
1.807080
  0
VERTEX
  8
0
  6
CONTINUOUS
 10
3.078680
 20
1.829520
  0
SEQEND
  8
0
  0
SOLID
  8
0
 62
    15
 10
3.060200
 20
1.807080
 11
3.055360
 21
2.545400
 12
3.045680
 22
1.781560
 13
3.040840
 23
2.519880
  0
POLYLINE
  8
0
  6
CONTINUOUS
 66
     1
 40
0.000000
 41
0.000000
  0
VERTEX
  8
0
  6
CONTINUOUS
 10
3.060200
 20
1.807080
  0
VERTEX
  8
0
  6
CONTINUOUS
 10
3.055360
 20
2.545400
  0
VERTEX
  8
0
  6
CONTINUOUS
 10
3.040840
 20
2.519880
  0
VERTEX
  8
0
  6
CONTINUOUS
 10
3.045680
 20
1.781560
  0
VERTEX
  8
0
  6
CONTINUOUS
 10
3.060200
 20
1.807080
  0
SEQEND
  8
0
  0
SOLID
  8
0
 62
    15
 10
3.045680
 20
1.781560
 11
3.040840
 21
2.519880
 12
3.035120
 22
1.753400
 13
3.029840
 23
2.491720
  0
POLYLINE
  8
0
  6
CONTINUOUS
 66
     1
 40
0.000000
 41
0.000000
  0
VERTEX
  8
0
  6
CONTINUOUS
 10
3.045680
 20
1.781560
  0
VERTEX
  8
0
  6
CONTINUOUS
 10
3.040840
 20
2.519880
  0
VERTEX
  8
0
  6
CONTINUOUS
 10
3.029840
 20
2.491720
  0
VERTEX
  8
0
  6
CONTINUOUS
 10
3.035120
 20
1.753400
  0
VERTEX
  8
0
  6
CONTINUOUS
 10
3.045680
 20
1.781560
  0
SEQEND
  8
0
  0
SOLID
  8
0
 62
    15
 10
3.035120
 20
1.753400
 11
3.029840
 21
2.491720
 12
3.033800
 22
1.753400
 13
3.028520
 23
2.491720
  0
POLYLINE
  8
0
  6
CONTINUOUS
 66
     1
 40
0.000000
 41
0.000000
  0
VERTEX
  8
0
  6
CONTINUOUS
 10
3.035120
 20
1.753400
  0
VERTEX
  8
0
  6
CONTINUOUS
 10
3.029840
 20
2.491720
  0
VERTEX
  8
0
  6
CONTINUOUS
 10
3.028520
 20
2.491720
  0
VERTEX
  8
0
  6
CONTINUOUS
 10
3.033800
 20
1.753400
  0
VERTEX
  8
0
  6
CONTINUOUS
 10
3.035120
 20
1.753400
  0
SEQEND
  8
0
  0
SOLID
  8
0
 62
    15
 10
3.033800
 20
1.753400
 11
3.028520
 21
2.491720
 12
2.987160
 22
1.753400
 13
2.981880
 23
2.491720
  0
POLYLINE
  8
0
  6
CONTINUOUS
 66
     1
 40
0.000000
 41
0.000000
  0
VERTEX
  8
0
  6
CONTINUOUS
 10
3.033800
 20
1.753400
  0
VERTEX
  8
0
  6
CONTINUOUS
 10
3.028520
 20
2.491720
  0
VERTEX
  8
0
  6
CONTINUOUS
 10
2.981880
 20
2.491720
  0
VERTEX
  8
0
  6
CONTINUOUS
 10
2.987160
 20
1.753400
  0
VERTEX
  8
0
  6
CONTINUOUS
 10
3.033800
 20
1.753400
  0
SEQEND
  8
0
  0
SOLID
  8
0
 62
    15
 10
2.987160
 20
1.753400
 11
2.981880
 21
2.491720
 12
2.975720
 22
1.781120
 13
2.970880
 23
2.519440
  0
POLYLINE
  8
0
  6
CONTINUOUS
 66
     1
 40
0.000000
 41
0.000000
  0
VERTEX
  8
0
  6
CONTINUOUS
 10
2.987160
 20
1.753400
  0
VERTEX
  8
0
  6
CONTINUOUS
 10
2.981880
 20
2.491720
  0
VERTEX
  8
0
  6
CONTINUOUS
 10
2.970880
 20
2.519440
  0
VERTEX
  8
0
  6
CONTINUOUS
 10
2.975720
 20
1.781120
  0
VERTEX
  8
0
  6
CONTINUOUS
 10
2.987160
 20
1.753400
  0
SEQEND
  8
0
  0
SOLID
  8
0
 62
    15
 10
2.975720
 20
1.781120
 11
2.970880
 21
2.519440
 12
2.960320
 22
1.806640
 13
2.955480
 23
2.544960
  0
POLYLINE
  8
0
  6
CONTINUOUS
 66
     1
 40
0.000000
 41
0.000000
  0
VERTEX
  8
0
  6
CONTINUOUS
 10
2.975720
 20
1.781120
  0
VERTEX
  8
0
  6
CONTINUOUS
 10
2.970880
 20
2.519440
  0
VERTEX
  8
0
  6
CONTINUOUS
 10
2.955480
 20
2.544960
  0
VERTEX
  8
0
  6
CONTINUOUS
 10
2.960320
 20
1.806640
  0
VERTEX
  8
0
  6
CONTINUOUS
 10
2.975720
 20
1.781120
  0
SEQEND
  8
0
  0
SOLID
  8
0
 62
    15
 10
2.960320
 20
1.806640
 11
2.955480
 21
2.544960
 12
2.941400
 22
1.829080
 13
2.936120
 23
2.567400
  0
POLYLINE
  8
0
  6
CONTINUOUS
 66
     1
 40
0.000000
 41
0.000000
  0
VERTEX
  8
0
  6
CONTINUOUS
 10
2.960320
 20
1.806640
  0
VERTEX
  8
0
  6
CONTINUOUS
 10
2.955480
 20
2.544960
  0
VERTEX
  8
0
  6
CONTINUOUS
 10
2.936120
 20
2.567400
  0
VERTEX
  8
0
  6
CONTINUOUS
 10
2.941400
 20
1.829080
  0
VERTEX
  8
0
  6
CONTINUOUS
 10
2.960320
 20
1.806640
  0
SEQEND
  8
0
  0
SOLID
  8
0
 62
    15
 10
2.941400
 20
1.829080
 11
2.936120
 21
2.567400
 12
2.918960
 22
1.848880
 13
2.913680
 23
2.587200
  0
POLYLINE
  8
0
  6
CONTINUOUS
 66
     1
 40
0.000000
 41
0.000000
  0
VERTEX
  8
0
  6
CONTINUOUS
 10
2.941400
 20
1.829080
  0
VERTEX
  8
0
  6
CONTINUOUS
 10
2.936120
 20
2.567400
  0
VERTEX
  8
0
  6
CONTINUOUS
 10
2.913680
 20
2.587200
  0
VERTEX
  8
0
  6
CONTINUOUS
 10
2.918960
 20
1.848880
  0
VERTEX
  8
0
  6
CONTINUOUS
 10
2.941400
 20
1.829080
  0
SEQEND
  8
0
  0
SOLID
  8
0
 62
    15
 10
2.918960
 20
1.848880
 11
2.913680
 21
2.587200
 12
2.893880
 22
1.864720
 13
2.888600
 23
2.603040
  0
POLYLINE
  8
0
  6
CONTINUOUS
 66
     1
 40
0.000000
 41
0.000000
  0
VERTEX
  8
0
  6
CONTINUOUS
 10
2.918960
 20
1.848880
  0
VERTEX
  8
0
  6
CONTINUOUS
 10
2.913680
 20
2.587200
  0
VERTEX
  8
0
  6
CONTINUOUS
 10
2.888600
 20
2.603040
  0
VERTEX
  8
0
  6
CONTINUOUS
 10
2.893880
 20
1.864720
  0
VERTEX
  8
0
  6
CONTINUOUS
 10
2.918960
 20
1.848880
  0
SEQEND
  8
0
  0
SOLID
  8
0
 62
    15
 10
2.893880
 20
1.864720
 11
2.888600
 21
2.603040
 12
2.866160
 22
1.876600
 13
2.861320
 23
2.614920
  0
POLYLINE
  8
0
  6
CONTINUOUS
 66
     1
 40
0.000000
 41
0.000000
  0
VERTEX
  8
0
  6
CONTINUOUS
 10
2.893880
 20
1.864720
  0
VERTEX
  8
0
  6
CONTINUOUS
 10
2.888600
 20
2.603040
  0
VERTEX
  8
0
  6
CONTINUOUS
 10
2.861320
 20
2.614920
  0
VERTEX
  8
0
  6
CONTINUOUS
 10
2.866160
 20
1.876600
  0
VERTEX
  8
0
  6
CONTINUOUS
 10
2.893880
 20
1.864720
  0
SEQEND
  8
0
  0
SOLID
  8
0
 62
    15
 10
2.866160
 20
1.876600
 11
2.861320
 21
2.614920
 12
2.836680
 22
1.884520
 13
2.831840
 23
2.622840
  0
POLYLINE
  8
0
  6
CONTINUOUS
 66
     1
 40
0.000000
 41
0.000000
  0
VERTEX
  8
0
  6
CONTINUOUS
 10
2.866160
 20
1.876600
  0
VERTEX
  8
0
  6
CONTINUOUS
 10
2.861320
 20
2.614920
  0
VERTEX
  8
0
  6
CONTINUOUS
 10
2.831840
 20
2.622840
  0
VERTEX
  8
0
  6
CONTINUOUS
 10
2.836680
 20
1.884520
  0
VERTEX
  8
0
  6
CONTINUOUS
 10
2.866160
 20
1.876600
  0
SEQEND
  8
0
  0
SOLID
  8
0
 62
    15
 10
6.233480
 20
1.477520
 11
6.228640
 21
2.215840
 12
6.232160
 22
1.480160
 13
6.227320
 23
2.218480
  0
POLYLINE
  8
0
  6
CONTINUOUS
 66
     1
 40
0.000000
 41
0.000000
  0
VERTEX
  8
0
  6
CONTINUOUS
 10
6.233480
 20
1.477520
  0
VERTEX
  8
0
  6
CONTINUOUS
 10
6.228640
 20
2.215840
  0
VERTEX
  8
0
  6
CONTINUOUS
 10
6.227320
 20
2.218480
  0
VERTEX
  8
0
  6
CONTINUOUS
 10
6.232160
 20
1.480160
  0
VERTEX
  8
0
  6
CONTINUOUS
 10
6.233480
 20
1.477520
  0
SEQEND
  8
0
  0
SOLID
  8
0
 62
    15
 10
2.805880
 20
1.886720
 11
2.800600
 21
2.625040
 12
2.775080
 22
1.884520
 13
2.769800
 23
2.622840
  0
POLYLINE
  8
0
  6
CONTINUOUS
 66
     1
 40
0.000000
 41
0.000000
  0
VERTEX
  8
0
  6
CONTINUOUS
 10
2.805880
 20
1.886720
  0
VERTEX
  8
0
  6
CONTINUOUS
 10
2.800600
 20
2.625040
  0
VERTEX
  8
0
  6
CONTINUOUS
 10
2.769800
 20
2.622840
  0
VERTEX
  8
0
  6
CONTINUOUS
 10
2.775080
 20
1.884520
  0
VERTEX
  8
0
  6
CONTINUOUS
 10
2.805880
 20
1.886720
  0
SEQEND
  8
0
  0
SOLID
  8
0
 62
    15
 10
2.775080
 20
1.884520
 11
2.769800
 21
2.622840
 12
2.746040
 22
1.877040
 13
2.741200
 23
2.615360
  0
POLYLINE
  8
0
  6
CONTINUOUS
 66
     1
 40
0.000000
 41
0.000000
  0
VERTEX
  8
0
  6
CONTINUOUS
 10
2.775080
 20
1.884520
  0
VERTEX
  8
0
  6
CONTINUOUS
 10
2.769800
 20
2.622840
  0
VERTEX
  8
0
  6
CONTINUOUS
 10
2.741200
 20
2.615360
  0
VERTEX
  8
0
  6
CONTINUOUS
 10
2.746040
 20
1.877040
  0
VERTEX
  8
0
  6
CONTINUOUS
 10
2.775080
 20
1.884520
  0
SEQEND
  8
0
  0
SOLID
  8
0
 62
    15
 10
2.746040
 20
1.877040
 11
2.741200
 21
2.615360
 12
2.719200
 22
1.865160
 13
2.713920
 23
2.603480
  0
POLYLINE
  8
0
  6
CONTINUOUS
 66
     1
 40
0.000000
 41
0.000000
  0
VERTEX
  8
0
  6
CONTINUOUS
 10
2.746040
 20
1.877040
  0
VERTEX
  8
0
  6
CONTINUOUS
 10
2.741200
 20
2.615360
  0
VERTEX
  8
0
  6
CONTINUOUS
 10
2.713920
 20
2.603480
  0
VERTEX
  8
0
  6
CONTINUOUS
 10
2.719200
 20
1.865160
  0
VERTEX
  8
0
  6
CONTINUOUS
 10
2.746040
 20
1.877040
  0
SEQEND
  8
0
  0
SOLID
  8
0
 62
    15
 10
2.719200
 20
1.865160
 11
2.713920
 21
2.603480
 12
2.694560
 22
1.849320
 13
2.689720
 23
2.587640
  0
POLYLINE
  8
0
  6
CONTINUOUS
 66
     1
 40
0.000000
 41
0.000000
  0
VERTEX
  8
0
  6
CONTINUOUS
 10
2.719200
 20
1.865160
  0
VERTEX
  8
0
  6
CONTINUOUS
 10
2.713920
 20
2.603480
  0
VERTEX
  8
0
  6
CONTINUOUS
 10
2.689720
 20
2.587640
  0
VERTEX
  8
0
  6
CONTINUOUS
 10
2.694560
 20
1.849320
  0
VERTEX
  8
0
  6
CONTINUOUS
 10
2.719200
 20
1.865160
  0
SEQEND
  8
0
  0
SOLID
  8
0
 62
    15
 10
2.694560
 20
1.849320
 11
2.689720
 21
2.587640
 12
2.673440
 22
1.829960
 13
2.668160
 23
2.568280
  0
POLYLINE
  8
0
  6
CONTINUOUS
 66
     1
 40
0.000000
 41
0.000000
  0
VERTEX
  8
0
  6
CONTINUOUS
 10
2.694560
 20
1.849320
  0
VERTEX
  8
0
  6
CONTINUOUS
 10
2.689720
 20
2.587640
  0
VERTEX
  8
0
  6
CONTINUOUS
 10
2.668160
 20
2.568280
  0
VERTEX
  8
0
  6
CONTINUOUS
 10
2.673440
 20
1.829960
  0
VERTEX
  8
0
  6
CONTINUOUS
 10
2.694560
 20
1.849320
  0
SEQEND
  8
0
  0
SOLID
  8
0
 62
    15
 10
2.673440
 20
1.829960
 11
2.668160
 21
2.568280
 12
2.654960
 22
1.807080
 13
2.650120
 23
2.545400
  0
POLYLINE
  8
0
  6
CONTINUOUS
 66
     1
 40
0.000000
 41
0.000000
  0
VERTEX
  8
0
  6
CONTINUOUS
 10
2.673440
 20
1.829960
  0
VERTEX
  8
0
  6
CONTINUOUS
 10
2.668160
 20
2.568280
  0
VERTEX
  8
0
  6
CONTINUOUS
 10
2.650120
 20
2.545400
  0
VERTEX
  8
0
  6
CONTINUOUS
 10
2.654960
 20
1.807080
  0
VERTEX
  8
0
  6
CONTINUOUS
 10
2.673440
 20
1.829960
  0
SEQEND
  8
0
  0
SOLID
  8
0
 62
    15
 10
2.654960
 20
1.807080
 11
2.650120
 21
2.545400
 12
2.640440
 22
1.781560
 13
2.635160
 23
2.519880
  0
POLYLINE
  8
0
  6
CONTINUOUS
 66
     1
 40
0.000000
 41
0.000000
  0
VERTEX
  8
0
  6
CONTINUOUS
 10
2.654960
 20
1.807080
  0
VERTEX
  8
0
  6
CONTINUOUS
 10
2.650120
 20
2.545400
  0
VERTEX
  8
0
  6
CONTINUOUS
 10
2.635160
 20
2.519880
  0
VERTEX
  8
0
  6
CONTINUOUS
 10
2.640440
 20
1.781560
  0
VERTEX
  8
0
  6
CONTINUOUS
 10
2.654960
 20
1.807080
  0
SEQEND
  8
0
  0
SOLID
  8
0
 62
    15
 10
2.640440
 20
1.781560
 11
2.635160
 21
2.519880
 12
2.629880
 22
1.753400
 13
2.624600
 23
2.491720
  0
POLYLINE
  8
0
  6
CONTINUOUS
 66
     1
 40
0.000000
 41
0.000000
  0
VERTEX
  8
0
  6
CONTINUOUS
 10
2.640440
 20
1.781560
  0
VERTEX
  8
0
  6
CONTINUOUS
 10
2.635160
 20
2.519880
  0
VERTEX
  8
0
  6
CONTINUOUS
 10
2.624600
 20
2.491720
  0
VERTEX
  8
0
  6
CONTINUOUS
 10
2.629880
 20
1.753400
  0
VERTEX
  8
0
  6
CONTINUOUS
 10
2.640440
 20
1.781560
  0
SEQEND
  8
0
  0
SOLID
  8
0
 62
    15
 10
2.629880
 20
1.753400
 11
2.624600
 21
2.491720
 12
2.626800
 22
1.752080
 13
2.621960
 23
2.490400
  0
POLYLINE
  8
0
  6
CONTINUOUS
 66
     1
 40
0.000000
 41
0.000000
  0
VERTEX
  8
0
  6
CONTINUOUS
 10
2.629880
 20
1.753400
  0
VERTEX
  8
0
  6
CONTINUOUS
 10
2.624600
 20
2.491720
  0
VERTEX
  8
0
  6
CONTINUOUS
 10
2.621960
 20
2.490400
  0
VERTEX
  8
0
  6
CONTINUOUS
 10
2.626800
 20
1.752080
  0
VERTEX
  8
0
  6
CONTINUOUS
 10
2.629880
 20
1.753400
  0
SEQEND
  8
0
  0
SOLID
  8
0
 62
    15
 10
2.626800
 20
1.752080
 11
2.621960
 21
2.490400
 12
2.576200
 22
1.752080
 13
2.571360
 23
2.490400
  0
POLYLINE
  8
0
  6
CONTINUOUS
 66
     1
 40
0.000000
 41
0.000000
  0
VERTEX
  8
0
  6
CONTINUOUS
 10
2.626800
 20
1.752080
  0
VERTEX
  8
0
  6
CONTINUOUS
 10
2.621960
 20
2.490400
  0
VERTEX
  8
0
  6
CONTINUOUS
 10
2.571360
 20
2.490400
  0
VERTEX
  8
0
  6
CONTINUOUS
 10
2.576200
 20
1.752080
  0
VERTEX
  8
0
  6
CONTINUOUS
 10
2.626800
 20
1.752080
  0
SEQEND
  8
0
  0
SOLID
  8
0
 62
    15
 10
2.576200
 20
1.752080
 11
2.571360
 21
2.490400
 12
2.565200
 22
1.779800
 13
2.560360
 23
2.518120
  0
POLYLINE
  8
0
  6
CONTINUOUS
 66
     1
 40
0.000000
 41
0.000000
  0
VERTEX
  8
0
  6
CONTINUOUS
 10
2.576200
 20
1.752080
  0
VERTEX
  8
0
  6
CONTINUOUS
 10
2.571360
 20
2.490400
  0
VERTEX
  8
0
  6
CONTINUOUS
 10
2.560360
 20
2.518120
  0
VERTEX
  8
0
  6
CONTINUOUS
 10
2.565200
 20
1.779800
  0
VERTEX
  8
0
  6
CONTINUOUS
 10
2.576200
 20
1.752080
  0
SEQEND
  8
0
  0
SOLID
  8
0
 62
    15
 10
2.565200
 20
1.779800
 11
2.560360
 21
2.518120
 12
2.549800
 22
1.805320
 13
2.544960
 23
2.543640
  0
POLYLINE
  8
0
  6
CONTINUOUS
 66
     1
 40
0.000000
 41
0.000000
  0
VERTEX
  8
0
  6
CONTINUOUS
 10
2.565200
 20
1.779800
  0
VERTEX
  8
0
  6
CONTINUOUS
 10
2.560360
 20
2.518120
  0
VERTEX
  8
0
  6
CONTINUOUS
 10
2.544960
 20
2.543640
  0
VERTEX
  8
0
  6
CONTINUOUS
 10
2.549800
 20
1.805320
  0
VERTEX
  8
0
  6
CONTINUOUS
 10
2.565200
 20
1.779800
  0
SEQEND
  8
0
  0
SOLID
  8
0
 62
    15
 10
2.549800
 20
1.805320
 11
2.544960
 21
2.543640
 12
2.530880
 22
1.827760
 13
2.525600
 23
2.566080
  0
POLYLINE
  8
0
  6
CONTINUOUS
 66
     1
 40
0.000000
 41
0.000000
  0
VERTEX
  8
0
  6
CONTINUOUS
 10
2.549800
 20
1.805320
  0
VERTEX
  8
0
  6
CONTINUOUS
 10
2.544960
 20
2.543640
  0
VERTEX
  8
0
  6
CONTINUOUS
 10
2.525600
 20
2.566080
  0
VERTEX
  8
0
  6
CONTINUOUS
 10
2.530880
 20
1.827760
  0
VERTEX
  8
0
  6
CONTINUOUS
 10
2.549800
 20
1.805320
  0
SEQEND
  8
0
  0
SOLID
  8
0
 62
    15
 10
2.530880
 20
1.827760
 11
2.525600
 21
2.566080
 12
2.508440
 22
1.847560
 13
2.503160
 23
2.585880
  0
POLYLINE
  8
0
  6
CONTINUOUS
 66
     1
 40
0.000000
 41
0.000000
  0
VERTEX
  8
0
  6
CONTINUOUS
 10
2.530880
 20
1.827760
  0
VERTEX
  8
0
  6
CONTINUOUS
 10
2.525600
 20
2.566080
  0
VERTEX
  8
0
  6
CONTINUOUS
 10
2.503160
 20
2.585880
  0
VERTEX
  8
0
  6
CONTINUOUS
 10
2.508440
 20
1.847560
  0
VERTEX
  8
0
  6
CONTINUOUS
 10
2.530880
 20
1.827760
  0
SEQEND
  8
0
  0
SOLID
  8
0
 62
    15
 10
2.508440
 20
1.847560
 11
2.503160
 21
2.585880
 12
2.482920
 22
1.863400
 13
2.478080
 23
2.601720
  0
POLYLINE
  8
0
  6
CONTINUOUS
 66
     1
 40
0.000000
 41
0.000000
  0
VERTEX
  8
0
  6
CONTINUOUS
 10
2.508440
 20
1.847560
  0
VERTEX
  8
0
  6
CONTINUOUS
 10
2.503160
 20
2.585880
  0
VERTEX
  8
0
  6
CONTINUOUS
 10
2.478080
 20
2.601720
  0
VERTEX
  8
0
  6
CONTINUOUS
 10
2.482920
 20
1.863400
  0
VERTEX
  8
0
  6
CONTINUOUS
 10
2.508440
 20
1.847560
  0
SEQEND
  8
0
  0
SOLID
  8
0
 62
    15
 10
2.482920
 20
1.863400
 11
2.478080
 21
2.601720
 12
2.455640
 22
1.875280
 13
2.450360
 23
2.613600
  0
POLYLINE
  8
0
  6
CONTINUOUS
 66
     1
 40
0.000000
 41
0.000000
  0
VERTEX
  8
0
  6
CONTINUOUS
 10
2.482920
 20
1.863400
  0
VERTEX
  8
0
  6
CONTINUOUS
 10
2.478080
 20
2.601720
  0
VERTEX
  8
0
  6
CONTINUOUS
 10
2.450360
 20
2.613600
  0
VERTEX
  8
0
  6
CONTINUOUS
 10
2.455640
 20
1.875280
  0
VERTEX
  8
0
  6
CONTINUOUS
 10
2.482920
 20
1.863400
  0
SEQEND
  8
0
  0
SOLID
  8
0
 62
    15
 10
2.455640
 20
1.875280
 11
2.450360
 21
2.613600
 12
2.426160
 22
1.883200
 13
2.420880
 23
2.621520
  0
POLYLINE
  8
0
  6
CONTINUOUS
 66
     1
 40
0.000000
 41
0.000000
  0
VERTEX
  8
0
  6
CONTINUOUS
 10
2.455640
 20
1.875280
  0
VERTEX
  8
0
  6
CONTINUOUS
 10
2.450360
 20
2.613600
  0
VERTEX
  8
0
  6
CONTINUOUS
 10
2.420880
 20
2.621520
  0
VERTEX
  8
0
  6
CONTINUOUS
 10
2.426160
 20
1.883200
  0
VERTEX
  8
0
  6
CONTINUOUS
 10
2.455640
 20
1.875280
  0
SEQEND
  8
0
  0
SOLID
  8
0
 62
    15
 10
2.426160
 20
1.883200
 11
2.420880
 21
2.621520
 12
2.394920
 22
1.885400
 13
2.390080
 23
2.623720
  0
POLYLINE
  8
0
  6
CONTINUOUS
 66
     1
 40
0.000000
 41
0.000000
  0
VERTEX
  8
0
  6
CONTINUOUS
 10
2.426160
 20
1.883200
  0
VERTEX
  8
0
  6
CONTINUOUS
 10
2.420880
 20
2.621520
  0
VERTEX
  8
0
  6
CONTINUOUS
 10
2.390080
 20
2.623720
  0
VERTEX
  8
0
  6
CONTINUOUS
 10
2.394920
 20
1.885400
  0
VERTEX
  8
0
  6
CONTINUOUS
 10
2.426160
 20
1.883200
  0
SEQEND
  8
0
  0
SOLID
  8
0
 62
    15
 10
2.394920
 20
1.885400
 11
2.390080
 21
2.623720
 12
2.364120
 22
1.883200
 13
2.359280
 23
2.621520
  0
POLYLINE
  8
0
  6
CONTINUOUS
 66
     1
 40
0.000000
 41
0.000000
  0
VERTEX
  8
0
  6
CONTINUOUS
 10
2.394920
 20
1.885400
  0
VERTEX
  8
0
  6
CONTINUOUS
 10
2.390080
 20
2.623720
  0
VERTEX
  8
0
  6
CONTINUOUS
 10
2.359280
 20
2.621520
  0
VERTEX
  8
0
  6
CONTINUOUS
 10
2.364120
 20
1.883200
  0
VERTEX
  8
0
  6
CONTINUOUS
 10
2.394920
 20
1.885400
  0
SEQEND
  8
0
  0
SOLID
  8
0
 62
    15
 10
2.364120
 20
1.883200
 11
2.359280
 21
2.621520
 12
2.335520
 22
1.875720
 13
2.330240
 23
2.614040
  0
POLYLINE
  8
0
  6
CONTINUOUS
 66
     1
 40
0.000000
 41
0.000000
  0
VERTEX
  8
0
  6
CONTINUOUS
 10
2.364120
 20
1.883200
  0
VERTEX
  8
0
  6
CONTINUOUS
 10
2.359280
 20
2.621520
  0
VERTEX
  8
0
  6
CONTINUOUS
 10
2.330240
 20
2.614040
  0
VERTEX
  8
0
  6
CONTINUOUS
 10
2.335520
 20
1.875720
  0
VERTEX
  8
0
  6
CONTINUOUS
 10
2.364120
 20
1.883200
  0
SEQEND
  8
0
  0
SOLID
  8
0
 62
    15
 10
2.335520
 20
1.875720
 11
2.330240
 21
2.614040
 12
2.308680
 22
1.863840
 13
2.303400
 23
2.602160
  0
POLYLINE
  8
0
  6
CONTINUOUS
 66
     1
 40
0.000000
 41
0.000000
  0
VERTEX
  8
0
  6
CONTINUOUS
 10
2.335520
 20
1.875720
  0
VERTEX
  8
0
  6
CONTINUOUS
 10
2.330240
 20
2.614040
  0
VERTEX
  8
0
  6
CONTINUOUS
 10
2.303400
 20
2.602160
  0
VERTEX
  8
0
  6
CONTINUOUS
 10
2.308680
 20
1.863840
  0
VERTEX
  8
0
  6
CONTINUOUS
 10
2.335520
 20
1.875720
  0
SEQEND
  8
0
  0
SOLID
  8
0
 62
    15
 10
2.308680
 20
1.863840
 11
2.303400
 21
2.602160
 12
2.284040
 22
1.848000
 13
2.279200
 23
2.586320
  0
POLYLINE
  8
0
  6
CONTINUOUS
 66
     1
 40
0.000000
 41
0.000000
  0
VERTEX
  8
0
  6
CONTINUOUS
 10
2.308680
 20
1.863840
  0
VERTEX
  8
0
  6
CONTINUOUS
 10
2.303400
 20
2.602160
  0
VERTEX
  8
0
  6
CONTINUOUS
 10
2.279200
 20
2.586320
  0
VERTEX
  8
0
  6
CONTINUOUS
 10
2.284040
 20
1.848000
  0
VERTEX
  8
0
  6
CONTINUOUS
 10
2.308680
 20
1.863840
  0
SEQEND
  8
0
  0
SOLID
  8
0
 62
    15
 10
2.284040
 20
1.848000
 11
2.279200
 21
2.586320
 12
2.262480
 22
1.828640
 13
2.257640
 23
2.566960
  0
POLYLINE
  8
0
  6
CONTINUOUS
 66
     1
 40
0.000000
 41
0.000000
  0
VERTEX
  8
0
  6
CONTINUOUS
 10
2.284040
 20
1.848000
  0
VERTEX
  8
0
  6
CONTINUOUS
 10
2.279200
 20
2.586320
  0
VERTEX
  8
0
  6
CONTINUOUS
 10
2.257640
 20
2.566960
  0
VERTEX
  8
0
  6
CONTINUOUS
 10
2.262480
 20
1.828640
  0
VERTEX
  8
0
  6
CONTINUOUS
 10
2.284040
 20
1.848000
  0
SEQEND
  8
0
  0
SOLID
  8
0
 62
    15
 10
2.262480
 20
1.828640
 11
2.257640
 21
2.566960
 12
2.244440
 22
1.805760
 13
2.239160
 23
2.544080
  0
POLYLINE
  8
0
  6
CONTINUOUS
 66
     1
 40
0.000000
 41
0.000000
  0
VERTEX
  8
0
  6
CONTINUOUS
 10
2.262480
 20
1.828640
  0
VERTEX
  8
0
  6
CONTINUOUS
 10
2.257640
 20
2.566960
  0
VERTEX
  8
0
  6
CONTINUOUS
 10
2.239160
 20
2.544080
  0
VERTEX
  8
0
  6
CONTINUOUS
 10
2.244440
 20
1.805760
  0
VERTEX
  8
0
  6
CONTINUOUS
 10
2.262480
 20
1.828640
  0
SEQEND
  8
0
  0
SOLID
  8
0
 62
    15
 10
2.244440
 20
1.805760
 11
2.239160
 21
2.544080
 12
2.229480
 22
1.780240
 13
2.224640
 23
2.518560
  0
POLYLINE
  8
0
  6
CONTINUOUS
 66
     1
 40
0.000000
 41
0.000000
  0
VERTEX
  8
0
  6
CONTINUOUS
 10
2.244440
 20
1.805760
  0
VERTEX
  8
0
  6
CONTINUOUS
 10
2.239160
 20
2.544080
  0
VERTEX
  8
0
  6
CONTINUOUS
 10
2.224640
 20
2.518560
  0
VERTEX
  8
0
  6
CONTINUOUS
 10
2.229480
 20
1.780240
  0
VERTEX
  8
0
  6
CONTINUOUS
 10
2.244440
 20
1.805760
  0
SEQEND
  8
0
  0
SOLID
  8
0
 62
    15
 10
2.229480
 20
1.780240
 11
2.224640
 21
2.518560
 12
2.218920
 22
1.752080
 13
2.214080
 23
2.490400
  0
POLYLINE
  8
0
  6
CONTINUOUS
 66
     1
 40
0.000000
 41
0.000000
  0
VERTEX
  8
0
  6
CONTINUOUS
 10
2.229480
 20
1.780240
  0
VERTEX
  8
0
  6
CONTINUOUS
 10
2.224640
 20
2.518560
  0
VERTEX
  8
0
  6
CONTINUOUS
 10
2.214080
 20
2.490400
  0
VERTEX
  8
0
  6
CONTINUOUS
 10
2.218920
 20
1.752080
  0
VERTEX
  8
0
  6
CONTINUOUS
 10
2.229480
 20
1.780240
  0
SEQEND
  8
0
  0
SOLID
  8
0
 62
    15
 10
2.218920
 20
1.752080
 11
2.214080
 21
2.490400
 12
2.217600
 22
1.750760
 13
2.212760
 23
2.489080
  0
POLYLINE
  8
0
  6
CONTINUOUS
 66
     1
 40
0.000000
 41
0.000000
  0
VERTEX
  8
0
  6
CONTINUOUS
 10
2.218920
 20
1.752080
  0
VERTEX
  8
0
  6
CONTINUOUS
 10
2.214080
 20
2.490400
  0
VERTEX
  8
0
  6
CONTINUOUS
 10
2.212760
 20
2.489080
  0
VERTEX
  8
0
  6
CONTINUOUS
 10
2.217600
 20
1.750760
  0
VERTEX
  8
0
  6
CONTINUOUS
 10
2.218920
 20
1.752080
  0
SEQEND
  8
0
  0
SOLID
  8
0
 62
    15
 10
2.217600
 20
1.750760
 11
2.212760
 21
2.489080
 12
2.168320
 22
1.750760
 13
2.163480
 23
2.489080
  0
POLYLINE
  8
0
  6
CONTINUOUS
 66
     1
 40
0.000000
 41
0.000000
  0
VERTEX
  8
0
  6
CONTINUOUS
 10
2.217600
 20
1.750760
  0
VERTEX
  8
0
  6
CONTINUOUS
 10
2.212760
 20
2.489080
  0
VERTEX
  8
0
  6
CONTINUOUS
 10
2.163480
 20
2.489080
  0
VERTEX
  8
0
  6
CONTINUOUS
 10
2.168320
 20
1.750760
  0
VERTEX
  8
0
  6
CONTINUOUS
 10
2.217600
 20
1.750760
  0
SEQEND
  8
0
  0
SOLID
  8
0
 62
    15
 10
2.163040
 20
1.752080
 11
2.158200
 21
2.490400
 12
2.163040
 22
1.056440
 13
2.158200
 23
1.794320
  0
POLYLINE
  8
0
  6
CONTINUOUS
 66
     1
 40
0.000000
 41
0.000000
  0
VERTEX
  8
0
  6
CONTINUOUS
 10
2.163040
 20
1.752080
  0
VERTEX
  8
0
  6
CONTINUOUS
 10
2.158200
 20
2.490400
  0
VERTEX
  8
0
  6
CONTINUOUS
 10
2.158200
 20
1.794320
  0
VERTEX
  8
0
  6
CONTINUOUS
 10
2.163040
 20
1.056440
  0
VERTEX
  8
0
  6
CONTINUOUS
 10
2.163040
 20
1.752080
  0
SEQEND
  8
0
  0
SOLID
  8
0
 62
    15
 10
2.168320
 20
1.750760
 11
2.163480
 21
2.489080
 12
2.163040
 22
1.752080
 13
2.158200
 23
2.490400
  0
POLYLINE
  8
0
  6
CONTINUOUS
 66
     1
 40
0.000000
 41
0.000000
  0
VERTEX
  8
0
  6
CONTINUOUS
 10
2.168320
 20
1.750760
  0
VERTEX
  8
0
  6
CONTINUOUS
 10
2.163480
 20
2.489080
  0
VERTEX
  8
0
  6
CONTINUOUS
 10
2.158200
 20
2.490400
  0
VERTEX
  8
0
  6
CONTINUOUS
 10
2.163040
 20
1.752080
  0
VERTEX
  8
0
  6
CONTINUOUS
 10
2.168320
 20
1.750760
  0
SEQEND
  8
0
  0
POLYLINE
  8
0
  6
CONTINUOUS
 66
     1
 40
0.000000
 41
0.000000
  0
VERTEX
  8
0
  6
CONTINUOUS
 10
6.233480
 20
1.448040
  0
VERTEX
  8
0
  6
CONTINUOUS
 10
6.233480
 20
1.477520
  0
VERTEX
  8
0
  6
CONTINUOUS
 10
6.232160
 20
1.480160
  0
VERTEX
  8
0
  6
CONTINUOUS
 10
5.780280
 20
1.885400
  0
VERTEX
  8
0
  6
CONTINUOUS
 10
3.454880
 20
1.885400
  0
VERTEX
  8
0
  6
CONTINUOUS
 10
3.454880
 20
1.752080
  0
VERTEX
  8
0
  6
CONTINUOUS
 10
3.393720
 20
1.752080
  0
VERTEX
  8
0
  6
CONTINUOUS
 10
3.380960
 20
1.781120
  0
VERTEX
  8
0
  6
CONTINUOUS
 10
3.365560
 20
1.806640
  0
VERTEX
  8
0
  6
CONTINUOUS
 10
3.346640
 20
1.829080
  0
VERTEX
  8
0
  6
CONTINUOUS
 10
3.324200
 20
1.848880
  0
VERTEX
  8
0
  6
CONTINUOUS
 10
3.299120
 20
1.864720
  0
VERTEX
  8
0
  6
CONTINUOUS
 10
3.271400
 20
1.876600
  0
VERTEX
  8
0
  6
CONTINUOUS
 10
3.241920
 20
1.884080
  0
VERTEX
  8
0
  6
CONTINUOUS
 10
3.211120
 20
1.886720
  0
VERTEX
  8
0
  6
CONTINUOUS
 10
3.180320
 20
1.884520
  0
VERTEX
  8
0
  6
CONTINUOUS
 10
3.151280
 20
1.877040
  0
VERTEX
  8
0
  6
CONTINUOUS
 10
3.124440
 20
1.865160
  0
VERTEX
  8
0
  6
CONTINUOUS
 10
3.099800
 20
1.849320
  0
VERTEX
  8
0
  6
CONTINUOUS
 10
3.078680
 20
1.829520
  0
VERTEX
  8
0
  6
CONTINUOUS
 10
3.060200
 20
1.807080
  0
VERTEX
  8
0
  6
CONTINUOUS
 10
3.045680
 20
1.781560
  0
VERTEX
  8
0
  6
CONTINUOUS
 10
3.035120
 20
1.753400
  0
VERTEX
  8
0
  6
CONTINUOUS
 10
2.987160
 20
1.753400
  0
VERTEX
  8
0
  6
CONTINUOUS
 10
2.975720
 20
1.781120
  0
VERTEX
  8
0
  6
CONTINUOUS
 10
2.960320
 20
1.806640
  0
VERTEX
  8
0
  6
CONTINUOUS
 10
2.941400
 20
1.829080
  0
VERTEX
  8
0
  6
CONTINUOUS
 10
2.918960
 20
1.848880
  0
VERTEX
  8
0
  6
CONTINUOUS
 10
2.893880
 20
1.864720
  0
VERTEX
  8
0
  6
CONTINUOUS
 10
2.866160
 20
1.876600
  0
VERTEX
  8
0
  6
CONTINUOUS
 10
2.836680
 20
1.884520
  0
VERTEX
  8
0
  6
CONTINUOUS
 10
2.805880
 20
1.886720
  0
VERTEX
  8
0
  6
CONTINUOUS
 10
2.775080
 20
1.884520
  0
VERTEX
  8
0
  6
CONTINUOUS
 10
2.746040
 20
1.877040
  0
VERTEX
  8
0
  6
CONTINUOUS
 10
2.719200
 20
1.865160
  0
VERTEX
  8
0
  6
CONTINUOUS
 10
2.694560
 20
1.849320
  0
VERTEX
  8
0
  6
CONTINUOUS
 10
2.673440
 20
1.829960
  0
VERTEX
  8
0
  6
CONTINUOUS
 10
2.654960
 20
1.807080
  0
VERTEX
  8
0
  6
CONTINUOUS
 10
2.640440
 20
1.781560
  0
VERTEX
  8
0
  6
CONTINUOUS
 10
2.629880
 20
1.753400
  0
VERTEX
  8
0
  6
CONTINUOUS
 10
2.626800
 20
1.752080
  0
VERTEX
  8
0
  6
CONTINUOUS
 10
2.576200
 20
1.752080
  0
VERTEX
  8
0
  6
CONTINUOUS
 10
2.565200
 20
1.779800
  0
VERTEX
  8
0
  6
CONTINUOUS
 10
2.549800
 20
1.805320
  0
VERTEX
  8
0
  6
CONTINUOUS
 10
2.530880
 20
1.827760
  0
VERTEX
  8
0
  6
CONTINUOUS
 10
2.508440
 20
1.847560
  0
VERTEX
  8
0
  6
CONTINUOUS
 10
2.482920
 20
1.863400
  0
VERTEX
  8
0
  6
CONTINUOUS
 10
2.455640
 20
1.875280
  0
VERTEX
  8
0
  6
CONTINUOUS
 10
2.426160
 20
1.883200
  0
VERTEX
  8
0
  6
CONTINUOUS
 10
2.394920
 20
1.885400
  0
VERTEX
  8
0
  6
CONTINUOUS
 10
2.364120
 20
1.883200
  0
VERTEX
  8
0
  6
CONTINUOUS
 10
2.335520
 20
1.875720
  0
VERTEX
  8
0
  6
CONTINUOUS
 10
2.308680
 20
1.863840
  0
VERTEX
  8
0
  6
CONTINUOUS
 10
2.284040
 20
1.848000
  0
VERTEX
  8
0
  6
CONTINUOUS
 10
2.262480
 20
1.828640
  0
VERTEX
  8
0
  6
CONTINUOUS
 10
2.244440
 20
1.805760
  0
VERTEX
  8
0
  6
CONTINUOUS
 10
2.229480
 20
1.780240
  0
VERTEX
  8
0
  6
CONTINUOUS
 10
2.217600
 20
1.750760
  0
VERTEX
  8
0
  6
CONTINUOUS
 10
2.168320
 20
1.750760
  0
VERTEX
  8
0
  6
CONTINUOUS
 10
2.163040
 20
1.752080
  0
VERTEX
  8
0
  6
CONTINUOUS
 10
2.163040
 20
1.056440
  0
VERTEX
  8
0
  6
CONTINUOUS
 10
6.232160
 20
1.056440
  0
VERTEX
  8
0
  6
CONTINUOUS
 10
6.232160
 20
1.468280
  0
VERTEX
  8
0
  6
CONTINUOUS
 10
6.233480
 20
1.448040
  0
SEQEND
  8
0
  0
TEXT
  8
0
 10
3.901040
 20
0.820600
 40
0.138096
  1
BA  215
 41
1.000000
  7
SN0
 71
     0
 72
     5
 11
4.490808
 21
0.820600
  0
TEXT
  8
0
 10
3.698640
 20
0.629200
 40
0.138096
  1
3/4" x 4-1/16"
 41
1.000000
  7
SN0
 71
     0
 72
     5
 11
4.690747
 21
0.629200
  0
POLYLINE
  8
0
  6
CONTINUOUS
 66
     1
 40
0.014080
 41
0.014080
  0
VERTEX
  8
0
  6
CONTINUOUS
 10
6.178040
 20
3.441240
  0
VERTEX
  8
0
  6
CONTINUOUS
 10
6.178040
 20
3.028960
  0
VERTEX
  8
0
  6
CONTINUOUS
 10
2.108920
 20
3.028960
  0
VERTEX
  8
0
  6
CONTINUOUS
 10
2.108920
 20
3.706560
  0
VERTEX
  8
0
  6
CONTINUOUS
 10
2.108920
 20
3.703920
  0
VERTEX
  8
0
  6
CONTINUOUS
 10
2.108920
 20
3.725040
  0
VERTEX
  8
0
  6
CONTINUOUS
 10
2.114200
 20
3.723720
  0
VERTEX
  8
0
  6
CONTINUOUS
 10
2.163480
 20
3.723720
  0
VERTEX
  8
0
  6
CONTINUOUS
 10
2.175360
 20
3.753200
  0
VERTEX
  8
0
  6
CONTINUOUS
 10
2.189880
 20
3.778720
  0
VERTEX
  8
0
  6
CONTINUOUS
 10
2.208360
 20
3.801160
  0
VERTEX
  8
0
  6
CONTINUOUS
 10
2.229920
 20
3.820520
  0
VERTEX
  8
0
  6
CONTINUOUS
 10
2.241360
 20
3.829320
  0
VERTEX
  8
0
  6
CONTINUOUS
 10
2.267320
 20
3.842960
  0
VERTEX
  8
0
  6
CONTINUOUS
 10
2.295480
 20
3.852640
  0
VERTEX
  8
0
  6
CONTINUOUS
 10
2.325400
 20
3.857920
  0
VERTEX
  8
0
  6
CONTINUOUS
 10
2.340800
 20
3.858360
  0
VERTEX
  8
0
  6
CONTINUOUS
 10
2.371600
 20
3.855720
  0
VERTEX
  8
0
  6
CONTINUOUS
 10
2.401080
 20
3.848240
  0
VERTEX
  8
0
  6
CONTINUOUS
 10
2.428800
 20
3.836360
  0
VERTEX
  8
0
  6
CONTINUOUS
 10
2.453880
 20
3.820080
  0
VERTEX
  8
0
  6
CONTINUOUS
 10
2.476320
 20
3.800720
  0
VERTEX
  8
0
  6
CONTINUOUS
 10
2.495240
 20
3.777840
  0
VERTEX
  8
0
  6
CONTINUOUS
 10
2.510640
 20
3.752760
  0
VERTEX
  8
0
  6
CONTINUOUS
 10
2.522080
 20
3.725040
  0
VERTEX
  8
0
  6
CONTINUOUS
 10
2.572680
 20
3.725040
  0
VERTEX
  8
0
  6
CONTINUOUS
 10
2.575320
 20
3.726360
  0
VERTEX
  8
0
  6
CONTINUOUS
 10
2.585880
 20
3.754520
  0
VERTEX
  8
0
  6
CONTINUOUS
 10
2.600840
 20
3.780040
  0
VERTEX
  8
0
  6
CONTINUOUS
 10
2.618880
 20
3.802480
  0
VERTEX
  8
0
  6
CONTINUOUS
 10
2.640440
 20
3.821840
  0
VERTEX
  8
0
  6
CONTINUOUS
 10
2.664640
 20
3.838120
  0
VERTEX
  8
0
  6
CONTINUOUS
 10
2.691480
 20
3.849560
  0
VERTEX
  8
0
  6
CONTINUOUS
 10
2.720520
 20
3.857040
  0
VERTEX
  8
0
  6
CONTINUOUS
 10
2.735920
 20
3.859240
  0
VERTEX
  8
0
  6
CONTINUOUS
 10
2.751320
 20
3.859680
  0
VERTEX
  8
0
  6
CONTINUOUS
 10
2.782120
 20
3.857040
  0
VERTEX
  8
0
  6
CONTINUOUS
 10
2.811600
 20
3.849560
  0
VERTEX
  8
0
  6
CONTINUOUS
 10
2.839320
 20
3.837680
  0
VERTEX
  8
0
  6
CONTINUOUS
 10
2.864400
 20
3.821400
  0
VERTEX
  8
0
  6
CONTINUOUS
 10
2.886840
 20
3.802040
  0
VERTEX
  8
0
  6
CONTINUOUS
 10
2.906200
 20
3.779160
  0
VERTEX
  8
0
  6
CONTINUOUS
 10
2.921600
 20
3.754080
  0
VERTEX
  8
0
  6
CONTINUOUS
 10
2.932600
 20
3.726360
  0
VERTEX
  8
0
  6
CONTINUOUS
 10
2.980560
 20
3.726360
  0
VERTEX
  8
0
  6
CONTINUOUS
 10
2.991120
 20
3.754520
  0
VERTEX
  8
0
  6
CONTINUOUS
 10
3.006080
 20
3.780040
  0
VERTEX
  8
0
  6
CONTINUOUS
 10
3.024120
 20
3.802480
  0
VERTEX
  8
0
  6
CONTINUOUS
 10
3.045680
 20
3.821840
  0
VERTEX
  8
0
  6
CONTINUOUS
 10
3.069880
 20
3.838120
  0
VERTEX
  8
0
  6
CONTINUOUS
 10
3.096720
 20
3.849560
  0
VERTEX
  8
0
  6
CONTINUOUS
 10
3.125760
 20
3.857040
  0
VERTEX
  8
0
  6
CONTINUOUS
 10
3.141160
 20
3.859240
  0
VERTEX
  8
0
  6
CONTINUOUS
 10
3.156560
 20
3.859680
  0
VERTEX
  8
0
  6
CONTINUOUS
 10
3.187360
 20
3.857040
  0
VERTEX
  8
0
  6
CONTINUOUS
 10
3.216840
 20
3.849560
  0
VERTEX
  8
0
  6
CONTINUOUS
 10
3.244560
 20
3.837680
  0
VERTEX
  8
0
  6
CONTINUOUS
 10
3.269640
 20
3.821400
  0
VERTEX
  8
0
  6
CONTINUOUS
 10
3.292080
 20
3.802040
  0
VERTEX
  8
0
  6
CONTINUOUS
 10
3.311440
 20
3.779160
  0
VERTEX
  8
0
  6
CONTINUOUS
 10
3.326840
 20
3.754080
  0
VERTEX
  8
0
  6
CONTINUOUS
 10
3.337840
 20
3.726360
  0
VERTEX
  8
0
  6
CONTINUOUS
 10
3.339600
 20
3.725040
  0
VERTEX
  8
0
  6
CONTINUOUS
 10
3.400760
 20
3.725040
  0
VERTEX
  8
0
  6
CONTINUOUS
 10
3.400760
 20
3.858360
  0
VERTEX
  8
0
  6
CONTINUOUS
 10
5.726160
 20
3.858360
  0
VERTEX
  8
0
  6
CONTINUOUS
 10
6.178040
 20
3.453120
  0
VERTEX
  8
0
  6
CONTINUOUS
 10
6.179360
 20
3.450480
  0
VERTEX
  8
0
  6
CONTINUOUS
 10
6.179360
 20
3.421000
  0
VERTEX
  8
0
  6
CONTINUOUS
 10
6.178040
 20
3.441240
  0
SEQEND
  8
0
  0
TEXT
  8
0
 10
3.765080
 20
3.344880
 40
0.138096
  1
BA  215
 41
1.000000
  7
SN0
 71
     0
 72
     5
 11
4.354848
 21
3.344880
  0
TEXT
  8
0
 10
3.563120
 20
3.153040
 40
0.138096
  1
3/4" x 4-1/16"
 41
1.000000
  7
SN0
 71
     0
 72
     5
 11
4.555227
 21
3.153040
  0
ENDSEC
  0
EOF
