  0
SECTION
  2
HEADER
  9
$ACADVER
  1
AC1006
  9
$EXTMIN
 10
4.460280
 20
0.348920
  9
$EXTMAX
 10
8.080600
 20
4.020280
  9
$LTSCALE
 40
0.044000
  9
$PDMODE
 70
    35
  9
$PDSIZE
 40
0.035200
  0
ENDSEC
  0
SECTION
  2
TABLES
  0
TABLE
  2
LTYPE
 70
     9
  0
LTYPE
  2
CONTINUOUS
 70
    64
  3
Solid line
 72
    65
 73
     0
 40
0.000000
  0
LTYPE
  2
DASHED
 70
    64
  3
__ __ __ __ __ __ __ __ __ __ __ __ __ __ __
 72
    65
 73
     2
 40
0.000330
 49
0.000220
 49
-0.000110
  0
LTYPE
  2
HIDDEN
 70
    64
  3
 _ _ _ _ _ _ _ _ _ _ _ _ _ _ _ _ _ _ _ _ _ _
 72
    65
 73
     2
 40
0.000165
 49
0.000110
 49
-0.000055
  0
LTYPE
  2
CENTER
 70
    64
  3
____ _ ____ _ ____ _ ____ _ ____ _ ____ _ ____
 72
    65
 73
     4
 40
0.000880
 49
0.000550
 49
-0.000110
 49
0.000110
 49
-0.000110
  0
LTYPE
  2
PHANTOM
 70
    64
  3
_____ _ _ _____ _ _ _____ _ _ _____ _ _ ____
 72
    65
 73
     6
 40
0.001100
 49
0.000550
 49
-0.000110
 49
0.000110
 49
-0.000110
 49
0.000110
 49
-0.000110
  0
LTYPE
  2
DOT
 70
    64
  3
...............................................
 72
    65
 73
     2
 40
0.000110
 49
0.000000
 49
-0.000110
  0
LTYPE
  2
DASHDOT
 70
    64
  3
__ . __ . __ . __ . __ . __ . __ . __ . __ . __
 72
    65
 73
     4
 40
0.000440
 49
0.000220
 49
-0.000110
 49
0.000000
 49
-0.000110
  0
LTYPE
  2
BORDER
 70
    64
  3
__ __ . __ __ . __ __ . __ __ . __ __ . __ __
 72
    65
 73
     6
 40
0.000770
 49
0.000220
 49
-0.000110
 49
0.000220
 49
-0.000110
 49
0.000000
 49
-0.000110
  0
LTYPE
  2
DIVIDE
 70
    64
  3
__ . . __ . . __ . . __ . . __ . . __ . . __
 72
    65
 73
     6
 40
0.000550
 49
0.000220
 49
-0.000110
 49
0.000000
 49
-0.000110
 49
0.000000
 49
-0.000110
  0
LTYPE
  2
DOTDOT
 70
    64
  3
 . .  . .  . .  . .  . .  . . 
 72
    65
 73
     5
 40
0.000242
 49
-0.000110
 49
0.000000
 49
-0.000110
 49
0.000000
 49
-0.000110
  0
ENDTAB
  0
TABLE
  2
STYLE
 70
     2
  0
STYLE
 70
     0
  2
SN0
 40
0.000000
 41
0.000440
 50
0.000000
 71
     0
 42
0.000000
  3
ROMAND
  0
STYLE
 70
    68
  2
SV0
 40
0.000000
 41
0.000440
 50
0.000000
 71
     0
 42
0.000000
  3
ROMAND
  0
ENDTAB
  0
TABLE
  2
LAYER
 70
     3
  0
LAYER
  2
FOREGROUND
 70
    64
 62
     7
  6
CONTINUOUS
  0
LAYER
  2
BACKGROUND
 70
    65
 62
    -7
  6
CONTINUOUS
  0
LAYER
  2
0
 70
    64
 62
     7
  6
CONTINUOUS
  0
ENDTAB
  0
ENDSEC
  0
SECTION
  2
ENTITIES
  0
POLYLINE
  8
FOREGROUND
  6
CONTINUOUS
 66
     1
 40
0.000000
 41
0.000000
  0
VERTEX
  8
FOREGROUND
  6
CONTINUOUS
 10
0.000000
 20
4.369200
  0
VERTEX
  8
FOREGROUND
  6
CONTINUOUS
 10
8.499920
 20
4.369200
  0
VERTEX
  8
FOREGROUND
  6
CONTINUOUS
 10
8.499920
 20
-6.630800
  0
VERTEX
  8
FOREGROUND
  6
CONTINUOUS
 10
0.000000
 20
-6.630800
  0
VERTEX
  8
FOREGROUND
  6
CONTINUOUS
 10
0.000000
 20
4.369200
  0
SEQEND
  8
0
  0
POLYLINE
  8
FOREGROUND
  6
CONTINUOUS
 66
     1
 40
0.000000
 41
0.000000
  0
VERTEX
  8
FOREGROUND
  6
CONTINUOUS
 10
0.000000
 20
4.369200
  0
VERTEX
  8
FOREGROUND
  6
CONTINUOUS
 10
8.499920
 20
4.369200
  0
VERTEX
  8
FOREGROUND
  6
CONTINUOUS
 10
8.499920
 20
-6.630800
  0
VERTEX
  8
FOREGROUND
  6
CONTINUOUS
 10
0.000000
 20
-6.630800
  0
VERTEX
  8
FOREGROUND
  6
CONTINUOUS
 10
0.000000
 20
4.369200
  0
SEQEND
  8
0
  0
POLYLINE
  8
0
  6
CONTINUOUS
 66
     1
 40
0.014080
 41
0.014080
  0
VERTEX
  8
0
  6
CONTINUOUS
 10
6.637400
 20
3.948560
  0
VERTEX
  8
0
  6
CONTINUOUS
 10
6.901400
 20
3.481720
  0
VERTEX
  8
0
  6
CONTINUOUS
 10
6.901400
 20
3.477760
  0
VERTEX
  8
0
  6
CONTINUOUS
 10
6.867520
 20
3.433320
  0
VERTEX
  8
0
  6
CONTINUOUS
 10
6.839800
 20
3.390200
  0
VERTEX
  8
0
  6
CONTINUOUS
 10
6.819120
 20
3.347520
  0
VERTEX
  8
0
  6
CONTINUOUS
 10
6.803720
 20
3.306160
  0
VERTEX
  8
0
  6
CONTINUOUS
 10
6.794480
 20
3.265240
  0
VERTEX
  8
0
  6
CONTINUOUS
 10
6.790520
 20
3.225200
  0
VERTEX
  8
0
  6
CONTINUOUS
 10
6.791400
 20
3.185600
  0
VERTEX
  8
0
  6
CONTINUOUS
 10
6.797120
 20
3.146000
  0
VERTEX
  8
0
  6
CONTINUOUS
 10
6.807240
 20
3.106840
  0
VERTEX
  8
0
  6
CONTINUOUS
 10
6.820880
 20
3.067680
  0
VERTEX
  8
0
  6
CONTINUOUS
 10
6.838480
 20
3.028080
  0
VERTEX
  8
0
  6
CONTINUOUS
 10
6.871040
 20
2.969120
  0
VERTEX
  8
0
  6
CONTINUOUS
 10
6.909760
 20
2.908840
  0
VERTEX
  8
0
  6
CONTINUOUS
 10
6.969160
 20
2.827000
  0
VERTEX
  8
0
  6
CONTINUOUS
 10
7.122280
 20
2.635600
  0
VERTEX
  8
0
  6
CONTINUOUS
 10
7.160560
 20
2.580160
  0
VERTEX
  8
0
  6
CONTINUOUS
 10
7.182560
 20
2.542320
  0
VERTEX
  8
0
  6
CONTINUOUS
 10
7.200600
 20
2.503600
  0
VERTEX
  8
0
  6
CONTINUOUS
 10
7.214240
 20
2.463120
  0
VERTEX
  8
0
  6
CONTINUOUS
 10
7.219520
 20
2.442440
  0
VERTEX
  8
0
  6
CONTINUOUS
 10
7.225680
 20
2.398880
  0
VERTEX
  8
0
  6
CONTINUOUS
 10
7.226120
 20
2.352680
  0
VERTEX
  8
0
  6
CONTINUOUS
 10
7.220400
 20
2.303400
  0
VERTEX
  8
0
  6
CONTINUOUS
 10
7.215120
 20
2.277440
  0
VERTEX
  8
0
  6
CONTINUOUS
 10
7.198840
 20
2.222880
  0
VERTEX
  8
0
  6
CONTINUOUS
 10
7.174640
 20
2.163920
  0
VERTEX
  8
0
  6
CONTINUOUS
 10
7.159680
 20
2.132680
  0
VERTEX
  8
0
  6
CONTINUOUS
 10
7.159680
 20
2.128280
  0
VERTEX
  8
0
  6
CONTINUOUS
 10
7.267920
 20
2.020480
  0
VERTEX
  8
0
  6
CONTINUOUS
 10
7.267920
 20
1.206040
  0
VERTEX
  8
0
  6
CONTINUOUS
 10
6.514640
 20
1.206040
  0
VERTEX
  8
0
  6
CONTINUOUS
 10
6.514640
 20
3.952520
  0
VERTEX
  8
0
  6
CONTINUOUS
 10
6.633000
 20
3.952520
  0
VERTEX
  8
0
  6
CONTINUOUS
 10
6.637400
 20
3.948560
  0
SEQEND
  8
0
  0
SOLID
  8
0
 62
    15
 10
5.010280
 20
2.354000
 11
5.651360
 21
2.739880
 12
5.040200
 22
2.316600
 13
5.681280
 23
2.702920
  0
POLYLINE
  8
0
  6
CONTINUOUS
 66
     1
 40
0.000000
 41
0.000000
  0
VERTEX
  8
0
  6
CONTINUOUS
 10
5.010280
 20
2.354000
  0
VERTEX
  8
0
  6
CONTINUOUS
 10
5.651360
 20
2.739880
  0
VERTEX
  8
0
  6
CONTINUOUS
 10
5.681280
 20
2.702920
  0
VERTEX
  8
0
  6
CONTINUOUS
 10
5.040200
 20
2.316600
  0
VERTEX
  8
0
  6
CONTINUOUS
 10
5.010280
 20
2.354000
  0
SEQEND
  8
0
  0
SOLID
  8
0
 62
    15
 10
4.847480
 20
3.126200
 11
5.488560
 21
3.512080
 12
4.847480
 22
3.122240
 13
5.488560
 23
3.508120
  0
POLYLINE
  8
0
  6
CONTINUOUS
 66
     1
 40
0.000000
 41
0.000000
  0
VERTEX
  8
0
  6
CONTINUOUS
 10
4.847480
 20
3.126200
  0
VERTEX
  8
0
  6
CONTINUOUS
 10
5.488560
 20
3.512080
  0
VERTEX
  8
0
  6
CONTINUOUS
 10
5.488560
 20
3.508120
  0
VERTEX
  8
0
  6
CONTINUOUS
 10
4.847480
 20
3.122240
  0
VERTEX
  8
0
  6
CONTINUOUS
 10
4.847480
 20
3.126200
  0
SEQEND
  8
0
  0
SOLID
  8
0
 62
    15
 10
4.847480
 20
3.122240
 11
5.488560
 21
3.508120
 12
4.813600
 22
3.077800
 13
5.454680
 23
3.463680
  0
POLYLINE
  8
0
  6
CONTINUOUS
 66
     1
 40
0.000000
 41
0.000000
  0
VERTEX
  8
0
  6
CONTINUOUS
 10
4.847480
 20
3.122240
  0
VERTEX
  8
0
  6
CONTINUOUS
 10
5.488560
 20
3.508120
  0
VERTEX
  8
0
  6
CONTINUOUS
 10
5.454680
 20
3.463680
  0
VERTEX
  8
0
  6
CONTINUOUS
 10
4.813600
 20
3.077800
  0
VERTEX
  8
0
  6
CONTINUOUS
 10
4.847480
 20
3.122240
  0
SEQEND
  8
0
  0
SOLID
  8
0
 62
    15
 10
4.813600
 20
3.077800
 11
5.454680
 21
3.463680
 12
4.786320
 22
3.034680
 13
5.427400
 23
3.420560
  0
POLYLINE
  8
0
  6
CONTINUOUS
 66
     1
 40
0.000000
 41
0.000000
  0
VERTEX
  8
0
  6
CONTINUOUS
 10
4.813600
 20
3.077800
  0
VERTEX
  8
0
  6
CONTINUOUS
 10
5.454680
 20
3.463680
  0
VERTEX
  8
0
  6
CONTINUOUS
 10
5.427400
 20
3.420560
  0
VERTEX
  8
0
  6
CONTINUOUS
 10
4.786320
 20
3.034680
  0
VERTEX
  8
0
  6
CONTINUOUS
 10
4.813600
 20
3.077800
  0
SEQEND
  8
0
  0
SOLID
  8
0
 62
    15
 10
4.786320
 20
3.034680
 11
5.427400
 21
3.420560
 12
4.765200
 22
2.992000
 13
5.406280
 23
3.378320
  0
POLYLINE
  8
0
  6
CONTINUOUS
 66
     1
 40
0.000000
 41
0.000000
  0
VERTEX
  8
0
  6
CONTINUOUS
 10
4.786320
 20
3.034680
  0
VERTEX
  8
0
  6
CONTINUOUS
 10
5.427400
 20
3.420560
  0
VERTEX
  8
0
  6
CONTINUOUS
 10
5.406280
 20
3.378320
  0
VERTEX
  8
0
  6
CONTINUOUS
 10
4.765200
 20
2.992000
  0
VERTEX
  8
0
  6
CONTINUOUS
 10
4.786320
 20
3.034680
  0
SEQEND
  8
0
  0
SOLID
  8
0
 62
    15
 10
4.765200
 20
2.992000
 11
5.406280
 21
3.378320
 12
4.750240
 22
2.950640
 13
5.391320
 23
3.336520
  0
POLYLINE
  8
0
  6
CONTINUOUS
 66
     1
 40
0.000000
 41
0.000000
  0
VERTEX
  8
0
  6
CONTINUOUS
 10
4.765200
 20
2.992000
  0
VERTEX
  8
0
  6
CONTINUOUS
 10
5.406280
 20
3.378320
  0
VERTEX
  8
0
  6
CONTINUOUS
 10
5.391320
 20
3.336520
  0
VERTEX
  8
0
  6
CONTINUOUS
 10
4.750240
 20
2.950640
  0
VERTEX
  8
0
  6
CONTINUOUS
 10
4.765200
 20
2.992000
  0
SEQEND
  8
0
  0
SOLID
  8
0
 62
    15
 10
4.750240
 20
2.950640
 11
5.391320
 21
3.336520
 12
4.741000
 22
2.909720
 13
5.382080
 23
3.295600
  0
POLYLINE
  8
0
  6
CONTINUOUS
 66
     1
 40
0.000000
 41
0.000000
  0
VERTEX
  8
0
  6
CONTINUOUS
 10
4.750240
 20
2.950640
  0
VERTEX
  8
0
  6
CONTINUOUS
 10
5.391320
 20
3.336520
  0
VERTEX
  8
0
  6
CONTINUOUS
 10
5.382080
 20
3.295600
  0
VERTEX
  8
0
  6
CONTINUOUS
 10
4.741000
 20
2.909720
  0
VERTEX
  8
0
  6
CONTINUOUS
 10
4.750240
 20
2.950640
  0
SEQEND
  8
0
  0
SOLID
  8
0
 62
    15
 10
4.741000
 20
2.909720
 11
5.382080
 21
3.295600
 12
4.737040
 22
2.869680
 13
5.378120
 23
3.255560
  0
POLYLINE
  8
0
  6
CONTINUOUS
 66
     1
 40
0.000000
 41
0.000000
  0
VERTEX
  8
0
  6
CONTINUOUS
 10
4.741000
 20
2.909720
  0
VERTEX
  8
0
  6
CONTINUOUS
 10
5.382080
 20
3.295600
  0
VERTEX
  8
0
  6
CONTINUOUS
 10
5.378120
 20
3.255560
  0
VERTEX
  8
0
  6
CONTINUOUS
 10
4.737040
 20
2.869680
  0
VERTEX
  8
0
  6
CONTINUOUS
 10
4.741000
 20
2.909720
  0
SEQEND
  8
0
  0
SOLID
  8
0
 62
    15
 10
4.737040
 20
2.869680
 11
5.378120
 21
3.255560
 12
4.737920
 22
2.829640
 13
5.379000
 23
3.215960
  0
POLYLINE
  8
0
  6
CONTINUOUS
 66
     1
 40
0.000000
 41
0.000000
  0
VERTEX
  8
0
  6
CONTINUOUS
 10
4.737040
 20
2.869680
  0
VERTEX
  8
0
  6
CONTINUOUS
 10
5.378120
 20
3.255560
  0
VERTEX
  8
0
  6
CONTINUOUS
 10
5.379000
 20
3.215960
  0
VERTEX
  8
0
  6
CONTINUOUS
 10
4.737920
 20
2.829640
  0
VERTEX
  8
0
  6
CONTINUOUS
 10
4.737040
 20
2.869680
  0
SEQEND
  8
0
  0
SOLID
  8
0
 62
    15
 10
4.737920
 20
2.829640
 11
5.379000
 21
3.215960
 12
4.743640
 22
2.790480
 13
5.384720
 23
3.176360
  0
POLYLINE
  8
0
  6
CONTINUOUS
 66
     1
 40
0.000000
 41
0.000000
  0
VERTEX
  8
0
  6
CONTINUOUS
 10
4.737920
 20
2.829640
  0
VERTEX
  8
0
  6
CONTINUOUS
 10
5.379000
 20
3.215960
  0
VERTEX
  8
0
  6
CONTINUOUS
 10
5.384720
 20
3.176360
  0
VERTEX
  8
0
  6
CONTINUOUS
 10
4.743640
 20
2.790480
  0
VERTEX
  8
0
  6
CONTINUOUS
 10
4.737920
 20
2.829640
  0
SEQEND
  8
0
  0
SOLID
  8
0
 62
    15
 10
4.743640
 20
2.790480
 11
5.384720
 21
3.176360
 12
4.753320
 22
2.751320
 13
5.394840
 23
3.137200
  0
POLYLINE
  8
0
  6
CONTINUOUS
 66
     1
 40
0.000000
 41
0.000000
  0
VERTEX
  8
0
  6
CONTINUOUS
 10
4.743640
 20
2.790480
  0
VERTEX
  8
0
  6
CONTINUOUS
 10
5.384720
 20
3.176360
  0
VERTEX
  8
0
  6
CONTINUOUS
 10
5.394840
 20
3.137200
  0
VERTEX
  8
0
  6
CONTINUOUS
 10
4.753320
 20
2.751320
  0
VERTEX
  8
0
  6
CONTINUOUS
 10
4.743640
 20
2.790480
  0
SEQEND
  8
0
  0
SOLID
  8
0
 62
    15
 10
4.753320
 20
2.751320
 11
5.394840
 21
3.137200
 12
4.767400
 22
2.712160
 13
5.408480
 23
3.098040
  0
POLYLINE
  8
0
  6
CONTINUOUS
 66
     1
 40
0.000000
 41
0.000000
  0
VERTEX
  8
0
  6
CONTINUOUS
 10
4.753320
 20
2.751320
  0
VERTEX
  8
0
  6
CONTINUOUS
 10
5.394840
 20
3.137200
  0
VERTEX
  8
0
  6
CONTINUOUS
 10
5.408480
 20
3.098040
  0
VERTEX
  8
0
  6
CONTINUOUS
 10
4.767400
 20
2.712160
  0
VERTEX
  8
0
  6
CONTINUOUS
 10
4.753320
 20
2.751320
  0
SEQEND
  8
0
  0
SOLID
  8
0
 62
    15
 10
4.767400
 20
2.712160
 11
5.408480
 21
3.098040
 12
4.806120
 22
2.633400
 13
5.447200
 23
3.019280
  0
POLYLINE
  8
0
  6
CONTINUOUS
 66
     1
 40
0.000000
 41
0.000000
  0
VERTEX
  8
0
  6
CONTINUOUS
 10
4.767400
 20
2.712160
  0
VERTEX
  8
0
  6
CONTINUOUS
 10
5.408480
 20
3.098040
  0
VERTEX
  8
0
  6
CONTINUOUS
 10
5.447200
 20
3.019280
  0
VERTEX
  8
0
  6
CONTINUOUS
 10
4.806120
 20
2.633400
  0
VERTEX
  8
0
  6
CONTINUOUS
 10
4.767400
 20
2.712160
  0
SEQEND
  8
0
  0
SOLID
  8
0
 62
    15
 10
4.806120
 20
2.633400
 11
5.447200
 21
3.019280
 12
4.856280
 22
2.553760
 13
5.497360
 23
2.939640
  0
POLYLINE
  8
0
  6
CONTINUOUS
 66
     1
 40
0.000000
 41
0.000000
  0
VERTEX
  8
0
  6
CONTINUOUS
 10
4.806120
 20
2.633400
  0
VERTEX
  8
0
  6
CONTINUOUS
 10
5.447200
 20
3.019280
  0
VERTEX
  8
0
  6
CONTINUOUS
 10
5.497360
 20
2.939640
  0
VERTEX
  8
0
  6
CONTINUOUS
 10
4.856280
 20
2.553760
  0
VERTEX
  8
0
  6
CONTINUOUS
 10
4.806120
 20
2.633400
  0
SEQEND
  8
0
  0
SOLID
  8
0
 62
    15
 10
4.856280
 20
2.553760
 11
5.497360
 21
2.939640
 12
4.915680
 22
2.471480
 13
5.556760
 23
2.857800
  0
POLYLINE
  8
0
  6
CONTINUOUS
 66
     1
 40
0.000000
 41
0.000000
  0
VERTEX
  8
0
  6
CONTINUOUS
 10
4.856280
 20
2.553760
  0
VERTEX
  8
0
  6
CONTINUOUS
 10
5.497360
 20
2.939640
  0
VERTEX
  8
0
  6
CONTINUOUS
 10
5.556760
 20
2.857800
  0
VERTEX
  8
0
  6
CONTINUOUS
 10
4.915680
 20
2.471480
  0
VERTEX
  8
0
  6
CONTINUOUS
 10
4.856280
 20
2.553760
  0
SEQEND
  8
0
  0
SOLID
  8
0
 62
    15
 10
4.915680
 20
2.471480
 11
5.556760
 21
2.857800
 12
4.979040
 22
2.391840
 13
5.620120
 23
2.777720
  0
POLYLINE
  8
0
  6
CONTINUOUS
 66
     1
 40
0.000000
 41
0.000000
  0
VERTEX
  8
0
  6
CONTINUOUS
 10
4.915680
 20
2.471480
  0
VERTEX
  8
0
  6
CONTINUOUS
 10
5.556760
 20
2.857800
  0
VERTEX
  8
0
  6
CONTINUOUS
 10
5.620120
 20
2.777720
  0
VERTEX
  8
0
  6
CONTINUOUS
 10
4.979040
 20
2.391840
  0
VERTEX
  8
0
  6
CONTINUOUS
 10
4.915680
 20
2.471480
  0
SEQEND
  8
0
  0
SOLID
  8
0
 62
    15
 10
4.979040
 20
2.391840
 11
5.620120
 21
2.777720
 12
5.010280
 22
2.354000
 13
5.651360
 23
2.739880
  0
POLYLINE
  8
0
  6
CONTINUOUS
 66
     1
 40
0.000000
 41
0.000000
  0
VERTEX
  8
0
  6
CONTINUOUS
 10
4.979040
 20
2.391840
  0
VERTEX
  8
0
  6
CONTINUOUS
 10
5.620120
 20
2.777720
  0
VERTEX
  8
0
  6
CONTINUOUS
 10
5.651360
 20
2.739880
  0
VERTEX
  8
0
  6
CONTINUOUS
 10
5.010280
 20
2.354000
  0
VERTEX
  8
0
  6
CONTINUOUS
 10
4.979040
 20
2.391840
  0
SEQEND
  8
0
  0
SOLID
  8
0
 62
    15
 10
4.583480
 20
3.593040
 11
5.224560
 21
3.978920
 12
4.847480
 22
3.126200
 13
5.488560
 23
3.512080
  0
POLYLINE
  8
0
  6
CONTINUOUS
 66
     1
 40
0.000000
 41
0.000000
  0
VERTEX
  8
0
  6
CONTINUOUS
 10
4.583480
 20
3.593040
  0
VERTEX
  8
0
  6
CONTINUOUS
 10
5.224560
 20
3.978920
  0
VERTEX
  8
0
  6
CONTINUOUS
 10
5.488560
 20
3.512080
  0
VERTEX
  8
0
  6
CONTINUOUS
 10
4.847480
 20
3.126200
  0
VERTEX
  8
0
  6
CONTINUOUS
 10
4.583480
 20
3.593040
  0
SEQEND
  8
0
  0
SOLID
  8
0
 62
    15
 10
5.040200
 20
2.316600
 11
5.681280
 21
2.702920
 12
5.095200
 22
2.243120
 13
5.736280
 23
2.629440
  0
POLYLINE
  8
0
  6
CONTINUOUS
 66
     1
 40
0.000000
 41
0.000000
  0
VERTEX
  8
0
  6
CONTINUOUS
 10
5.040200
 20
2.316600
  0
VERTEX
  8
0
  6
CONTINUOUS
 10
5.681280
 20
2.702920
  0
VERTEX
  8
0
  6
CONTINUOUS
 10
5.736280
 20
2.629440
  0
VERTEX
  8
0
  6
CONTINUOUS
 10
5.095200
 20
2.243120
  0
VERTEX
  8
0
  6
CONTINUOUS
 10
5.040200
 20
2.316600
  0
SEQEND
  8
0
  0
SOLID
  8
0
 62
    15
 10
5.095200
 20
2.243120
 11
5.736280
 21
2.629440
 12
5.118520
 22
2.206160
 13
5.759600
 23
2.592040
  0
POLYLINE
  8
0
  6
CONTINUOUS
 66
     1
 40
0.000000
 41
0.000000
  0
VERTEX
  8
0
  6
CONTINUOUS
 10
5.095200
 20
2.243120
  0
VERTEX
  8
0
  6
CONTINUOUS
 10
5.736280
 20
2.629440
  0
VERTEX
  8
0
  6
CONTINUOUS
 10
5.759600
 20
2.592040
  0
VERTEX
  8
0
  6
CONTINUOUS
 10
5.118520
 20
2.206160
  0
VERTEX
  8
0
  6
CONTINUOUS
 10
5.095200
 20
2.243120
  0
SEQEND
  8
0
  0
SOLID
  8
0
 62
    15
 10
5.118520
 20
2.206160
 11
5.759600
 21
2.592040
 12
5.138320
 22
2.167880
 13
5.779400
 23
2.553760
  0
POLYLINE
  8
0
  6
CONTINUOUS
 66
     1
 40
0.000000
 41
0.000000
  0
VERTEX
  8
0
  6
CONTINUOUS
 10
5.118520
 20
2.206160
  0
VERTEX
  8
0
  6
CONTINUOUS
 10
5.759600
 20
2.592040
  0
VERTEX
  8
0
  6
CONTINUOUS
 10
5.779400
 20
2.553760
  0
VERTEX
  8
0
  6
CONTINUOUS
 10
5.138320
 20
2.167880
  0
VERTEX
  8
0
  6
CONTINUOUS
 10
5.118520
 20
2.206160
  0
SEQEND
  8
0
  0
SOLID
  8
0
 62
    15
 10
5.138320
 20
2.167880
 11
5.779400
 21
2.553760
 12
5.154160
 22
2.128280
 13
5.795240
 23
2.514160
  0
POLYLINE
  8
0
  6
CONTINUOUS
 66
     1
 40
0.000000
 41
0.000000
  0
VERTEX
  8
0
  6
CONTINUOUS
 10
5.138320
 20
2.167880
  0
VERTEX
  8
0
  6
CONTINUOUS
 10
5.779400
 20
2.553760
  0
VERTEX
  8
0
  6
CONTINUOUS
 10
5.795240
 20
2.514160
  0
VERTEX
  8
0
  6
CONTINUOUS
 10
5.154160
 20
2.128280
  0
VERTEX
  8
0
  6
CONTINUOUS
 10
5.138320
 20
2.167880
  0
SEQEND
  8
0
  0
SOLID
  8
0
 62
    15
 10
5.154160
 20
2.128280
 11
5.795240
 21
2.514160
 12
5.165600
 22
2.086920
 13
5.806680
 23
2.472800
  0
POLYLINE
  8
0
  6
CONTINUOUS
 66
     1
 40
0.000000
 41
0.000000
  0
VERTEX
  8
0
  6
CONTINUOUS
 10
5.154160
 20
2.128280
  0
VERTEX
  8
0
  6
CONTINUOUS
 10
5.795240
 20
2.514160
  0
VERTEX
  8
0
  6
CONTINUOUS
 10
5.806680
 20
2.472800
  0
VERTEX
  8
0
  6
CONTINUOUS
 10
5.165600
 20
2.086920
  0
VERTEX
  8
0
  6
CONTINUOUS
 10
5.154160
 20
2.128280
  0
SEQEND
  8
0
  0
SOLID
  8
0
 62
    15
 10
5.165600
 20
2.086920
 11
5.806680
 21
2.472800
 12
5.172200
 22
2.043360
 13
5.813280
 23
2.429240
  0
POLYLINE
  8
0
  6
CONTINUOUS
 66
     1
 40
0.000000
 41
0.000000
  0
VERTEX
  8
0
  6
CONTINUOUS
 10
5.165600
 20
2.086920
  0
VERTEX
  8
0
  6
CONTINUOUS
 10
5.806680
 20
2.472800
  0
VERTEX
  8
0
  6
CONTINUOUS
 10
5.813280
 20
2.429240
  0
VERTEX
  8
0
  6
CONTINUOUS
 10
5.172200
 20
2.043360
  0
VERTEX
  8
0
  6
CONTINUOUS
 10
5.165600
 20
2.086920
  0
SEQEND
  8
0
  0
SOLID
  8
0
 62
    15
 10
5.172200
 20
2.043360
 11
5.813280
 21
2.429240
 12
5.172640
 22
1.997160
 13
5.813720
 23
2.383040
  0
POLYLINE
  8
0
  6
CONTINUOUS
 66
     1
 40
0.000000
 41
0.000000
  0
VERTEX
  8
0
  6
CONTINUOUS
 10
5.172200
 20
2.043360
  0
VERTEX
  8
0
  6
CONTINUOUS
 10
5.813280
 20
2.429240
  0
VERTEX
  8
0
  6
CONTINUOUS
 10
5.813720
 20
2.383040
  0
VERTEX
  8
0
  6
CONTINUOUS
 10
5.172640
 20
1.997160
  0
VERTEX
  8
0
  6
CONTINUOUS
 10
5.172200
 20
2.043360
  0
SEQEND
  8
0
  0
SOLID
  8
0
 62
    15
 10
5.172640
 20
1.997160
 11
5.813720
 21
2.383040
 12
5.166920
 22
1.947880
 13
5.808000
 23
2.333760
  0
POLYLINE
  8
0
  6
CONTINUOUS
 66
     1
 40
0.000000
 41
0.000000
  0
VERTEX
  8
0
  6
CONTINUOUS
 10
5.172640
 20
1.997160
  0
VERTEX
  8
0
  6
CONTINUOUS
 10
5.813720
 20
2.383040
  0
VERTEX
  8
0
  6
CONTINUOUS
 10
5.808000
 20
2.333760
  0
VERTEX
  8
0
  6
CONTINUOUS
 10
5.166920
 20
1.947880
  0
VERTEX
  8
0
  6
CONTINUOUS
 10
5.172640
 20
1.997160
  0
SEQEND
  8
0
  0
SOLID
  8
0
 62
    15
 10
5.166920
 20
1.947880
 11
5.808000
 21
2.333760
 12
5.154160
 22
1.895080
 13
5.795240
 23
2.280960
  0
POLYLINE
  8
0
  6
CONTINUOUS
 66
     1
 40
0.000000
 41
0.000000
  0
VERTEX
  8
0
  6
CONTINUOUS
 10
5.166920
 20
1.947880
  0
VERTEX
  8
0
  6
CONTINUOUS
 10
5.808000
 20
2.333760
  0
VERTEX
  8
0
  6
CONTINUOUS
 10
5.795240
 20
2.280960
  0
VERTEX
  8
0
  6
CONTINUOUS
 10
5.154160
 20
1.895080
  0
VERTEX
  8
0
  6
CONTINUOUS
 10
5.166920
 20
1.947880
  0
SEQEND
  8
0
  0
SOLID
  8
0
 62
    15
 10
5.154160
 20
1.895080
 11
5.795240
 21
2.280960
 12
5.134360
 22
1.837880
 13
5.775440
 23
2.224200
  0
POLYLINE
  8
0
  6
CONTINUOUS
 66
     1
 40
0.000000
 41
0.000000
  0
VERTEX
  8
0
  6
CONTINUOUS
 10
5.154160
 20
1.895080
  0
VERTEX
  8
0
  6
CONTINUOUS
 10
5.795240
 20
2.280960
  0
VERTEX
  8
0
  6
CONTINUOUS
 10
5.775440
 20
2.224200
  0
VERTEX
  8
0
  6
CONTINUOUS
 10
5.134360
 20
1.837880
  0
VERTEX
  8
0
  6
CONTINUOUS
 10
5.154160
 20
1.895080
  0
SEQEND
  8
0
  0
SOLID
  8
0
 62
    15
 10
5.134360
 20
1.837880
 11
5.775440
 21
2.224200
 12
5.106200
 22
1.776720
 13
5.747280
 23
2.163040
  0
POLYLINE
  8
0
  6
CONTINUOUS
 66
     1
 40
0.000000
 41
0.000000
  0
VERTEX
  8
0
  6
CONTINUOUS
 10
5.134360
 20
1.837880
  0
VERTEX
  8
0
  6
CONTINUOUS
 10
5.775440
 20
2.224200
  0
VERTEX
  8
0
  6
CONTINUOUS
 10
5.747280
 20
2.163040
  0
VERTEX
  8
0
  6
CONTINUOUS
 10
5.106200
 20
1.776720
  0
VERTEX
  8
0
  6
CONTINUOUS
 10
5.134360
 20
1.837880
  0
SEQEND
  8
0
  0
SOLID
  8
0
 62
    15
 10
5.106200
 20
1.776720
 11
5.747280
 21
2.163040
 12
5.106200
 22
1.772760
 13
5.747280
 23
2.159080
  0
POLYLINE
  8
0
  6
CONTINUOUS
 66
     1
 40
0.000000
 41
0.000000
  0
VERTEX
  8
0
  6
CONTINUOUS
 10
5.106200
 20
1.776720
  0
VERTEX
  8
0
  6
CONTINUOUS
 10
5.747280
 20
2.163040
  0
VERTEX
  8
0
  6
CONTINUOUS
 10
5.747280
 20
2.159080
  0
VERTEX
  8
0
  6
CONTINUOUS
 10
5.106200
 20
1.772760
  0
VERTEX
  8
0
  6
CONTINUOUS
 10
5.106200
 20
1.776720
  0
SEQEND
  8
0
  0
SOLID
  8
0
 62
    15
 10
5.106200
 20
1.772760
 11
5.747280
 21
2.159080
 12
5.214000
 22
1.664960
 13
5.855520
 23
2.050840
  0
POLYLINE
  8
0
  6
CONTINUOUS
 66
     1
 40
0.000000
 41
0.000000
  0
VERTEX
  8
0
  6
CONTINUOUS
 10
5.106200
 20
1.772760
  0
VERTEX
  8
0
  6
CONTINUOUS
 10
5.747280
 20
2.159080
  0
VERTEX
  8
0
  6
CONTINUOUS
 10
5.855520
 20
2.050840
  0
VERTEX
  8
0
  6
CONTINUOUS
 10
5.214000
 20
1.664960
  0
VERTEX
  8
0
  6
CONTINUOUS
 10
5.106200
 20
1.772760
  0
SEQEND
  8
0
  0
SOLID
  8
0
 62
    15
 10
5.214000
 20
1.664960
 11
5.855520
 21
2.050840
 12
5.214000
 22
0.850080
 13
5.855520
 23
1.236400
  0
POLYLINE
  8
0
  6
CONTINUOUS
 66
     1
 40
0.000000
 41
0.000000
  0
VERTEX
  8
0
  6
CONTINUOUS
 10
5.214000
 20
1.664960
  0
VERTEX
  8
0
  6
CONTINUOUS
 10
5.855520
 20
2.050840
  0
VERTEX
  8
0
  6
CONTINUOUS
 10
5.855520
 20
1.236400
  0
VERTEX
  8
0
  6
CONTINUOUS
 10
5.214000
 20
0.850080
  0
VERTEX
  8
0
  6
CONTINUOUS
 10
5.214000
 20
1.664960
  0
SEQEND
  8
0
  0
SOLID
  8
0
 62
    15
 10
4.460720
 20
3.597000
 11
5.101800
 21
3.982880
 12
4.579520
 22
3.597000
 13
5.220600
 23
3.982880
  0
POLYLINE
  8
0
  6
CONTINUOUS
 66
     1
 40
0.000000
 41
0.000000
  0
VERTEX
  8
0
  6
CONTINUOUS
 10
4.460720
 20
3.597000
  0
VERTEX
  8
0
  6
CONTINUOUS
 10
5.101800
 20
3.982880
  0
VERTEX
  8
0
  6
CONTINUOUS
 10
5.220600
 20
3.982880
  0
VERTEX
  8
0
  6
CONTINUOUS
 10
4.579520
 20
3.597000
  0
VERTEX
  8
0
  6
CONTINUOUS
 10
4.460720
 20
3.597000
  0
SEQEND
  8
0
  0
SOLID
  8
0
 62
    15
 10
4.579520
 20
3.597000
 11
5.220600
 21
3.982880
 12
4.583480
 22
3.593040
 13
5.224560
 23
3.978920
  0
POLYLINE
  8
0
  6
CONTINUOUS
 66
     1
 40
0.000000
 41
0.000000
  0
VERTEX
  8
0
  6
CONTINUOUS
 10
4.579520
 20
3.597000
  0
VERTEX
  8
0
  6
CONTINUOUS
 10
5.220600
 20
3.982880
  0
VERTEX
  8
0
  6
CONTINUOUS
 10
5.224560
 20
3.978920
  0
VERTEX
  8
0
  6
CONTINUOUS
 10
4.583480
 20
3.593040
  0
VERTEX
  8
0
  6
CONTINUOUS
 10
4.579520
 20
3.597000
  0
SEQEND
  8
0
  0
POLYLINE
  8
0
  6
CONTINUOUS
 66
     1
 40
0.000000
 41
0.000000
  0
VERTEX
  8
0
  6
CONTINUOUS
 10
4.583480
 20
3.593040
  0
VERTEX
  8
0
  6
CONTINUOUS
 10
4.847480
 20
3.126200
  0
VERTEX
  8
0
  6
CONTINUOUS
 10
4.847480
 20
3.122240
  0
VERTEX
  8
0
  6
CONTINUOUS
 10
4.813600
 20
3.077800
  0
VERTEX
  8
0
  6
CONTINUOUS
 10
4.786320
 20
3.034680
  0
VERTEX
  8
0
  6
CONTINUOUS
 10
4.765200
 20
2.992000
  0
VERTEX
  8
0
  6
CONTINUOUS
 10
4.750240
 20
2.950640
  0
VERTEX
  8
0
  6
CONTINUOUS
 10
4.741000
 20
2.909720
  0
VERTEX
  8
0
  6
CONTINUOUS
 10
4.737040
 20
2.869680
  0
VERTEX
  8
0
  6
CONTINUOUS
 10
4.737920
 20
2.829640
  0
VERTEX
  8
0
  6
CONTINUOUS
 10
4.743640
 20
2.790480
  0
VERTEX
  8
0
  6
CONTINUOUS
 10
4.753320
 20
2.751320
  0
VERTEX
  8
0
  6
CONTINUOUS
 10
4.767400
 20
2.712160
  0
VERTEX
  8
0
  6
CONTINUOUS
 10
4.806120
 20
2.633400
  0
VERTEX
  8
0
  6
CONTINUOUS
 10
4.856280
 20
2.553760
  0
VERTEX
  8
0
  6
CONTINUOUS
 10
4.915680
 20
2.471480
  0
VERTEX
  8
0
  6
CONTINUOUS
 10
4.979040
 20
2.391840
  0
VERTEX
  8
0
  6
CONTINUOUS
 10
5.010280
 20
2.354000
  0
VERTEX
  8
0
  6
CONTINUOUS
 10
5.040200
 20
2.316600
  0
VERTEX
  8
0
  6
CONTINUOUS
 10
5.095200
 20
2.243120
  0
VERTEX
  8
0
  6
CONTINUOUS
 10
5.118520
 20
2.206160
  0
VERTEX
  8
0
  6
CONTINUOUS
 10
5.138320
 20
2.167880
  0
VERTEX
  8
0
  6
CONTINUOUS
 10
5.154160
 20
2.128280
  0
VERTEX
  8
0
  6
CONTINUOUS
 10
5.165600
 20
2.086920
  0
VERTEX
  8
0
  6
CONTINUOUS
 10
5.172200
 20
2.043360
  0
VERTEX
  8
0
  6
CONTINUOUS
 10
5.172640
 20
1.997160
  0
VERTEX
  8
0
  6
CONTINUOUS
 10
5.166920
 20
1.947880
  0
VERTEX
  8
0
  6
CONTINUOUS
 10
5.154160
 20
1.895080
  0
VERTEX
  8
0
  6
CONTINUOUS
 10
5.134360
 20
1.837880
  0
VERTEX
  8
0
  6
CONTINUOUS
 10
5.106200
 20
1.776720
  0
VERTEX
  8
0
  6
CONTINUOUS
 10
5.106200
 20
1.772760
  0
VERTEX
  8
0
  6
CONTINUOUS
 10
5.214000
 20
1.664960
  0
VERTEX
  8
0
  6
CONTINUOUS
 10
5.214000
 20
0.850080
  0
VERTEX
  8
0
  6
CONTINUOUS
 10
4.460720
 20
0.850080
  0
VERTEX
  8
0
  6
CONTINUOUS
 10
4.460720
 20
3.597000
  0
VERTEX
  8
0
  6
CONTINUOUS
 10
4.579520
 20
3.597000
  0
VERTEX
  8
0
  6
CONTINUOUS
 10
4.583480
 20
3.593040
  0
SEQEND
  8
0
  0
TEXT
  8
0
 10
4.861120
 20
0.583880
 40
0.138155
  1
BA  212
 41
1.000000
  7
SN0
 71
     0
 72
     5
 11
5.451108
 21
0.583880
  0
TEXT
  8
0
 10
4.705360
 20
0.392040
 40
0.138155
  1
3/4" x 2-5/8"
 41
1.000000
  7
SN0
 71
     0
 72
     5
 11
5.605577
 21
0.392040
  0
TEXT
  8
0
 10
7.674040
 20
3.868040
 40
0.138155
  1
panel
 41
1.000000
  7
SN0
 71
     0
 72
     5
 11
8.079725
 21
3.868040
  0
TEXT
  8
0
 10
7.738720
 20
3.676200
 40
0.138155
  1
212
 41
1.000000
  7
SN0
 71
     0
 72
     5
 11
8.015541
 21
3.676200
  0
ENDSEC
  0
EOF
