  0
SECTION
  2
HEADER
  9
$ACADVER
  1
AC1006
  9
$EXTMIN
 10
3.772768
 20
0.411308
  9
$EXTMAX
 10
20.402981
 20
7.742214
  9
$LTSCALE
 40
0.081609
  9
$PDMODE
 70
    35
  9
$PDSIZE
 40
0.065287
  0
ENDSEC
  0
SECTION
  2
TABLES
  0
TABLE
  2
LTYPE
 70
     9
  0
LTYPE
  2
CONTINUOUS
 70
    64
  3
Solid line
 72
    65
 73
     0
 40
0.000000
  0
LTYPE
  2
DASHED
 70
    64
  3
__ __ __ __ __ __ __ __ __ __ __ __ __ __ __
 72
    65
 73
     2
 40
0.000612
 49
0.000408
 49
-0.000204
  0
LTYPE
  2
HIDDEN
 70
    64
  3
 _ _ _ _ _ _ _ _ _ _ _ _ _ _ _ _ _ _ _ _ _ _
 72
    65
 73
     2
 40
0.000306
 49
0.000204
 49
-0.000102
  0
LTYPE
  2
CENTER
 70
    64
  3
____ _ ____ _ ____ _ ____ _ ____ _ ____ _ ____
 72
    65
 73
     4
 40
0.001632
 49
0.001020
 49
-0.000204
 49
0.000204
 49
-0.000204
  0
LTYPE
  2
PHANTOM
 70
    64
  3
_____ _ _ _____ _ _ _____ _ _ _____ _ _ ____
 72
    65
 73
     6
 40
0.002040
 49
0.001020
 49
-0.000204
 49
0.000204
 49
-0.000204
 49
0.000204
 49
-0.000204
  0
LTYPE
  2
DOT
 70
    64
  3
...............................................
 72
    65
 73
     2
 40
0.000204
 49
0.000000
 49
-0.000204
  0
LTYPE
  2
DASHDOT
 70
    64
  3
__ . __ . __ . __ . __ . __ . __ . __ . __ . __
 72
    65
 73
     4
 40
0.000816
 49
0.000408
 49
-0.000204
 49
0.000000
 49
-0.000204
  0
LTYPE
  2
BORDER
 70
    64
  3
__ __ . __ __ . __ __ . __ __ . __ __ . __ __
 72
    65
 73
     6
 40
0.001428
 49
0.000408
 49
-0.000204
 49
0.000408
 49
-0.000204
 49
0.000000
 49
-0.000204
  0
LTYPE
  2
DIVIDE
 70
    64
  3
__ . . __ . . __ . . __ . . __ . . __ . . __
 72
    65
 73
     6
 40
0.001020
 49
0.000408
 49
-0.000204
 49
0.000000
 49
-0.000204
 49
0.000000
 49
-0.000204
  0
LTYPE
  2
DOTDOT
 70
    64
  3
 . .  . .  . .  . .  . .  . . 
 72
    65
 73
     5
 40
0.000449
 49
-0.000204
 49
0.000000
 49
-0.000204
 49
0.000000
 49
-0.000204
  0
ENDTAB
  0
TABLE
  2
STYLE
 70
     4
  0
STYLE
 70
     0
  2
SN0
 40
0.000000
 41
0.000816
 50
0.000000
 71
     0
 42
0.000000
  3
ROMAND
  0
STYLE
 70
    68
  2
SV0
 40
0.000000
 41
0.000816
 50
0.000000
 71
     0
 42
0.000000
  3
ROMAND
  0
STYLE
 70
     0
  2
SN1
 40
0.000000
 41
0.000816
 50
0.000000
 71
     0
 42
0.000000
  3
ROMAND
  0
STYLE
 70
    68
  2
SV1
 40
0.000000
 41
0.000816
 50
0.000000
 71
     0
 42
0.000000
  3
ROMAND
  0
ENDTAB
  0
TABLE
  2
LAYER
 70
     3
  0
LAYER
  2
FOREGROUND
 70
    64
 62
     7
  6
CONTINUOUS
  0
LAYER
  2
BACKGROUND
 70
    65
 62
    -7
  6
CONTINUOUS
  0
LAYER
  2
0
 70
    64
 62
     7
  6
CONTINUOUS
  0
ENDTAB
  0
ENDSEC
  0
SECTION
  2
ENTITIES
  0
POLYLINE
  8
FOREGROUND
  6
CONTINUOUS
 66
     1
 40
0.000000
 41
0.000000
  0
VERTEX
  8
FOREGROUND
  6
CONTINUOUS
 10
0.000000
 20
8.153521
  0
VERTEX
  8
FOREGROUND
  6
CONTINUOUS
 10
8.500358
 20
8.153521
  0
VERTEX
  8
FOREGROUND
  6
CONTINUOUS
 10
8.500358
 20
-2.846510
  0
VERTEX
  8
FOREGROUND
  6
CONTINUOUS
 10
0.000000
 20
-2.846510
  0
VERTEX
  8
FOREGROUND
  6
CONTINUOUS
 10
0.000000
 20
8.153521
  0
SEQEND
  8
0
  0
POLYLINE
  8
FOREGROUND
  6
CONTINUOUS
 66
     1
 40
0.000000
 41
0.000000
  0
VERTEX
  8
FOREGROUND
  6
CONTINUOUS
 10
0.000000
 20
8.153521
  0
VERTEX
  8
FOREGROUND
  6
CONTINUOUS
 10
8.500358
 20
8.153521
  0
VERTEX
  8
FOREGROUND
  6
CONTINUOUS
 10
8.500358
 20
-2.846510
  0
VERTEX
  8
FOREGROUND
  6
CONTINUOUS
 10
0.000000
 20
-2.846510
  0
VERTEX
  8
FOREGROUND
  6
CONTINUOUS
 10
0.000000
 20
8.153521
  0
SEQEND
  8
0
  0
POLYLINE
  8
0
  6
CONTINUOUS
 66
     1
 40
0.013873
 41
0.013873
  0
VERTEX
  8
0
  6
CONTINUOUS
 10
6.988966
 20
7.169321
  0
VERTEX
  8
0
  6
CONTINUOUS
 10
6.997127
 20
7.087712
  0
VERTEX
  8
0
  6
CONTINUOUS
 10
7.055885
 20
7.082816
  0
VERTEX
  8
0
  6
CONTINUOUS
 10
7.093425
 20
7.072207
  0
VERTEX
  8
0
  6
CONTINUOUS
 10
7.116275
 20
7.058333
  0
VERTEX
  8
0
  6
CONTINUOUS
 10
7.167689
 20
7.000391
  0
VERTEX
  8
0
  6
CONTINUOUS
 10
7.210941
 20
6.974276
  0
VERTEX
  8
0
  6
CONTINUOUS
 10
7.251746
 20
6.957138
  0
VERTEX
  8
0
  6
CONTINUOUS
 10
7.251746
 20
6.944081
  0
VERTEX
  8
0
  6
CONTINUOUS
 10
7.251746
 20
6.944897
  0
VERTEX
  8
0
  6
CONTINUOUS
 10
7.251746
 20
6.803714
  0
VERTEX
  8
0
  6
CONTINUOUS
 10
3.805412
 20
6.803714
  0
VERTEX
  8
0
  6
CONTINUOUS
 10
3.805412
 20
7.445158
  0
VERTEX
  8
0
  6
CONTINUOUS
 10
4.308937
 20
7.444342
  0
VERTEX
  8
0
  6
CONTINUOUS
 10
4.335868
 20
7.433733
  0
VERTEX
  8
0
  6
CONTINUOUS
 10
4.359535
 20
7.412515
  0
VERTEX
  8
0
  6
CONTINUOUS
 10
4.379937
 20
7.381503
  0
VERTEX
  8
0
  6
CONTINUOUS
 10
4.388914
 20
7.362733
  0
VERTEX
  8
0
  6
CONTINUOUS
 10
4.438695
 20
7.384768
  0
VERTEX
  8
0
  6
CONTINUOUS
 10
4.487660
 20
7.402722
  0
VERTEX
  8
0
  6
CONTINUOUS
 10
4.534993
 20
7.416595
  0
VERTEX
  8
0
  6
CONTINUOUS
 10
4.626395
 20
7.433733
  0
VERTEX
  8
0
  6
CONTINUOUS
 10
4.714532
 20
7.437813
  0
VERTEX
  8
0
  6
CONTINUOUS
 10
4.757785
 20
7.436181
  0
VERTEX
  8
0
  6
CONTINUOUS
 10
4.843474
 20
7.425572
  0
VERTEX
  8
0
  6
CONTINUOUS
 10
4.972416
 20
7.395377
  0
VERTEX
  8
0
  6
CONTINUOUS
 10
5.296402
 20
7.299079
  0
VERTEX
  8
0
  6
CONTINUOUS
 10
5.455539
 20
7.262355
  0
VERTEX
  8
0
  6
CONTINUOUS
 10
5.571423
 20
7.245217
  0
VERTEX
  8
0
  6
CONTINUOUS
 10
5.697101
 20
7.234608
  0
VERTEX
  8
0
  6
CONTINUOUS
 10
5.833387
 20
7.233792
  0
VERTEX
  8
0
  6
CONTINUOUS
 10
5.906019
 20
7.237872
  0
VERTEX
  8
0
  6
CONTINUOUS
 10
6.065156
 20
7.255826
  0
VERTEX
  8
0
  6
CONTINUOUS
 10
6.113305
 20
7.169321
  0
VERTEX
  8
0
  6
CONTINUOUS
 10
6.988966
 20
7.169321
  0
SEQEND
  8
0
  0
TEXT
  8
0
 10
20.370338
 20
0.417020
 40
0.010671
  1
B242
 41
1.000000
  7
SN0
 71
     0
 72
     5
 11
20.398609
 21
0.417020
  0
SOLID
  8
0
 62
    15
 10
4.550499
 20
5.767284
 11
4.555395
 21
6.513187
 12
4.596200
 22
5.773813
 13
4.600280
 23
6.519716
  0
POLYLINE
  8
0
  6
CONTINUOUS
 66
     1
 40
0.000000
 41
0.000000
  0
VERTEX
  8
0
  6
CONTINUOUS
 10
4.550499
 20
5.767284
  0
VERTEX
  8
0
  6
CONTINUOUS
 10
4.555395
 20
6.513187
  0
VERTEX
  8
0
  6
CONTINUOUS
 10
4.600280
 20
6.519716
  0
VERTEX
  8
0
  6
CONTINUOUS
 10
4.596200
 20
5.773813
  0
VERTEX
  8
0
  6
CONTINUOUS
 10
4.550499
 20
5.767284
  0
SEQEND
  8
0
  0
SOLID
  8
0
 62
    15
 10
6.966115
 20
5.428608
 11
6.971012
 21
6.174511
 12
6.998759
 22
5.426976
 13
7.002839
 23
6.172879
  0
POLYLINE
  8
0
  6
CONTINUOUS
 66
     1
 40
0.000000
 41
0.000000
  0
VERTEX
  8
0
  6
CONTINUOUS
 10
6.966115
 20
5.428608
  0
VERTEX
  8
0
  6
CONTINUOUS
 10
6.971012
 20
6.174511
  0
VERTEX
  8
0
  6
CONTINUOUS
 10
7.002839
 20
6.172879
  0
VERTEX
  8
0
  6
CONTINUOUS
 10
6.998759
 20
5.426976
  0
VERTEX
  8
0
  6
CONTINUOUS
 10
6.966115
 20
5.428608
  0
SEQEND
  8
0
  0
SOLID
  8
0
 62
    15
 10
6.966115
 20
5.430240
 11
6.971012
 21
6.175327
 12
6.966115
 22
5.428608
 13
6.971012
 23
6.174511
  0
POLYLINE
  8
0
  6
CONTINUOUS
 66
     1
 40
0.000000
 41
0.000000
  0
VERTEX
  8
0
  6
CONTINUOUS
 10
6.966115
 20
5.430240
  0
VERTEX
  8
0
  6
CONTINUOUS
 10
6.971012
 20
6.175327
  0
VERTEX
  8
0
  6
CONTINUOUS
 10
6.971012
 20
6.174511
  0
VERTEX
  8
0
  6
CONTINUOUS
 10
6.966115
 20
5.428608
  0
VERTEX
  8
0
  6
CONTINUOUS
 10
6.966115
 20
5.430240
  0
SEQEND
  8
0
  0
SOLID
  8
0
 62
    15
 10
6.998759
 20
5.426976
 11
7.002839
 21
6.172879
 12
7.024874
 22
5.423712
 13
7.028954
 23
6.169615
  0
POLYLINE
  8
0
  6
CONTINUOUS
 66
     1
 40
0.000000
 41
0.000000
  0
VERTEX
  8
0
  6
CONTINUOUS
 10
6.998759
 20
5.426976
  0
VERTEX
  8
0
  6
CONTINUOUS
 10
7.002839
 20
6.172879
  0
VERTEX
  8
0
  6
CONTINUOUS
 10
7.028954
 20
6.169615
  0
VERTEX
  8
0
  6
CONTINUOUS
 10
7.024874
 20
5.423712
  0
VERTEX
  8
0
  6
CONTINUOUS
 10
6.998759
 20
5.426976
  0
SEQEND
  8
0
  0
SOLID
  8
0
 62
    15
 10
7.024874
 20
5.423712
 11
7.028954
 21
6.169615
 12
7.045276
 22
5.419631
 13
7.050172
 23
6.165534
  0
POLYLINE
  8
0
  6
CONTINUOUS
 66
     1
 40
0.000000
 41
0.000000
  0
VERTEX
  8
0
  6
CONTINUOUS
 10
7.024874
 20
5.423712
  0
VERTEX
  8
0
  6
CONTINUOUS
 10
7.028954
 20
6.169615
  0
VERTEX
  8
0
  6
CONTINUOUS
 10
7.050172
 20
6.165534
  0
VERTEX
  8
0
  6
CONTINUOUS
 10
7.045276
 20
5.419631
  0
VERTEX
  8
0
  6
CONTINUOUS
 10
7.024874
 20
5.423712
  0
SEQEND
  8
0
  0
SOLID
  8
0
 62
    15
 10
7.045276
 20
5.419631
 11
7.050172
 21
6.165534
 12
7.062414
 22
5.413919
 13
7.066494
 23
6.159822
  0
POLYLINE
  8
0
  6
CONTINUOUS
 66
     1
 40
0.000000
 41
0.000000
  0
VERTEX
  8
0
  6
CONTINUOUS
 10
7.045276
 20
5.419631
  0
VERTEX
  8
0
  6
CONTINUOUS
 10
7.050172
 20
6.165534
  0
VERTEX
  8
0
  6
CONTINUOUS
 10
7.066494
 20
6.159822
  0
VERTEX
  8
0
  6
CONTINUOUS
 10
7.062414
 20
5.413919
  0
VERTEX
  8
0
  6
CONTINUOUS
 10
7.045276
 20
5.419631
  0
SEQEND
  8
0
  0
SOLID
  8
0
 62
    15
 10
7.062414
 20
5.413919
 11
7.066494
 21
6.159822
 12
7.085264
 22
5.400045
 13
7.090161
 23
6.145132
  0
POLYLINE
  8
0
  6
CONTINUOUS
 66
     1
 40
0.000000
 41
0.000000
  0
VERTEX
  8
0
  6
CONTINUOUS
 10
7.062414
 20
5.413919
  0
VERTEX
  8
0
  6
CONTINUOUS
 10
7.066494
 20
6.159822
  0
VERTEX
  8
0
  6
CONTINUOUS
 10
7.090161
 20
6.145132
  0
VERTEX
  8
0
  6
CONTINUOUS
 10
7.085264
 20
5.400045
  0
VERTEX
  8
0
  6
CONTINUOUS
 10
7.062414
 20
5.413919
  0
SEQEND
  8
0
  0
SOLID
  8
0
 62
    15
 10
7.085264
 20
5.400045
 11
7.090161
 21
6.145132
 12
7.101586
 22
5.382091
 13
7.105666
 23
6.127994
  0
POLYLINE
  8
0
  6
CONTINUOUS
 66
     1
 40
0.000000
 41
0.000000
  0
VERTEX
  8
0
  6
CONTINUOUS
 10
7.085264
 20
5.400045
  0
VERTEX
  8
0
  6
CONTINUOUS
 10
7.090161
 20
6.145132
  0
VERTEX
  8
0
  6
CONTINUOUS
 10
7.105666
 20
6.127994
  0
VERTEX
  8
0
  6
CONTINUOUS
 10
7.101586
 20
5.382091
  0
VERTEX
  8
0
  6
CONTINUOUS
 10
7.085264
 20
5.400045
  0
SEQEND
  8
0
  0
SOLID
  8
0
 62
    15
 10
7.101586
 20
5.382091
 11
7.105666
 21
6.127994
 12
7.116275
 22
5.362505
 13
7.120356
 23
6.108408
  0
POLYLINE
  8
0
  6
CONTINUOUS
 66
     1
 40
0.000000
 41
0.000000
  0
VERTEX
  8
0
  6
CONTINUOUS
 10
7.101586
 20
5.382091
  0
VERTEX
  8
0
  6
CONTINUOUS
 10
7.105666
 20
6.127994
  0
VERTEX
  8
0
  6
CONTINUOUS
 10
7.120356
 20
6.108408
  0
VERTEX
  8
0
  6
CONTINUOUS
 10
7.116275
 20
5.362505
  0
VERTEX
  8
0
  6
CONTINUOUS
 10
7.101586
 20
5.382091
  0
SEQEND
  8
0
  0
SOLID
  8
0
 62
    15
 10
7.116275
 20
5.362505
 11
7.120356
 21
6.108408
 12
7.136677
 22
5.341287
 13
7.141574
 23
6.087190
  0
POLYLINE
  8
0
  6
CONTINUOUS
 66
     1
 40
0.000000
 41
0.000000
  0
VERTEX
  8
0
  6
CONTINUOUS
 10
7.116275
 20
5.362505
  0
VERTEX
  8
0
  6
CONTINUOUS
 10
7.120356
 20
6.108408
  0
VERTEX
  8
0
  6
CONTINUOUS
 10
7.141574
 20
6.087190
  0
VERTEX
  8
0
  6
CONTINUOUS
 10
7.136677
 20
5.341287
  0
VERTEX
  8
0
  6
CONTINUOUS
 10
7.116275
 20
5.362505
  0
SEQEND
  8
0
  0
SOLID
  8
0
 62
    15
 10
7.136677
 20
5.341287
 11
7.141574
 21
6.087190
 12
7.151367
 22
5.330678
 13
7.155447
 23
6.076581
  0
POLYLINE
  8
0
  6
CONTINUOUS
 66
     1
 40
0.000000
 41
0.000000
  0
VERTEX
  8
0
  6
CONTINUOUS
 10
7.136677
 20
5.341287
  0
VERTEX
  8
0
  6
CONTINUOUS
 10
7.141574
 20
6.087190
  0
VERTEX
  8
0
  6
CONTINUOUS
 10
7.155447
 20
6.076581
  0
VERTEX
  8
0
  6
CONTINUOUS
 10
7.151367
 20
5.330678
  0
VERTEX
  8
0
  6
CONTINUOUS
 10
7.136677
 20
5.341287
  0
SEQEND
  8
0
  0
SOLID
  8
0
 62
    15
 10
7.151367
 20
5.330678
 11
7.155447
 21
6.076581
 12
7.169321
 22
5.320069
 13
7.174217
 23
6.065972
  0
POLYLINE
  8
0
  6
CONTINUOUS
 66
     1
 40
0.000000
 41
0.000000
  0
VERTEX
  8
0
  6
CONTINUOUS
 10
7.151367
 20
5.330678
  0
VERTEX
  8
0
  6
CONTINUOUS
 10
7.155447
 20
6.076581
  0
VERTEX
  8
0
  6
CONTINUOUS
 10
7.174217
 20
6.065972
  0
VERTEX
  8
0
  6
CONTINUOUS
 10
7.169321
 20
5.320069
  0
VERTEX
  8
0
  6
CONTINUOUS
 10
7.151367
 20
5.330678
  0
SEQEND
  8
0
  0
SOLID
  8
0
 62
    15
 10
7.169321
 20
5.320069
 11
7.174217
 21
6.065972
 12
7.192171
 22
5.309460
 13
7.197068
 23
6.055363
  0
POLYLINE
  8
0
  6
CONTINUOUS
 66
     1
 40
0.000000
 41
0.000000
  0
VERTEX
  8
0
  6
CONTINUOUS
 10
7.169321
 20
5.320069
  0
VERTEX
  8
0
  6
CONTINUOUS
 10
7.174217
 20
6.065972
  0
VERTEX
  8
0
  6
CONTINUOUS
 10
7.197068
 20
6.055363
  0
VERTEX
  8
0
  6
CONTINUOUS
 10
7.192171
 20
5.309460
  0
VERTEX
  8
0
  6
CONTINUOUS
 10
7.169321
 20
5.320069
  0
SEQEND
  8
0
  0
SOLID
  8
0
 62
    15
 10
7.220734
 20
5.299666
 11
7.225631
 21
6.044754
 12
7.220734
 22
5.144610
 13
7.225631
 23
5.890513
  0
POLYLINE
  8
0
  6
CONTINUOUS
 66
     1
 40
0.000000
 41
0.000000
  0
VERTEX
  8
0
  6
CONTINUOUS
 10
7.220734
 20
5.299666
  0
VERTEX
  8
0
  6
CONTINUOUS
 10
7.225631
 20
6.044754
  0
VERTEX
  8
0
  6
CONTINUOUS
 10
7.225631
 20
5.890513
  0
VERTEX
  8
0
  6
CONTINUOUS
 10
7.220734
 20
5.144610
  0
VERTEX
  8
0
  6
CONTINUOUS
 10
7.220734
 20
5.299666
  0
SEQEND
  8
0
  0
SOLID
  8
0
 62
    15
 10
7.192171
 20
5.309460
 11
7.197068
 21
6.055363
 12
7.220734
 22
5.299666
 13
7.225631
 23
6.044754
  0
POLYLINE
  8
0
  6
CONTINUOUS
 66
     1
 40
0.000000
 41
0.000000
  0
VERTEX
  8
0
  6
CONTINUOUS
 10
7.192171
 20
5.309460
  0
VERTEX
  8
0
  6
CONTINUOUS
 10
7.197068
 20
6.055363
  0
VERTEX
  8
0
  6
CONTINUOUS
 10
7.225631
 20
6.044754
  0
VERTEX
  8
0
  6
CONTINUOUS
 10
7.220734
 20
5.299666
  0
VERTEX
  8
0
  6
CONTINUOUS
 10
7.192171
 20
5.309460
  0
SEQEND
  8
0
  0
SOLID
  8
0
 62
    15
 10
3.774401
 20
5.786054
 11
3.778481
 21
6.531957
 12
4.263236
 22
5.786054
 13
4.268133
 23
6.531957
  0
POLYLINE
  8
0
  6
CONTINUOUS
 66
     1
 40
0.000000
 41
0.000000
  0
VERTEX
  8
0
  6
CONTINUOUS
 10
3.774401
 20
5.786054
  0
VERTEX
  8
0
  6
CONTINUOUS
 10
3.778481
 20
6.531957
  0
VERTEX
  8
0
  6
CONTINUOUS
 10
4.268133
 20
6.531957
  0
VERTEX
  8
0
  6
CONTINUOUS
 10
4.263236
 20
5.786054
  0
VERTEX
  8
0
  6
CONTINUOUS
 10
3.774401
 20
5.786054
  0
SEQEND
  8
0
  0
SOLID
  8
0
 62
    15
 10
4.263236
 20
5.786054
 11
4.268133
 21
6.531957
 12
4.291800
 22
5.781158
 13
4.295880
 23
6.527061
  0
POLYLINE
  8
0
  6
CONTINUOUS
 66
     1
 40
0.000000
 41
0.000000
  0
VERTEX
  8
0
  6
CONTINUOUS
 10
4.263236
 20
5.786054
  0
VERTEX
  8
0
  6
CONTINUOUS
 10
4.268133
 20
6.531957
  0
VERTEX
  8
0
  6
CONTINUOUS
 10
4.295880
 20
6.527061
  0
VERTEX
  8
0
  6
CONTINUOUS
 10
4.291800
 20
5.781158
  0
VERTEX
  8
0
  6
CONTINUOUS
 10
4.263236
 20
5.786054
  0
SEQEND
  8
0
  0
SOLID
  8
0
 62
    15
 10
4.291800
 20
5.781158
 11
4.295880
 21
6.527061
 12
4.317098
 22
5.765652
 13
4.321179
 23
6.510739
  0
POLYLINE
  8
0
  6
CONTINUOUS
 66
     1
 40
0.000000
 41
0.000000
  0
VERTEX
  8
0
  6
CONTINUOUS
 10
4.291800
 20
5.781158
  0
VERTEX
  8
0
  6
CONTINUOUS
 10
4.295880
 20
6.527061
  0
VERTEX
  8
0
  6
CONTINUOUS
 10
4.321179
 20
6.510739
  0
VERTEX
  8
0
  6
CONTINUOUS
 10
4.317098
 20
5.765652
  0
VERTEX
  8
0
  6
CONTINUOUS
 10
4.291800
 20
5.781158
  0
SEQEND
  8
0
  0
SOLID
  8
0
 62
    15
 10
4.317098
 20
5.765652
 11
4.321179
 21
6.510739
 12
4.339133
 22
5.738721
 13
4.344029
 23
6.484624
  0
POLYLINE
  8
0
  6
CONTINUOUS
 66
     1
 40
0.000000
 41
0.000000
  0
VERTEX
  8
0
  6
CONTINUOUS
 10
4.317098
 20
5.765652
  0
VERTEX
  8
0
  6
CONTINUOUS
 10
4.321179
 20
6.510739
  0
VERTEX
  8
0
  6
CONTINUOUS
 10
4.344029
 20
6.484624
  0
VERTEX
  8
0
  6
CONTINUOUS
 10
4.339133
 20
5.738721
  0
VERTEX
  8
0
  6
CONTINUOUS
 10
4.317098
 20
5.765652
  0
SEQEND
  8
0
  0
SOLID
  8
0
 62
    15
 10
4.339133
 20
5.738721
 11
4.344029
 21
6.484624
 12
4.357903
 22
5.703629
 13
4.362799
 23
6.448716
  0
POLYLINE
  8
0
  6
CONTINUOUS
 66
     1
 40
0.000000
 41
0.000000
  0
VERTEX
  8
0
  6
CONTINUOUS
 10
4.339133
 20
5.738721
  0
VERTEX
  8
0
  6
CONTINUOUS
 10
4.344029
 20
6.484624
  0
VERTEX
  8
0
  6
CONTINUOUS
 10
4.362799
 20
6.448716
  0
VERTEX
  8
0
  6
CONTINUOUS
 10
4.357903
 20
5.703629
  0
VERTEX
  8
0
  6
CONTINUOUS
 10
4.339133
 20
5.738721
  0
SEQEND
  8
0
  0
SOLID
  8
0
 62
    15
 10
4.357903
 20
5.703629
 11
4.362799
 21
6.448716
 12
4.408500
 22
5.725664
 13
4.412580
 23
6.470751
  0
POLYLINE
  8
0
  6
CONTINUOUS
 66
     1
 40
0.000000
 41
0.000000
  0
VERTEX
  8
0
  6
CONTINUOUS
 10
4.357903
 20
5.703629
  0
VERTEX
  8
0
  6
CONTINUOUS
 10
4.362799
 20
6.448716
  0
VERTEX
  8
0
  6
CONTINUOUS
 10
4.412580
 20
6.470751
  0
VERTEX
  8
0
  6
CONTINUOUS
 10
4.408500
 20
5.725664
  0
VERTEX
  8
0
  6
CONTINUOUS
 10
4.357903
 20
5.703629
  0
SEQEND
  8
0
  0
SOLID
  8
0
 62
    15
 10
4.408500
 20
5.725664
 11
4.412580
 21
6.470751
 12
4.456649
 22
5.743618
 13
4.461546
 23
6.488705
  0
POLYLINE
  8
0
  6
CONTINUOUS
 66
     1
 40
0.000000
 41
0.000000
  0
VERTEX
  8
0
  6
CONTINUOUS
 10
4.408500
 20
5.725664
  0
VERTEX
  8
0
  6
CONTINUOUS
 10
4.412580
 20
6.470751
  0
VERTEX
  8
0
  6
CONTINUOUS
 10
4.461546
 20
6.488705
  0
VERTEX
  8
0
  6
CONTINUOUS
 10
4.456649
 20
5.743618
  0
VERTEX
  8
0
  6
CONTINUOUS
 10
4.408500
 20
5.725664
  0
SEQEND
  8
0
  0
SOLID
  8
0
 62
    15
 10
4.456649
 20
5.743618
 11
4.461546
 21
6.488705
 12
4.503982
 22
5.757491
 13
4.508879
 23
6.502578
  0
POLYLINE
  8
0
  6
CONTINUOUS
 66
     1
 40
0.000000
 41
0.000000
  0
VERTEX
  8
0
  6
CONTINUOUS
 10
4.456649
 20
5.743618
  0
VERTEX
  8
0
  6
CONTINUOUS
 10
4.461546
 20
6.488705
  0
VERTEX
  8
0
  6
CONTINUOUS
 10
4.508879
 20
6.502578
  0
VERTEX
  8
0
  6
CONTINUOUS
 10
4.503982
 20
5.757491
  0
VERTEX
  8
0
  6
CONTINUOUS
 10
4.456649
 20
5.743618
  0
SEQEND
  8
0
  0
SOLID
  8
0
 62
    15
 10
4.503982
 20
5.757491
 11
4.508879
 21
6.502578
 12
4.550499
 22
5.767284
 13
4.555395
 23
6.513187
  0
POLYLINE
  8
0
  6
CONTINUOUS
 66
     1
 40
0.000000
 41
0.000000
  0
VERTEX
  8
0
  6
CONTINUOUS
 10
4.503982
 20
5.757491
  0
VERTEX
  8
0
  6
CONTINUOUS
 10
4.508879
 20
6.502578
  0
VERTEX
  8
0
  6
CONTINUOUS
 10
4.555395
 20
6.513187
  0
VERTEX
  8
0
  6
CONTINUOUS
 10
4.550499
 20
5.767284
  0
VERTEX
  8
0
  6
CONTINUOUS
 10
4.503982
 20
5.757491
  0
SEQEND
  8
0
  0
SOLID
  8
0
 62
    15
 10
6.957954
 20
5.510217
 11
6.962851
 21
6.256120
 12
6.966115
 22
5.430240
 13
6.971012
 23
6.175327
  0
POLYLINE
  8
0
  6
CONTINUOUS
 66
     1
 40
0.000000
 41
0.000000
  0
VERTEX
  8
0
  6
CONTINUOUS
 10
6.957954
 20
5.510217
  0
VERTEX
  8
0
  6
CONTINUOUS
 10
6.962851
 20
6.256120
  0
VERTEX
  8
0
  6
CONTINUOUS
 10
6.971012
 20
6.175327
  0
VERTEX
  8
0
  6
CONTINUOUS
 10
6.966115
 20
5.430240
  0
VERTEX
  8
0
  6
CONTINUOUS
 10
6.957954
 20
5.510217
  0
SEQEND
  8
0
  0
SOLID
  8
0
 62
    15
 10
4.596200
 20
5.773813
 11
4.600280
 21
6.519716
 12
4.640268
 22
5.777893
 13
4.644349
 23
6.523796
  0
POLYLINE
  8
0
  6
CONTINUOUS
 66
     1
 40
0.000000
 41
0.000000
  0
VERTEX
  8
0
  6
CONTINUOUS
 10
4.596200
 20
5.773813
  0
VERTEX
  8
0
  6
CONTINUOUS
 10
4.600280
 20
6.519716
  0
VERTEX
  8
0
  6
CONTINUOUS
 10
4.644349
 20
6.523796
  0
VERTEX
  8
0
  6
CONTINUOUS
 10
4.640268
 20
5.777893
  0
VERTEX
  8
0
  6
CONTINUOUS
 10
4.596200
 20
5.773813
  0
SEQEND
  8
0
  0
SOLID
  8
0
 62
    15
 10
4.640268
 20
5.777893
 11
4.644349
 21
6.523796
 12
4.727590
 22
5.777077
 13
4.731670
 23
6.522164
  0
POLYLINE
  8
0
  6
CONTINUOUS
 66
     1
 40
0.000000
 41
0.000000
  0
VERTEX
  8
0
  6
CONTINUOUS
 10
4.640268
 20
5.777893
  0
VERTEX
  8
0
  6
CONTINUOUS
 10
4.644349
 20
6.523796
  0
VERTEX
  8
0
  6
CONTINUOUS
 10
4.731670
 20
6.522164
  0
VERTEX
  8
0
  6
CONTINUOUS
 10
4.727590
 20
5.777077
  0
VERTEX
  8
0
  6
CONTINUOUS
 10
4.640268
 20
5.777893
  0
SEQEND
  8
0
  0
SOLID
  8
0
 62
    15
 10
4.727590
 20
5.777077
 11
4.731670
 21
6.522164
 12
4.813279
 22
5.766468
 13
4.817359
 23
6.511555
  0
POLYLINE
  8
0
  6
CONTINUOUS
 66
     1
 40
0.000000
 41
0.000000
  0
VERTEX
  8
0
  6
CONTINUOUS
 10
4.727590
 20
5.777077
  0
VERTEX
  8
0
  6
CONTINUOUS
 10
4.731670
 20
6.522164
  0
VERTEX
  8
0
  6
CONTINUOUS
 10
4.817359
 20
6.511555
  0
VERTEX
  8
0
  6
CONTINUOUS
 10
4.813279
 20
5.766468
  0
VERTEX
  8
0
  6
CONTINUOUS
 10
4.727590
 20
5.777077
  0
SEQEND
  8
0
  0
SOLID
  8
0
 62
    15
 10
4.813279
 20
5.766468
 11
4.817359
 21
6.511555
 12
4.898968
 22
5.747698
 13
4.903048
 23
6.493601
  0
POLYLINE
  8
0
  6
CONTINUOUS
 66
     1
 40
0.000000
 41
0.000000
  0
VERTEX
  8
0
  6
CONTINUOUS
 10
4.813279
 20
5.766468
  0
VERTEX
  8
0
  6
CONTINUOUS
 10
4.817359
 20
6.511555
  0
VERTEX
  8
0
  6
CONTINUOUS
 10
4.903048
 20
6.493601
  0
VERTEX
  8
0
  6
CONTINUOUS
 10
4.898968
 20
5.747698
  0
VERTEX
  8
0
  6
CONTINUOUS
 10
4.813279
 20
5.766468
  0
SEQEND
  8
0
  0
SOLID
  8
0
 62
    15
 10
4.898968
 20
5.747698
 11
4.903048
 21
6.493601
 12
4.985473
 22
5.724032
 13
4.989554
 23
6.469935
  0
POLYLINE
  8
0
  6
CONTINUOUS
 66
     1
 40
0.000000
 41
0.000000
  0
VERTEX
  8
0
  6
CONTINUOUS
 10
4.898968
 20
5.747698
  0
VERTEX
  8
0
  6
CONTINUOUS
 10
4.903048
 20
6.493601
  0
VERTEX
  8
0
  6
CONTINUOUS
 10
4.989554
 20
6.469935
  0
VERTEX
  8
0
  6
CONTINUOUS
 10
4.985473
 20
5.724032
  0
VERTEX
  8
0
  6
CONTINUOUS
 10
4.898968
 20
5.747698
  0
SEQEND
  8
0
  0
SOLID
  8
0
 62
    15
 10
4.985473
 20
5.724032
 11
4.989554
 21
6.469935
 12
5.074427
 22
5.697101
 13
5.079323
 23
6.443004
  0
POLYLINE
  8
0
  6
CONTINUOUS
 66
     1
 40
0.000000
 41
0.000000
  0
VERTEX
  8
0
  6
CONTINUOUS
 10
4.985473
 20
5.724032
  0
VERTEX
  8
0
  6
CONTINUOUS
 10
4.989554
 20
6.469935
  0
VERTEX
  8
0
  6
CONTINUOUS
 10
5.079323
 20
6.443004
  0
VERTEX
  8
0
  6
CONTINUOUS
 10
5.074427
 20
5.697101
  0
VERTEX
  8
0
  6
CONTINUOUS
 10
4.985473
 20
5.724032
  0
SEQEND
  8
0
  0
SOLID
  8
0
 62
    15
 10
5.074427
 20
5.697101
 11
5.079323
 21
6.443004
 12
5.120127
 22
5.683227
 13
5.125024
 23
6.428314
  0
POLYLINE
  8
0
  6
CONTINUOUS
 66
     1
 40
0.000000
 41
0.000000
  0
VERTEX
  8
0
  6
CONTINUOUS
 10
5.074427
 20
5.697101
  0
VERTEX
  8
0
  6
CONTINUOUS
 10
5.079323
 20
6.443004
  0
VERTEX
  8
0
  6
CONTINUOUS
 10
5.125024
 20
6.428314
  0
VERTEX
  8
0
  6
CONTINUOUS
 10
5.120127
 20
5.683227
  0
VERTEX
  8
0
  6
CONTINUOUS
 10
5.074427
 20
5.697101
  0
SEQEND
  8
0
  0
SOLID
  8
0
 62
    15
 10
5.120127
 20
5.683227
 11
5.125024
 21
6.428314
 12
5.167460
 22
5.668538
 13
5.171541
 23
6.414441
  0
POLYLINE
  8
0
  6
CONTINUOUS
 66
     1
 40
0.000000
 41
0.000000
  0
VERTEX
  8
0
  6
CONTINUOUS
 10
5.120127
 20
5.683227
  0
VERTEX
  8
0
  6
CONTINUOUS
 10
5.125024
 20
6.428314
  0
VERTEX
  8
0
  6
CONTINUOUS
 10
5.171541
 20
6.414441
  0
VERTEX
  8
0
  6
CONTINUOUS
 10
5.167460
 20
5.668538
  0
VERTEX
  8
0
  6
CONTINUOUS
 10
5.120127
 20
5.683227
  0
SEQEND
  8
0
  0
SOLID
  8
0
 62
    15
 10
5.167460
 20
5.668538
 11
5.171541
 21
6.414441
 12
5.265391
 22
5.640791
 13
5.269471
 23
6.385878
  0
POLYLINE
  8
0
  6
CONTINUOUS
 66
     1
 40
0.000000
 41
0.000000
  0
VERTEX
  8
0
  6
CONTINUOUS
 10
5.167460
 20
5.668538
  0
VERTEX
  8
0
  6
CONTINUOUS
 10
5.171541
 20
6.414441
  0
VERTEX
  8
0
  6
CONTINUOUS
 10
5.269471
 20
6.385878
  0
VERTEX
  8
0
  6
CONTINUOUS
 10
5.265391
 20
5.640791
  0
VERTEX
  8
0
  6
CONTINUOUS
 10
5.167460
 20
5.668538
  0
SEQEND
  8
0
  0
SOLID
  8
0
 62
    15
 10
5.265391
 20
5.640791
 11
5.269471
 21
6.385878
 12
5.369850
 22
5.614676
 13
5.373930
 23
6.360579
  0
POLYLINE
  8
0
  6
CONTINUOUS
 66
     1
 40
0.000000
 41
0.000000
  0
VERTEX
  8
0
  6
CONTINUOUS
 10
5.265391
 20
5.640791
  0
VERTEX
  8
0
  6
CONTINUOUS
 10
5.269471
 20
6.385878
  0
VERTEX
  8
0
  6
CONTINUOUS
 10
5.373930
 20
6.360579
  0
VERTEX
  8
0
  6
CONTINUOUS
 10
5.369850
 20
5.614676
  0
VERTEX
  8
0
  6
CONTINUOUS
 10
5.265391
 20
5.640791
  0
SEQEND
  8
0
  0
SOLID
  8
0
 62
    15
 10
5.369850
 20
5.614676
 11
5.373930
 21
6.360579
 12
5.481654
 22
5.594274
 13
5.485734
 23
6.339361
  0
POLYLINE
  8
0
  6
CONTINUOUS
 66
     1
 40
0.000000
 41
0.000000
  0
VERTEX
  8
0
  6
CONTINUOUS
 10
5.369850
 20
5.614676
  0
VERTEX
  8
0
  6
CONTINUOUS
 10
5.373930
 20
6.360579
  0
VERTEX
  8
0
  6
CONTINUOUS
 10
5.485734
 20
6.339361
  0
VERTEX
  8
0
  6
CONTINUOUS
 10
5.481654
 20
5.594274
  0
VERTEX
  8
0
  6
CONTINUOUS
 10
5.369850
 20
5.614676
  0
SEQEND
  8
0
  0
SOLID
  8
0
 62
    15
 10
5.481654
 20
5.594274
 11
5.485734
 21
6.339361
 12
5.540412
 22
5.586113
 13
5.544492
 23
6.331200
  0
POLYLINE
  8
0
  6
CONTINUOUS
 66
     1
 40
0.000000
 41
0.000000
  0
VERTEX
  8
0
  6
CONTINUOUS
 10
5.481654
 20
5.594274
  0
VERTEX
  8
0
  6
CONTINUOUS
 10
5.485734
 20
6.339361
  0
VERTEX
  8
0
  6
CONTINUOUS
 10
5.544492
 20
6.331200
  0
VERTEX
  8
0
  6
CONTINUOUS
 10
5.540412
 20
5.586113
  0
VERTEX
  8
0
  6
CONTINUOUS
 10
5.481654
 20
5.594274
  0
SEQEND
  8
0
  0
SOLID
  8
0
 62
    15
 10
5.540412
 20
5.586113
 11
5.544492
 21
6.331200
 12
5.601619
 22
5.579584
 13
5.606515
 23
6.325487
  0
POLYLINE
  8
0
  6
CONTINUOUS
 66
     1
 40
0.000000
 41
0.000000
  0
VERTEX
  8
0
  6
CONTINUOUS
 10
5.540412
 20
5.586113
  0
VERTEX
  8
0
  6
CONTINUOUS
 10
5.544492
 20
6.331200
  0
VERTEX
  8
0
  6
CONTINUOUS
 10
5.606515
 20
6.325487
  0
VERTEX
  8
0
  6
CONTINUOUS
 10
5.601619
 20
5.579584
  0
VERTEX
  8
0
  6
CONTINUOUS
 10
5.540412
 20
5.586113
  0
SEQEND
  8
0
  0
SOLID
  8
0
 62
    15
 10
5.601619
 20
5.579584
 11
5.606515
 21
6.325487
 12
5.666089
 22
5.575504
 13
5.670170
 23
6.321407
  0
POLYLINE
  8
0
  6
CONTINUOUS
 66
     1
 40
0.000000
 41
0.000000
  0
VERTEX
  8
0
  6
CONTINUOUS
 10
5.601619
 20
5.579584
  0
VERTEX
  8
0
  6
CONTINUOUS
 10
5.606515
 20
6.325487
  0
VERTEX
  8
0
  6
CONTINUOUS
 10
5.670170
 20
6.321407
  0
VERTEX
  8
0
  6
CONTINUOUS
 10
5.666089
 20
5.575504
  0
VERTEX
  8
0
  6
CONTINUOUS
 10
5.601619
 20
5.579584
  0
SEQEND
  8
0
  0
SOLID
  8
0
 62
    15
 10
5.666089
 20
5.575504
 11
5.670170
 21
6.321407
 12
5.732192
 22
5.573872
 13
5.737089
 23
6.319775
  0
POLYLINE
  8
0
  6
CONTINUOUS
 66
     1
 40
0.000000
 41
0.000000
  0
VERTEX
  8
0
  6
CONTINUOUS
 10
5.666089
 20
5.575504
  0
VERTEX
  8
0
  6
CONTINUOUS
 10
5.670170
 20
6.321407
  0
VERTEX
  8
0
  6
CONTINUOUS
 10
5.737089
 20
6.319775
  0
VERTEX
  8
0
  6
CONTINUOUS
 10
5.732192
 20
5.573872
  0
VERTEX
  8
0
  6
CONTINUOUS
 10
5.666089
 20
5.575504
  0
SEQEND
  8
0
  0
SOLID
  8
0
 62
    15
 10
5.732192
 20
5.573872
 11
5.737089
 21
6.319775
 12
5.801560
 22
5.575504
 13
5.806456
 23
6.320591
  0
POLYLINE
  8
0
  6
CONTINUOUS
 66
     1
 40
0.000000
 41
0.000000
  0
VERTEX
  8
0
  6
CONTINUOUS
 10
5.732192
 20
5.573872
  0
VERTEX
  8
0
  6
CONTINUOUS
 10
5.737089
 20
6.319775
  0
VERTEX
  8
0
  6
CONTINUOUS
 10
5.806456
 20
6.320591
  0
VERTEX
  8
0
  6
CONTINUOUS
 10
5.801560
 20
5.575504
  0
VERTEX
  8
0
  6
CONTINUOUS
 10
5.732192
 20
5.573872
  0
SEQEND
  8
0
  0
SOLID
  8
0
 62
    15
 10
5.801560
 20
5.575504
 11
5.806456
 21
6.320591
 12
5.874191
 22
5.578768
 13
5.879088
 23
6.324671
  0
POLYLINE
  8
0
  6
CONTINUOUS
 66
     1
 40
0.000000
 41
0.000000
  0
VERTEX
  8
0
  6
CONTINUOUS
 10
5.801560
 20
5.575504
  0
VERTEX
  8
0
  6
CONTINUOUS
 10
5.806456
 20
6.320591
  0
VERTEX
  8
0
  6
CONTINUOUS
 10
5.879088
 20
6.324671
  0
VERTEX
  8
0
  6
CONTINUOUS
 10
5.874191
 20
5.578768
  0
VERTEX
  8
0
  6
CONTINUOUS
 10
5.801560
 20
5.575504
  0
SEQEND
  8
0
  0
SOLID
  8
0
 62
    15
 10
5.874191
 20
5.578768
 11
5.879088
 21
6.324671
 12
5.950088
 22
5.586113
 13
5.954168
 23
6.332016
  0
POLYLINE
  8
0
  6
CONTINUOUS
 66
     1
 40
0.000000
 41
0.000000
  0
VERTEX
  8
0
  6
CONTINUOUS
 10
5.874191
 20
5.578768
  0
VERTEX
  8
0
  6
CONTINUOUS
 10
5.879088
 20
6.324671
  0
VERTEX
  8
0
  6
CONTINUOUS
 10
5.954168
 20
6.332016
  0
VERTEX
  8
0
  6
CONTINUOUS
 10
5.950088
 20
5.586113
  0
VERTEX
  8
0
  6
CONTINUOUS
 10
5.874191
 20
5.578768
  0
SEQEND
  8
0
  0
SOLID
  8
0
 62
    15
 10
5.950088
 20
5.586113
 11
5.954168
 21
6.332016
 12
6.029248
 22
5.596722
 13
6.033328
 23
6.342625
  0
POLYLINE
  8
0
  6
CONTINUOUS
 66
     1
 40
0.000000
 41
0.000000
  0
VERTEX
  8
0
  6
CONTINUOUS
 10
5.950088
 20
5.586113
  0
VERTEX
  8
0
  6
CONTINUOUS
 10
5.954168
 20
6.332016
  0
VERTEX
  8
0
  6
CONTINUOUS
 10
6.033328
 20
6.342625
  0
VERTEX
  8
0
  6
CONTINUOUS
 10
6.029248
 20
5.596722
  0
VERTEX
  8
0
  6
CONTINUOUS
 10
5.950088
 20
5.586113
  0
SEQEND
  8
0
  0
SOLID
  8
0
 62
    15
 10
6.029248
 20
5.596722
 11
6.033328
 21
6.342625
 12
6.034144
 22
5.596722
 13
6.039041
 23
6.342625
  0
POLYLINE
  8
0
  6
CONTINUOUS
 66
     1
 40
0.000000
 41
0.000000
  0
VERTEX
  8
0
  6
CONTINUOUS
 10
6.029248
 20
5.596722
  0
VERTEX
  8
0
  6
CONTINUOUS
 10
6.033328
 20
6.342625
  0
VERTEX
  8
0
  6
CONTINUOUS
 10
6.039041
 20
6.342625
  0
VERTEX
  8
0
  6
CONTINUOUS
 10
6.034144
 20
5.596722
  0
VERTEX
  8
0
  6
CONTINUOUS
 10
6.029248
 20
5.596722
  0
SEQEND
  8
0
  0
SOLID
  8
0
 62
    15
 10
6.034144
 20
5.596722
 11
6.039041
 21
6.342625
 12
6.036593
 22
5.592642
 13
6.041489
 23
6.338545
  0
POLYLINE
  8
0
  6
CONTINUOUS
 66
     1
 40
0.000000
 41
0.000000
  0
VERTEX
  8
0
  6
CONTINUOUS
 10
6.034144
 20
5.596722
  0
VERTEX
  8
0
  6
CONTINUOUS
 10
6.039041
 20
6.342625
  0
VERTEX
  8
0
  6
CONTINUOUS
 10
6.041489
 20
6.338545
  0
VERTEX
  8
0
  6
CONTINUOUS
 10
6.036593
 20
5.592642
  0
VERTEX
  8
0
  6
CONTINUOUS
 10
6.034144
 20
5.596722
  0
SEQEND
  8
0
  0
SOLID
  8
0
 62
    15
 10
6.036593
 20
5.592642
 11
6.041489
 21
6.338545
 12
6.082294
 22
5.510217
 13
6.086374
 23
6.256120
  0
POLYLINE
  8
0
  6
CONTINUOUS
 66
     1
 40
0.000000
 41
0.000000
  0
VERTEX
  8
0
  6
CONTINUOUS
 10
6.036593
 20
5.592642
  0
VERTEX
  8
0
  6
CONTINUOUS
 10
6.041489
 20
6.338545
  0
VERTEX
  8
0
  6
CONTINUOUS
 10
6.086374
 20
6.256120
  0
VERTEX
  8
0
  6
CONTINUOUS
 10
6.082294
 20
5.510217
  0
VERTEX
  8
0
  6
CONTINUOUS
 10
6.036593
 20
5.592642
  0
SEQEND
  8
0
  0
SOLID
  8
0
 62
    15
 10
6.082294
 20
5.510217
 11
6.086374
 21
6.256120
 12
6.951426
 22
5.510217
 13
6.956322
 23
6.256120
  0
POLYLINE
  8
0
  6
CONTINUOUS
 66
     1
 40
0.000000
 41
0.000000
  0
VERTEX
  8
0
  6
CONTINUOUS
 10
6.082294
 20
5.510217
  0
VERTEX
  8
0
  6
CONTINUOUS
 10
6.086374
 20
6.256120
  0
VERTEX
  8
0
  6
CONTINUOUS
 10
6.956322
 20
6.256120
  0
VERTEX
  8
0
  6
CONTINUOUS
 10
6.951426
 20
5.510217
  0
VERTEX
  8
0
  6
CONTINUOUS
 10
6.082294
 20
5.510217
  0
SEQEND
  8
0
  0
SOLID
  8
0
 62
    15
 10
6.951426
 20
5.510217
 11
6.956322
 21
6.256120
 12
6.957954
 22
5.510217
 13
6.962851
 23
6.256120
  0
POLYLINE
  8
0
  6
CONTINUOUS
 66
     1
 40
0.000000
 41
0.000000
  0
VERTEX
  8
0
  6
CONTINUOUS
 10
6.951426
 20
5.510217
  0
VERTEX
  8
0
  6
CONTINUOUS
 10
6.956322
 20
6.256120
  0
VERTEX
  8
0
  6
CONTINUOUS
 10
6.962851
 20
6.256120
  0
VERTEX
  8
0
  6
CONTINUOUS
 10
6.957954
 20
5.510217
  0
VERTEX
  8
0
  6
CONTINUOUS
 10
6.951426
 20
5.510217
  0
SEQEND
  8
0
  0
POLYLINE
  8
0
  6
CONTINUOUS
 66
     1
 40
0.000000
 41
0.000000
  0
VERTEX
  8
0
  6
CONTINUOUS
 10
6.957954
 20
5.510217
  0
VERTEX
  8
0
  6
CONTINUOUS
 10
6.966115
 20
5.428608
  0
VERTEX
  8
0
  6
CONTINUOUS
 10
7.024874
 20
5.423712
  0
VERTEX
  8
0
  6
CONTINUOUS
 10
7.062414
 20
5.413919
  0
VERTEX
  8
0
  6
CONTINUOUS
 10
7.085264
 20
5.400045
  0
VERTEX
  8
0
  6
CONTINUOUS
 10
7.136677
 20
5.341287
  0
VERTEX
  8
0
  6
CONTINUOUS
 10
7.169321
 20
5.320069
  0
VERTEX
  8
0
  6
CONTINUOUS
 10
7.220734
 20
5.299666
  0
VERTEX
  8
0
  6
CONTINUOUS
 10
7.220734
 20
5.144610
  0
VERTEX
  8
0
  6
CONTINUOUS
 10
3.774401
 20
5.144610
  0
VERTEX
  8
0
  6
CONTINUOUS
 10
3.774401
 20
5.786054
  0
VERTEX
  8
0
  6
CONTINUOUS
 10
4.263236
 20
5.786054
  0
VERTEX
  8
0
  6
CONTINUOUS
 10
4.291800
 20
5.781158
  0
VERTEX
  8
0
  6
CONTINUOUS
 10
4.317098
 20
5.765652
  0
VERTEX
  8
0
  6
CONTINUOUS
 10
4.339133
 20
5.738721
  0
VERTEX
  8
0
  6
CONTINUOUS
 10
4.357903
 20
5.703629
  0
VERTEX
  8
0
  6
CONTINUOUS
 10
4.456649
 20
5.743618
  0
VERTEX
  8
0
  6
CONTINUOUS
 10
4.503982
 20
5.757491
  0
VERTEX
  8
0
  6
CONTINUOUS
 10
4.550499
 20
5.767284
  0
VERTEX
  8
0
  6
CONTINUOUS
 10
4.640268
 20
5.777893
  0
VERTEX
  8
0
  6
CONTINUOUS
 10
4.727590
 20
5.777077
  0
VERTEX
  8
0
  6
CONTINUOUS
 10
4.813279
 20
5.766468
  0
VERTEX
  8
0
  6
CONTINUOUS
 10
4.898968
 20
5.747698
  0
VERTEX
  8
0
  6
CONTINUOUS
 10
5.265391
 20
5.640791
  0
VERTEX
  8
0
  6
CONTINUOUS
 10
5.369850
 20
5.614676
  0
VERTEX
  8
0
  6
CONTINUOUS
 10
5.481654
 20
5.594274
  0
VERTEX
  8
0
  6
CONTINUOUS
 10
5.601619
 20
5.579584
  0
VERTEX
  8
0
  6
CONTINUOUS
 10
5.732192
 20
5.573872
  0
VERTEX
  8
0
  6
CONTINUOUS
 10
5.874191
 20
5.578768
  0
VERTEX
  8
0
  6
CONTINUOUS
 10
6.034144
 20
5.596722
  0
VERTEX
  8
0
  6
CONTINUOUS
 10
6.082294
 20
5.510217
  0
VERTEX
  8
0
  6
CONTINUOUS
 10
6.957954
 20
5.510217
  0
SEQEND
  8
0
  0
TEXT
  8
0
 10
5.205817
 20
4.906313
 40
0.134918
  1
BA  211
 41
1.000000
  7
SN1
 71
     0
 72
     5
 11
5.791200
 21
4.906313
  0
TEXT
  8
0
 10
5.004243
 20
4.715348
 40
0.134918
  1
5/8" x 3-7/16"
 41
1.000000
  7
SN1
 71
     0
 72
     5
 11
5.988752
 21
4.715348
  0
TEXT
  8
0
 10
7.637755
 20
7.591238
 40
0.134918
  1
case
 41
1.000000
  7
SN1
 71
     0
 72
     5
 11
7.985326
 21
7.591238
  0
TEXT
  8
0
 10
7.674479
 20
7.399457
 40
0.134918
  1
211
 41
1.000000
  7
SN1
 71
     0
 72
     5
 11
7.948877
 21
7.399457
  0
TEXT
  8
0
 10
7.757719
 20
7.208493
 40
0.134918
  1
B
 41
1.000000
  7
SN1
 71
     0
 72
     5
 11
7.867479
 21
7.208493
  0
ENDSEC
  0
EOF
