  0
SECTION
  2
HEADER
  9
$ACADVER
  1
AC1006
  9
$EXTMIN
 10
4.693480
 20
0.445280
  9
$EXTMAX
 10
7.262640
 20
1.920600
  9
$LTSCALE
 40
0.044000
  9
$PDMODE
 70
    35
  9
$PDSIZE
 40
0.035200
  0
ENDSEC
  0
SECTION
  2
TABLES
  0
TABLE
  2
LTYPE
 70
     9
  0
LTYPE
  2
CONTINUOUS
 70
    64
  3
Solid line
 72
    65
 73
     0
 40
0.000000
  0
LTYPE
  2
DASHED
 70
    64
  3
__ __ __ __ __ __ __ __ __ __ __ __ __ __ __
 72
    65
 73
     2
 40
0.000330
 49
0.000220
 49
-0.000110
  0
LTYPE
  2
HIDDEN
 70
    64
  3
 _ _ _ _ _ _ _ _ _ _ _ _ _ _ _ _ _ _ _ _ _ _
 72
    65
 73
     2
 40
0.000165
 49
0.000110
 49
-0.000055
  0
LTYPE
  2
CENTER
 70
    64
  3
____ _ ____ _ ____ _ ____ _ ____ _ ____ _ ____
 72
    65
 73
     4
 40
0.000880
 49
0.000550
 49
-0.000110
 49
0.000110
 49
-0.000110
  0
LTYPE
  2
PHANTOM
 70
    64
  3
_____ _ _ _____ _ _ _____ _ _ _____ _ _ ____
 72
    65
 73
     6
 40
0.001100
 49
0.000550
 49
-0.000110
 49
0.000110
 49
-0.000110
 49
0.000110
 49
-0.000110
  0
LTYPE
  2
DOT
 70
    64
  3
...............................................
 72
    65
 73
     2
 40
0.000110
 49
0.000000
 49
-0.000110
  0
LTYPE
  2
DASHDOT
 70
    64
  3
__ . __ . __ . __ . __ . __ . __ . __ . __ . __
 72
    65
 73
     4
 40
0.000440
 49
0.000220
 49
-0.000110
 49
0.000000
 49
-0.000110
  0
LTYPE
  2
BORDER
 70
    64
  3
__ __ . __ __ . __ __ . __ __ . __ __ . __ __
 72
    65
 73
     6
 40
0.000770
 49
0.000220
 49
-0.000110
 49
0.000220
 49
-0.000110
 49
0.000000
 49
-0.000110
  0
LTYPE
  2
DIVIDE
 70
    64
  3
__ . . __ . . __ . . __ . . __ . . __ . . __
 72
    65
 73
     6
 40
0.000550
 49
0.000220
 49
-0.000110
 49
0.000000
 49
-0.000110
 49
0.000000
 49
-0.000110
  0
LTYPE
  2
DOTDOT
 70
    64
  3
 . .  . .  . .  . .  . .  . . 
 72
    65
 73
     5
 40
0.000242
 49
-0.000110
 49
0.000000
 49
-0.000110
 49
0.000000
 49
-0.000110
  0
ENDTAB
  0
TABLE
  2
STYLE
 70
     2
  0
STYLE
 70
     0
  2
SN0
 40
0.000000
 41
0.000440
 50
0.000000
 71
     0
 42
0.000000
  3
ROMAND
  0
STYLE
 70
    68
  2
SV0
 40
0.000000
 41
0.000440
 50
0.000000
 71
     0
 42
0.000000
  3
ROMAND
  0
ENDTAB
  0
TABLE
  2
LAYER
 70
     3
  0
LAYER
  2
FOREGROUND
 70
    64
 62
     7
  6
CONTINUOUS
  0
LAYER
  2
BACKGROUND
 70
    65
 62
    -7
  6
CONTINUOUS
  0
LAYER
  2
0
 70
    64
 62
     7
  6
CONTINUOUS
  0
ENDTAB
  0
ENDSEC
  0
SECTION
  2
ENTITIES
  0
POLYLINE
  8
FOREGROUND
  6
CONTINUOUS
 66
     1
 40
0.000000
 41
0.000000
  0
VERTEX
  8
FOREGROUND
  6
CONTINUOUS
 10
0.000000
 20
2.365880
  0
VERTEX
  8
FOREGROUND
  6
CONTINUOUS
 10
8.499920
 20
2.365880
  0
VERTEX
  8
FOREGROUND
  6
CONTINUOUS
 10
8.499920
 20
-8.634120
  0
VERTEX
  8
FOREGROUND
  6
CONTINUOUS
 10
0.000000
 20
-8.634120
  0
VERTEX
  8
FOREGROUND
  6
CONTINUOUS
 10
0.000000
 20
2.365880
  0
SEQEND
  8
0
  0
POLYLINE
  8
FOREGROUND
  6
CONTINUOUS
 66
     1
 40
0.000000
 41
0.000000
  0
VERTEX
  8
FOREGROUND
  6
CONTINUOUS
 10
0.000000
 20
2.365880
  0
VERTEX
  8
FOREGROUND
  6
CONTINUOUS
 10
8.499920
 20
2.365880
  0
VERTEX
  8
FOREGROUND
  6
CONTINUOUS
 10
8.499920
 20
-8.634120
  0
VERTEX
  8
FOREGROUND
  6
CONTINUOUS
 10
0.000000
 20
-8.634120
  0
VERTEX
  8
FOREGROUND
  6
CONTINUOUS
 10
0.000000
 20
2.365880
  0
SEQEND
  8
0
  0
SOLID
  8
0
 62
    15
 10
4.995320
 20
1.118040
 11
5.642120
 21
1.494680
 12
4.983880
 22
1.074040
 13
5.631120
 23
1.450680
  0
POLYLINE
  8
0
  6
CONTINUOUS
 66
     1
 40
0.000000
 41
0.000000
  0
VERTEX
  8
0
  6
CONTINUOUS
 10
4.995320
 20
1.118040
  0
VERTEX
  8
0
  6
CONTINUOUS
 10
5.642120
 20
1.494680
  0
VERTEX
  8
0
  6
CONTINUOUS
 10
5.631120
 20
1.450680
  0
VERTEX
  8
0
  6
CONTINUOUS
 10
4.983880
 20
1.074040
  0
VERTEX
  8
0
  6
CONTINUOUS
 10
4.995320
 20
1.118040
  0
SEQEND
  8
0
  0
SOLID
  8
0
 62
    15
 10
5.109720
 20
1.290520
 11
5.756960
 21
1.667160
 12
5.078920
 22
1.262360
 13
5.725720
 23
1.639000
  0
POLYLINE
  8
0
  6
CONTINUOUS
 66
     1
 40
0.000000
 41
0.000000
  0
VERTEX
  8
0
  6
CONTINUOUS
 10
5.109720
 20
1.290520
  0
VERTEX
  8
0
  6
CONTINUOUS
 10
5.756960
 20
1.667160
  0
VERTEX
  8
0
  6
CONTINUOUS
 10
5.725720
 20
1.639000
  0
VERTEX
  8
0
  6
CONTINUOUS
 10
5.078920
 20
1.262360
  0
VERTEX
  8
0
  6
CONTINUOUS
 10
5.109720
 20
1.290520
  0
SEQEND
  8
0
  0
SOLID
  8
0
 62
    15
 10
5.078920
 20
1.262360
 11
5.725720
 21
1.639000
 12
5.052080
 22
1.231120
 13
5.698880
 23
1.607760
  0
POLYLINE
  8
0
  6
CONTINUOUS
 66
     1
 40
0.000000
 41
0.000000
  0
VERTEX
  8
0
  6
CONTINUOUS
 10
5.078920
 20
1.262360
  0
VERTEX
  8
0
  6
CONTINUOUS
 10
5.725720
 20
1.639000
  0
VERTEX
  8
0
  6
CONTINUOUS
 10
5.698880
 20
1.607760
  0
VERTEX
  8
0
  6
CONTINUOUS
 10
5.052080
 20
1.231120
  0
VERTEX
  8
0
  6
CONTINUOUS
 10
5.078920
 20
1.262360
  0
SEQEND
  8
0
  0
SOLID
  8
0
 62
    15
 10
5.052080
 20
1.231120
 11
5.698880
 21
1.607760
 12
5.029200
 22
1.196800
 13
5.676000
 23
1.573440
  0
POLYLINE
  8
0
  6
CONTINUOUS
 66
     1
 40
0.000000
 41
0.000000
  0
VERTEX
  8
0
  6
CONTINUOUS
 10
5.052080
 20
1.231120
  0
VERTEX
  8
0
  6
CONTINUOUS
 10
5.698880
 20
1.607760
  0
VERTEX
  8
0
  6
CONTINUOUS
 10
5.676000
 20
1.573440
  0
VERTEX
  8
0
  6
CONTINUOUS
 10
5.029200
 20
1.196800
  0
VERTEX
  8
0
  6
CONTINUOUS
 10
5.052080
 20
1.231120
  0
SEQEND
  8
0
  0
SOLID
  8
0
 62
    15
 10
5.029200
 20
1.196800
 11
5.676000
 21
1.573440
 12
5.010280
 22
1.158960
 13
5.657080
 23
1.535600
  0
POLYLINE
  8
0
  6
CONTINUOUS
 66
     1
 40
0.000000
 41
0.000000
  0
VERTEX
  8
0
  6
CONTINUOUS
 10
5.029200
 20
1.196800
  0
VERTEX
  8
0
  6
CONTINUOUS
 10
5.676000
 20
1.573440
  0
VERTEX
  8
0
  6
CONTINUOUS
 10
5.657080
 20
1.535600
  0
VERTEX
  8
0
  6
CONTINUOUS
 10
5.010280
 20
1.158960
  0
VERTEX
  8
0
  6
CONTINUOUS
 10
5.029200
 20
1.196800
  0
SEQEND
  8
0
  0
SOLID
  8
0
 62
    15
 10
5.010280
 20
1.158960
 11
5.657080
 21
1.535600
 12
4.995320
 22
1.118040
 13
5.642120
 23
1.494680
  0
POLYLINE
  8
0
  6
CONTINUOUS
 66
     1
 40
0.000000
 41
0.000000
  0
VERTEX
  8
0
  6
CONTINUOUS
 10
5.010280
 20
1.158960
  0
VERTEX
  8
0
  6
CONTINUOUS
 10
5.657080
 20
1.535600
  0
VERTEX
  8
0
  6
CONTINUOUS
 10
5.642120
 20
1.494680
  0
VERTEX
  8
0
  6
CONTINUOUS
 10
4.995320
 20
1.118040
  0
VERTEX
  8
0
  6
CONTINUOUS
 10
5.010280
 20
1.158960
  0
SEQEND
  8
0
  0
SOLID
  8
0
 62
    15
 10
5.144920
 20
1.315160
 11
5.792160
 21
1.691800
 12
5.109720
 22
1.290520
 13
5.756960
 23
1.667160
  0
POLYLINE
  8
0
  6
CONTINUOUS
 66
     1
 40
0.000000
 41
0.000000
  0
VERTEX
  8
0
  6
CONTINUOUS
 10
5.144920
 20
1.315160
  0
VERTEX
  8
0
  6
CONTINUOUS
 10
5.792160
 20
1.691800
  0
VERTEX
  8
0
  6
CONTINUOUS
 10
5.756960
 20
1.667160
  0
VERTEX
  8
0
  6
CONTINUOUS
 10
5.109720
 20
1.290520
  0
VERTEX
  8
0
  6
CONTINUOUS
 10
5.144920
 20
1.315160
  0
SEQEND
  8
0
  0
SOLID
  8
0
 62
    15
 10
4.983880
 20
1.074040
 11
5.631120
 21
1.450680
 12
4.976400
 22
1.026520
 13
5.623200
 23
1.403160
  0
POLYLINE
  8
0
  6
CONTINUOUS
 66
     1
 40
0.000000
 41
0.000000
  0
VERTEX
  8
0
  6
CONTINUOUS
 10
4.983880
 20
1.074040
  0
VERTEX
  8
0
  6
CONTINUOUS
 10
5.631120
 20
1.450680
  0
VERTEX
  8
0
  6
CONTINUOUS
 10
5.623200
 20
1.403160
  0
VERTEX
  8
0
  6
CONTINUOUS
 10
4.976400
 20
1.026520
  0
VERTEX
  8
0
  6
CONTINUOUS
 10
4.983880
 20
1.074040
  0
SEQEND
  8
0
  0
SOLID
  8
0
 62
    15
 10
4.976400
 20
1.026520
 11
5.623200
 21
1.403160
 12
4.972440
 22
0.975920
 13
5.619240
 23
1.352560
  0
POLYLINE
  8
0
  6
CONTINUOUS
 66
     1
 40
0.000000
 41
0.000000
  0
VERTEX
  8
0
  6
CONTINUOUS
 10
4.976400
 20
1.026520
  0
VERTEX
  8
0
  6
CONTINUOUS
 10
5.623200
 20
1.403160
  0
VERTEX
  8
0
  6
CONTINUOUS
 10
5.619240
 20
1.352560
  0
VERTEX
  8
0
  6
CONTINUOUS
 10
4.972440
 20
0.975920
  0
VERTEX
  8
0
  6
CONTINUOUS
 10
4.976400
 20
1.026520
  0
SEQEND
  8
0
  0
SOLID
  8
0
 62
    15
 10
4.972440
 20
0.975920
 11
5.619240
 21
1.352560
 12
4.971560
 22
0.921800
 13
5.618800
 23
1.298440
  0
POLYLINE
  8
0
  6
CONTINUOUS
 66
     1
 40
0.000000
 41
0.000000
  0
VERTEX
  8
0
  6
CONTINUOUS
 10
4.972440
 20
0.975920
  0
VERTEX
  8
0
  6
CONTINUOUS
 10
5.619240
 20
1.352560
  0
VERTEX
  8
0
  6
CONTINUOUS
 10
5.618800
 20
1.298440
  0
VERTEX
  8
0
  6
CONTINUOUS
 10
4.971560
 20
0.921800
  0
VERTEX
  8
0
  6
CONTINUOUS
 10
4.972440
 20
0.975920
  0
SEQEND
  8
0
  0
SOLID
  8
0
 62
    15
 10
4.694360
 20
1.532520
 11
5.341160
 21
1.909160
 12
5.454240
 22
1.532520
 13
6.101040
 23
1.909160
  0
POLYLINE
  8
0
  6
CONTINUOUS
 66
     1
 40
0.000000
 41
0.000000
  0
VERTEX
  8
0
  6
CONTINUOUS
 10
4.694360
 20
1.532520
  0
VERTEX
  8
0
  6
CONTINUOUS
 10
5.341160
 20
1.909160
  0
VERTEX
  8
0
  6
CONTINUOUS
 10
6.101040
 20
1.909160
  0
VERTEX
  8
0
  6
CONTINUOUS
 10
5.454240
 20
1.532520
  0
VERTEX
  8
0
  6
CONTINUOUS
 10
4.694360
 20
1.532520
  0
SEQEND
  8
0
  0
SOLID
  8
0
 62
    15
 10
5.454240
 20
1.532520
 11
6.101040
 21
1.909160
 12
5.454240
 22
1.393920
 13
6.101040
 23
1.770560
  0
POLYLINE
  8
0
  6
CONTINUOUS
 66
     1
 40
0.000000
 41
0.000000
  0
VERTEX
  8
0
  6
CONTINUOUS
 10
5.454240
 20
1.532520
  0
VERTEX
  8
0
  6
CONTINUOUS
 10
6.101040
 20
1.909160
  0
VERTEX
  8
0
  6
CONTINUOUS
 10
6.101040
 20
1.770560
  0
VERTEX
  8
0
  6
CONTINUOUS
 10
5.454240
 20
1.393920
  0
VERTEX
  8
0
  6
CONTINUOUS
 10
5.454240
 20
1.532520
  0
SEQEND
  8
0
  0
POLYLINE
  8
0
  6
CONTINUOUS
 66
     1
 40
0.000000
 41
0.000000
  0
VERTEX
  8
0
  6
CONTINUOUS
 10
5.452920
 20
1.393920
  0
VERTEX
  8
0
  6
CONTINUOUS
 10
5.389560
 20
1.389080
  0
VERTEX
  8
0
  6
CONTINUOUS
 10
5.331480
 20
1.380720
  0
VERTEX
  8
0
  6
CONTINUOUS
 10
5.277800
 20
1.369280
  0
VERTEX
  8
0
  6
CONTINUOUS
 10
5.228960
 20
1.354320
  0
VERTEX
  8
0
  6
CONTINUOUS
 10
5.184960
 20
1.336280
  0
VERTEX
  8
0
  6
CONTINUOUS
 10
5.144920
 20
1.315160
  0
VERTEX
  8
0
  6
CONTINUOUS
 10
5.109720
 20
1.290520
  0
VERTEX
  8
0
  6
CONTINUOUS
 10
5.078920
 20
1.262360
  0
VERTEX
  8
0
  6
CONTINUOUS
 10
5.052080
 20
1.231120
  0
VERTEX
  8
0
  6
CONTINUOUS
 10
5.029200
 20
1.196800
  0
VERTEX
  8
0
  6
CONTINUOUS
 10
5.010280
 20
1.158960
  0
VERTEX
  8
0
  6
CONTINUOUS
 10
4.995320
 20
1.118040
  0
VERTEX
  8
0
  6
CONTINUOUS
 10
4.983880
 20
1.074040
  0
VERTEX
  8
0
  6
CONTINUOUS
 10
4.976400
 20
1.026520
  0
VERTEX
  8
0
  6
CONTINUOUS
 10
4.972440
 20
0.975920
  0
VERTEX
  8
0
  6
CONTINUOUS
 10
4.971560
 20
0.921800
  0
VERTEX
  8
0
  6
CONTINUOUS
 10
4.694360
 20
0.921800
  0
VERTEX
  8
0
  6
CONTINUOUS
 10
4.694360
 20
1.532520
  0
VERTEX
  8
0
  6
CONTINUOUS
 10
5.454240
 20
1.532520
  0
VERTEX
  8
0
  6
CONTINUOUS
 10
5.454240
 20
1.393920
  0
VERTEX
  8
0
  6
CONTINUOUS
 10
5.452920
 20
1.393920
  0
SEQEND
  8
0
  0
TEXT
  8
0
 10
5.103120
 20
0.680680
 40
0.138129
  1
BA  207
 41
1.000000
  7
SN0
 71
     0
 72
     5
 11
5.693128
 21
0.680680
  0
TEXT
  8
0
 10
5.020840
 20
0.489280
 40
0.138129
  1
5/8" x 3/4"
 41
1.000000
  7
SN0
 71
     0
 72
     5
 11
5.773861
 21
0.489280
  0
POLYLINE
  8
0
  6
CONTINUOUS
 66
     1
 40
0.014080
 41
0.014080
  0
VERTEX
  8
0
  6
CONTINUOUS
 10
6.666000
 20
1.912680
  0
VERTEX
  8
0
  6
CONTINUOUS
 10
6.526960
 20
1.912680
  0
VERTEX
  8
0
  6
CONTINUOUS
 10
6.526960
 20
1.152800
  0
VERTEX
  8
0
  6
CONTINUOUS
 10
6.527400
 20
1.152800
  0
VERTEX
  8
0
  6
CONTINUOUS
 10
7.137680
 20
1.152800
  0
VERTEX
  8
0
  6
CONTINUOUS
 10
7.137680
 20
1.430000
  0
VERTEX
  8
0
  6
CONTINUOUS
 10
7.110400
 20
1.430000
  0
VERTEX
  8
0
  6
CONTINUOUS
 10
7.084000
 20
1.430880
  0
VERTEX
  8
0
  6
CONTINUOUS
 10
7.058040
 20
1.432200
  0
VERTEX
  8
0
  6
CONTINUOUS
 10
7.033400
 20
1.434840
  0
VERTEX
  8
0
  6
CONTINUOUS
 10
7.009200
 20
1.438360
  0
VERTEX
  8
0
  6
CONTINUOUS
 10
6.985880
 20
1.442320
  0
VERTEX
  8
0
  6
CONTINUOUS
 10
6.963440
 20
1.447600
  0
VERTEX
  8
0
  6
CONTINUOUS
 10
6.941440
 20
1.453760
  0
VERTEX
  8
0
  6
CONTINUOUS
 10
6.920760
 20
1.460800
  0
VERTEX
  8
0
  6
CONTINUOUS
 10
6.900520
 20
1.468720
  0
VERTEX
  8
0
  6
CONTINUOUS
 10
6.881600
 20
1.477520
  0
VERTEX
  8
0
  6
CONTINUOUS
 10
6.863120
 20
1.487640
  0
VERTEX
  8
0
  6
CONTINUOUS
 10
6.845520
 20
1.498640
  0
VERTEX
  8
0
  6
CONTINUOUS
 10
6.828800
 20
1.510520
  0
VERTEX
  8
0
  6
CONTINUOUS
 10
6.812520
 20
1.523280
  0
VERTEX
  8
0
  6
CONTINUOUS
 10
6.797560
 20
1.537360
  0
VERTEX
  8
0
  6
CONTINUOUS
 10
6.783040
 20
1.552320
  0
VERTEX
  8
0
  6
CONTINUOUS
 10
6.769400
 20
1.568160
  0
VERTEX
  8
0
  6
CONTINUOUS
 10
6.756640
 20
1.585320
  0
VERTEX
  8
0
  6
CONTINUOUS
 10
6.744760
 20
1.603360
  0
VERTEX
  8
0
  6
CONTINUOUS
 10
6.733760
 20
1.622720
  0
VERTEX
  8
0
  6
CONTINUOUS
 10
6.723640
 20
1.643400
  0
VERTEX
  8
0
  6
CONTINUOUS
 10
6.713960
 20
1.664960
  0
VERTEX
  8
0
  6
CONTINUOUS
 10
6.705160
 20
1.687400
  0
VERTEX
  8
0
  6
CONTINUOUS
 10
6.697680
 20
1.711160
  0
VERTEX
  8
0
  6
CONTINUOUS
 10
6.690640
 20
1.736240
  0
VERTEX
  8
0
  6
CONTINUOUS
 10
6.684480
 20
1.762640
  0
VERTEX
  8
0
  6
CONTINUOUS
 10
6.679200
 20
1.789920
  0
VERTEX
  8
0
  6
CONTINUOUS
 10
6.674360
 20
1.818520
  0
VERTEX
  8
0
  6
CONTINUOUS
 10
6.670840
 20
1.848000
  0
VERTEX
  8
0
  6
CONTINUOUS
 10
6.668200
 20
1.879240
  0
VERTEX
  8
0
  6
CONTINUOUS
 10
6.666000
 20
1.911360
  0
VERTEX
  8
0
  6
CONTINUOUS
 10
6.666000
 20
1.912680
  0
SEQEND
  8
0
  0
TEXT
  8
0
 10
6.498800
 20
0.920480
 40
0.138129
  1
BA  207
 41
1.000000
  7
SN0
 71
     0
 72
     5
 11
7.088808
 21
0.920480
  0
TEXT
  8
0
 10
6.416520
 20
0.728640
 40
0.138129
  1
5/8" x 3/4"
 41
1.000000
  7
SN0
 71
     0
 72
     5
 11
7.169541
 21
0.728640
  0
ENDSEC
  0
EOF
