  0
SECTION
  2
HEADER
  9
$ACADVER
  1
AC1006
  9
$EXTMIN
 10
0.777480
 20
0.396880
  9
$EXTMAX
 10
8.075320
 20
3.234880
  9
$LTSCALE
 40
0.044000
  9
$PDMODE
 70
    35
  9
$PDSIZE
 40
0.035200
  0
ENDSEC
  0
SECTION
  2
TABLES
  0
TABLE
  2
LTYPE
 70
     9
  0
LTYPE
  2
CONTINUOUS
 70
    64
  3
Solid line
 72
    65
 73
     0
 40
0.000000
  0
LTYPE
  2
DASHED
 70
    64
  3
__ __ __ __ __ __ __ __ __ __ __ __ __ __ __
 72
    65
 73
     2
 40
0.000330
 49
0.000220
 49
-0.000110
  0
LTYPE
  2
HIDDEN
 70
    64
  3
 _ _ _ _ _ _ _ _ _ _ _ _ _ _ _ _ _ _ _ _ _ _
 72
    65
 73
     2
 40
0.000165
 49
0.000110
 49
-0.000055
  0
LTYPE
  2
CENTER
 70
    64
  3
____ _ ____ _ ____ _ ____ _ ____ _ ____ _ ____
 72
    65
 73
     4
 40
0.000880
 49
0.000550
 49
-0.000110
 49
0.000110
 49
-0.000110
  0
LTYPE
  2
PHANTOM
 70
    64
  3
_____ _ _ _____ _ _ _____ _ _ _____ _ _ ____
 72
    65
 73
     6
 40
0.001100
 49
0.000550
 49
-0.000110
 49
0.000110
 49
-0.000110
 49
0.000110
 49
-0.000110
  0
LTYPE
  2
DOT
 70
    64
  3
...............................................
 72
    65
 73
     2
 40
0.000110
 49
0.000000
 49
-0.000110
  0
LTYPE
  2
DASHDOT
 70
    64
  3
__ . __ . __ . __ . __ . __ . __ . __ . __ . __
 72
    65
 73
     4
 40
0.000440
 49
0.000220
 49
-0.000110
 49
0.000000
 49
-0.000110
  0
LTYPE
  2
BORDER
 70
    64
  3
__ __ . __ __ . __ __ . __ __ . __ __ . __ __
 72
    65
 73
     6
 40
0.000770
 49
0.000220
 49
-0.000110
 49
0.000220
 49
-0.000110
 49
0.000000
 49
-0.000110
  0
LTYPE
  2
DIVIDE
 70
    64
  3
__ . . __ . . __ . . __ . . __ . . __ . . __
 72
    65
 73
     6
 40
0.000550
 49
0.000220
 49
-0.000110
 49
0.000000
 49
-0.000110
 49
0.000000
 49
-0.000110
  0
LTYPE
  2
DOTDOT
 70
    64
  3
 . .  . .  . .  . .  . .  . . 
 72
    65
 73
     5
 40
0.000242
 49
-0.000110
 49
0.000000
 49
-0.000110
 49
0.000000
 49
-0.000110
  0
ENDTAB
  0
TABLE
  2
STYLE
 70
     2
  0
STYLE
 70
     0
  2
SN0
 40
0.000000
 41
0.000440
 50
0.000000
 71
     0
 42
0.000000
  3
ROMAND
  0
STYLE
 70
    68
  2
SV0
 40
0.000000
 41
0.000440
 50
0.000000
 71
     0
 42
0.000000
  3
ROMAND
  0
ENDTAB
  0
TABLE
  2
LAYER
 70
     3
  0
LAYER
  2
FOREGROUND
 70
    64
 62
     7
  6
CONTINUOUS
  0
LAYER
  2
BACKGROUND
 70
    65
 62
    -7
  6
CONTINUOUS
  0
LAYER
  2
0
 70
    64
 62
     7
  6
CONTINUOUS
  0
ENDTAB
  0
ENDSEC
  0
SECTION
  2
ENTITIES
  0
POLYLINE
  8
FOREGROUND
  6
CONTINUOUS
 66
     1
 40
0.000000
 41
0.000000
  0
VERTEX
  8
FOREGROUND
  6
CONTINUOUS
 10
0.000000
 20
3.631760
  0
VERTEX
  8
FOREGROUND
  6
CONTINUOUS
 10
8.499920
 20
3.631760
  0
VERTEX
  8
FOREGROUND
  6
CONTINUOUS
 10
8.499920
 20
-7.368240
  0
VERTEX
  8
FOREGROUND
  6
CONTINUOUS
 10
0.000000
 20
-7.368240
  0
VERTEX
  8
FOREGROUND
  6
CONTINUOUS
 10
0.000000
 20
3.631760
  0
SEQEND
  8
0
  0
POLYLINE
  8
FOREGROUND
  6
CONTINUOUS
 66
     1
 40
0.000000
 41
0.000000
  0
VERTEX
  8
FOREGROUND
  6
CONTINUOUS
 10
0.000000
 20
3.631760
  0
VERTEX
  8
FOREGROUND
  6
CONTINUOUS
 10
8.499920
 20
3.631760
  0
VERTEX
  8
FOREGROUND
  6
CONTINUOUS
 10
8.499920
 20
-7.368240
  0
VERTEX
  8
FOREGROUND
  6
CONTINUOUS
 10
0.000000
 20
-7.368240
  0
VERTEX
  8
FOREGROUND
  6
CONTINUOUS
 10
0.000000
 20
3.631760
  0
SEQEND
  8
0
  0
POLYLINE
  8
0
  6
CONTINUOUS
 66
     1
 40
0.014080
 41
0.014080
  0
VERTEX
  8
0
  6
CONTINUOUS
 10
4.089800
 20
3.153480
  0
VERTEX
  8
0
  6
CONTINUOUS
 10
3.860560
 20
2.959000
  0
VERTEX
  8
0
  6
CONTINUOUS
 10
4.374040
 20
2.442880
  0
VERTEX
  8
0
  6
CONTINUOUS
 10
6.064520
 20
2.442880
  0
VERTEX
  8
0
  6
CONTINUOUS
 10
6.992480
 20
3.022800
  0
VERTEX
  8
0
  6
CONTINUOUS
 10
6.896560
 20
3.114760
  0
VERTEX
  8
0
  6
CONTINUOUS
 10
6.866200
 20
3.090120
  0
VERTEX
  8
0
  6
CONTINUOUS
 10
6.836280
 20
3.070760
  0
VERTEX
  8
0
  6
CONTINUOUS
 10
6.798000
 20
3.053160
  0
VERTEX
  8
0
  6
CONTINUOUS
 10
6.761040
 20
3.042600
  0
VERTEX
  8
0
  6
CONTINUOUS
 10
6.724520
 20
3.038200
  0
VERTEX
  8
0
  6
CONTINUOUS
 10
6.689320
 20
3.038640
  0
VERTEX
  8
0
  6
CONTINUOUS
 10
6.636960
 20
3.044800
  0
VERTEX
  8
0
  6
CONTINUOUS
 10
6.568320
 20
3.056240
  0
VERTEX
  8
0
  6
CONTINUOUS
 10
6.534000
 20
3.060200
  0
VERTEX
  8
0
  6
CONTINUOUS
 10
6.499680
 20
3.061080
  0
VERTEX
  8
0
  6
CONTINUOUS
 10
6.464480
 20
3.057120
  0
VERTEX
  8
0
  6
CONTINUOUS
 10
6.429280
 20
3.047880
  0
VERTEX
  8
0
  6
CONTINUOUS
 10
6.410800
 20
3.040400
  0
VERTEX
  8
0
  6
CONTINUOUS
 10
6.374280
 20
3.019280
  0
VERTEX
  8
0
  6
CONTINUOUS
 10
6.336000
 20
2.988920
  0
VERTEX
  8
0
  6
CONTINUOUS
 10
6.316640
 20
2.969560
  0
VERTEX
  8
0
  6
CONTINUOUS
 10
6.197840
 20
3.080000
  0
VERTEX
  8
0
  6
CONTINUOUS
 10
6.052640
 20
2.974840
  0
VERTEX
  8
0
  6
CONTINUOUS
 10
5.984000
 20
3.028080
  0
VERTEX
  8
0
  6
CONTINUOUS
 10
5.916680
 20
3.071640
  0
VERTEX
  8
0
  6
CONTINUOUS
 10
5.851120
 20
3.106840
  0
VERTEX
  8
0
  6
CONTINUOUS
 10
5.818560
 20
3.121360
  0
VERTEX
  8
0
  6
CONTINUOUS
 10
5.754760
 20
3.144240
  0
VERTEX
  8
0
  6
CONTINUOUS
 10
5.691840
 20
3.160520
  0
VERTEX
  8
0
  6
CONTINUOUS
 10
5.630240
 20
3.169760
  0
VERTEX
  8
0
  6
CONTINUOUS
 10
5.599880
 20
3.172400
  0
VERTEX
  8
0
  6
CONTINUOUS
 10
5.539600
 20
3.173280
  0
VERTEX
  8
0
  6
CONTINUOUS
 10
5.480200
 20
3.168880
  0
VERTEX
  8
0
  6
CONTINUOUS
 10
5.421240
 20
3.160520
  0
VERTEX
  8
0
  6
CONTINUOUS
 10
5.334120
 20
3.141160
  0
VERTEX
  8
0
  6
CONTINUOUS
 10
5.248320
 20
3.115640
  0
VERTEX
  8
0
  6
CONTINUOUS
 10
5.077600
 20
3.054040
  0
VERTEX
  8
0
  6
CONTINUOUS
 10
4.963640
 20
3.012240
  0
VERTEX
  8
0
  6
CONTINUOUS
 10
4.906440
 20
2.993320
  0
VERTEX
  8
0
  6
CONTINUOUS
 10
4.820200
 20
2.968240
  0
VERTEX
  8
0
  6
CONTINUOUS
 10
4.762120
 20
2.955040
  0
VERTEX
  8
0
  6
CONTINUOUS
 10
4.703160
 20
2.945800
  0
VERTEX
  8
0
  6
CONTINUOUS
 10
4.643760
 20
2.940080
  0
VERTEX
  8
0
  6
CONTINUOUS
 10
4.583920
 20
2.939640
  0
VERTEX
  8
0
  6
CONTINUOUS
 10
4.553120
 20
2.940960
  0
VERTEX
  8
0
  6
CONTINUOUS
 10
4.522760
 20
2.944040
  0
VERTEX
  8
0
  6
CONTINUOUS
 10
4.460280
 20
2.955040
  0
VERTEX
  8
0
  6
CONTINUOUS
 10
4.429040
 20
2.962520
  0
VERTEX
  8
0
  6
CONTINUOUS
 10
4.365240
 20
2.983640
  0
VERTEX
  8
0
  6
CONTINUOUS
 10
4.332680
 20
2.996840
  0
VERTEX
  8
0
  6
CONTINUOUS
 10
4.267120
 20
3.029400
  0
VERTEX
  8
0
  6
CONTINUOUS
 10
4.199800
 20
3.070320
  0
VERTEX
  8
0
  6
CONTINUOUS
 10
4.131160
 20
3.120920
  0
VERTEX
  8
0
  6
CONTINUOUS
 10
4.096400
 20
3.149520
  0
VERTEX
  8
0
  6
CONTINUOUS
 10
4.089800
 20
3.153480
  0
SEQEND
  8
0
  0
SOLID
  8
0
 62
    15
 10
1.350800
 20
1.554520
 11
1.987040
 21
1.192840
 12
1.349920
 22
1.553200
 13
1.986160
 23
1.191520
  0
POLYLINE
  8
0
  6
CONTINUOUS
 66
     1
 40
0.000000
 41
0.000000
  0
VERTEX
  8
0
  6
CONTINUOUS
 10
1.350800
 20
1.554520
  0
VERTEX
  8
0
  6
CONTINUOUS
 10
1.987040
 20
1.192840
  0
VERTEX
  8
0
  6
CONTINUOUS
 10
1.986160
 20
1.191520
  0
VERTEX
  8
0
  6
CONTINUOUS
 10
1.349920
 20
1.553200
  0
VERTEX
  8
0
  6
CONTINUOUS
 10
1.350800
 20
1.554520
  0
SEQEND
  8
0
  0
SOLID
  8
0
 62
    15
 10
2.664640
 20
2.913680
 11
3.300880
 21
2.551560
 12
2.585880
 22
2.891240
 13
3.222120
 23
2.529560
  0
POLYLINE
  8
0
  6
CONTINUOUS
 66
     1
 40
0.000000
 41
0.000000
  0
VERTEX
  8
0
  6
CONTINUOUS
 10
2.664640
 20
2.913680
  0
VERTEX
  8
0
  6
CONTINUOUS
 10
3.300880
 20
2.551560
  0
VERTEX
  8
0
  6
CONTINUOUS
 10
3.222120
 20
2.529560
  0
VERTEX
  8
0
  6
CONTINUOUS
 10
2.585880
 20
2.891240
  0
VERTEX
  8
0
  6
CONTINUOUS
 10
2.664640
 20
2.913680
  0
SEQEND
  8
0
  0
SOLID
  8
0
 62
    15
 10
2.585880
 20
2.891240
 11
3.222120
 21
2.529560
 12
2.451240
 22
2.833600
 13
3.087040
 23
2.471920
  0
POLYLINE
  8
0
  6
CONTINUOUS
 66
     1
 40
0.000000
 41
0.000000
  0
VERTEX
  8
0
  6
CONTINUOUS
 10
2.585880
 20
2.891240
  0
VERTEX
  8
0
  6
CONTINUOUS
 10
3.222120
 20
2.529560
  0
VERTEX
  8
0
  6
CONTINUOUS
 10
3.087040
 20
2.471920
  0
VERTEX
  8
0
  6
CONTINUOUS
 10
2.451240
 20
2.833600
  0
VERTEX
  8
0
  6
CONTINUOUS
 10
2.585880
 20
2.891240
  0
SEQEND
  8
0
  0
SOLID
  8
0
 62
    15
 10
2.451240
 20
2.833600
 11
3.087040
 21
2.471920
 12
2.342560
 22
2.759680
 13
2.978800
 23
2.398000
  0
POLYLINE
  8
0
  6
CONTINUOUS
 66
     1
 40
0.000000
 41
0.000000
  0
VERTEX
  8
0
  6
CONTINUOUS
 10
2.451240
 20
2.833600
  0
VERTEX
  8
0
  6
CONTINUOUS
 10
3.087040
 20
2.471920
  0
VERTEX
  8
0
  6
CONTINUOUS
 10
2.978800
 20
2.398000
  0
VERTEX
  8
0
  6
CONTINUOUS
 10
2.342560
 20
2.759680
  0
VERTEX
  8
0
  6
CONTINUOUS
 10
2.451240
 20
2.833600
  0
SEQEND
  8
0
  0
SOLID
  8
0
 62
    15
 10
2.342560
 20
2.759680
 11
2.978800
 21
2.398000
 12
2.256320
 22
2.673000
 13
2.892120
 23
2.311320
  0
POLYLINE
  8
0
  6
CONTINUOUS
 66
     1
 40
0.000000
 41
0.000000
  0
VERTEX
  8
0
  6
CONTINUOUS
 10
2.342560
 20
2.759680
  0
VERTEX
  8
0
  6
CONTINUOUS
 10
2.978800
 20
2.398000
  0
VERTEX
  8
0
  6
CONTINUOUS
 10
2.892120
 20
2.311320
  0
VERTEX
  8
0
  6
CONTINUOUS
 10
2.256320
 20
2.673000
  0
VERTEX
  8
0
  6
CONTINUOUS
 10
2.342560
 20
2.759680
  0
SEQEND
  8
0
  0
SOLID
  8
0
 62
    15
 10
2.256320
 20
2.673000
 11
2.892120
 21
2.311320
 12
2.187240
 22
2.575320
 13
2.823480
 23
2.213640
  0
POLYLINE
  8
0
  6
CONTINUOUS
 66
     1
 40
0.000000
 41
0.000000
  0
VERTEX
  8
0
  6
CONTINUOUS
 10
2.256320
 20
2.673000
  0
VERTEX
  8
0
  6
CONTINUOUS
 10
2.892120
 20
2.311320
  0
VERTEX
  8
0
  6
CONTINUOUS
 10
2.823480
 20
2.213640
  0
VERTEX
  8
0
  6
CONTINUOUS
 10
2.187240
 20
2.575320
  0
VERTEX
  8
0
  6
CONTINUOUS
 10
2.256320
 20
2.673000
  0
SEQEND
  8
0
  0
SOLID
  8
0
 62
    15
 10
2.187240
 20
2.575320
 11
2.823480
 21
2.213640
 12
2.131800
 22
2.469720
 13
2.767600
 23
2.108040
  0
POLYLINE
  8
0
  6
CONTINUOUS
 66
     1
 40
0.000000
 41
0.000000
  0
VERTEX
  8
0
  6
CONTINUOUS
 10
2.187240
 20
2.575320
  0
VERTEX
  8
0
  6
CONTINUOUS
 10
2.823480
 20
2.213640
  0
VERTEX
  8
0
  6
CONTINUOUS
 10
2.767600
 20
2.108040
  0
VERTEX
  8
0
  6
CONTINUOUS
 10
2.131800
 20
2.469720
  0
VERTEX
  8
0
  6
CONTINUOUS
 10
2.187240
 20
2.575320
  0
SEQEND
  8
0
  0
SOLID
  8
0
 62
    15
 10
2.131800
 20
2.469720
 11
2.767600
 21
2.108040
 12
2.043360
 22
2.245320
 13
2.679160
 23
1.883640
  0
POLYLINE
  8
0
  6
CONTINUOUS
 66
     1
 40
0.000000
 41
0.000000
  0
VERTEX
  8
0
  6
CONTINUOUS
 10
2.131800
 20
2.469720
  0
VERTEX
  8
0
  6
CONTINUOUS
 10
2.767600
 20
2.108040
  0
VERTEX
  8
0
  6
CONTINUOUS
 10
2.679160
 20
1.883640
  0
VERTEX
  8
0
  6
CONTINUOUS
 10
2.043360
 20
2.245320
  0
VERTEX
  8
0
  6
CONTINUOUS
 10
2.131800
 20
2.469720
  0
SEQEND
  8
0
  0
SOLID
  8
0
 62
    15
 10
2.043360
 20
2.245320
 11
2.679160
 21
1.883640
 12
2.022680
 22
2.188560
 13
2.658480
 23
1.826880
  0
POLYLINE
  8
0
  6
CONTINUOUS
 66
     1
 40
0.000000
 41
0.000000
  0
VERTEX
  8
0
  6
CONTINUOUS
 10
2.043360
 20
2.245320
  0
VERTEX
  8
0
  6
CONTINUOUS
 10
2.679160
 20
1.883640
  0
VERTEX
  8
0
  6
CONTINUOUS
 10
2.658480
 20
1.826880
  0
VERTEX
  8
0
  6
CONTINUOUS
 10
2.022680
 20
2.188560
  0
VERTEX
  8
0
  6
CONTINUOUS
 10
2.043360
 20
2.245320
  0
SEQEND
  8
0
  0
SOLID
  8
0
 62
    15
 10
2.022680
 20
2.188560
 11
2.658480
 21
1.826880
 12
2.001560
 22
2.131800
 13
2.637360
 23
1.770120
  0
POLYLINE
  8
0
  6
CONTINUOUS
 66
     1
 40
0.000000
 41
0.000000
  0
VERTEX
  8
0
  6
CONTINUOUS
 10
2.022680
 20
2.188560
  0
VERTEX
  8
0
  6
CONTINUOUS
 10
2.658480
 20
1.826880
  0
VERTEX
  8
0
  6
CONTINUOUS
 10
2.637360
 20
1.770120
  0
VERTEX
  8
0
  6
CONTINUOUS
 10
2.001560
 20
2.131800
  0
VERTEX
  8
0
  6
CONTINUOUS
 10
2.022680
 20
2.188560
  0
SEQEND
  8
0
  0
SOLID
  8
0
 62
    15
 10
2.001560
 20
2.131800
 11
2.637360
 21
1.770120
 12
1.955800
 22
2.020480
 13
2.591600
 23
1.658800
  0
POLYLINE
  8
0
  6
CONTINUOUS
 66
     1
 40
0.000000
 41
0.000000
  0
VERTEX
  8
0
  6
CONTINUOUS
 10
2.001560
 20
2.131800
  0
VERTEX
  8
0
  6
CONTINUOUS
 10
2.637360
 20
1.770120
  0
VERTEX
  8
0
  6
CONTINUOUS
 10
2.591600
 20
1.658800
  0
VERTEX
  8
0
  6
CONTINUOUS
 10
1.955800
 20
2.020480
  0
VERTEX
  8
0
  6
CONTINUOUS
 10
2.001560
 20
2.131800
  0
SEQEND
  8
0
  0
SOLID
  8
0
 62
    15
 10
1.955800
 20
2.020480
 11
2.591600
 21
1.658800
 12
1.901680
 22
1.914440
 13
2.537480
 23
1.552760
  0
POLYLINE
  8
0
  6
CONTINUOUS
 66
     1
 40
0.000000
 41
0.000000
  0
VERTEX
  8
0
  6
CONTINUOUS
 10
1.955800
 20
2.020480
  0
VERTEX
  8
0
  6
CONTINUOUS
 10
2.591600
 20
1.658800
  0
VERTEX
  8
0
  6
CONTINUOUS
 10
2.537480
 20
1.552760
  0
VERTEX
  8
0
  6
CONTINUOUS
 10
1.901680
 20
1.914440
  0
VERTEX
  8
0
  6
CONTINUOUS
 10
1.955800
 20
2.020480
  0
SEQEND
  8
0
  0
SOLID
  8
0
 62
    15
 10
1.901680
 20
1.914440
 11
2.537480
 21
1.552760
 12
1.834360
 22
1.816320
 13
2.470600
 23
1.454640
  0
POLYLINE
  8
0
  6
CONTINUOUS
 66
     1
 40
0.000000
 41
0.000000
  0
VERTEX
  8
0
  6
CONTINUOUS
 10
1.901680
 20
1.914440
  0
VERTEX
  8
0
  6
CONTINUOUS
 10
2.537480
 20
1.552760
  0
VERTEX
  8
0
  6
CONTINUOUS
 10
2.470600
 20
1.454640
  0
VERTEX
  8
0
  6
CONTINUOUS
 10
1.834360
 20
1.816320
  0
VERTEX
  8
0
  6
CONTINUOUS
 10
1.901680
 20
1.914440
  0
SEQEND
  8
0
  0
SOLID
  8
0
 62
    15
 10
1.834360
 20
1.816320
 11
2.470600
 21
1.454640
 12
1.750320
 22
1.728760
 13
2.386120
 23
1.367080
  0
POLYLINE
  8
0
  6
CONTINUOUS
 66
     1
 40
0.000000
 41
0.000000
  0
VERTEX
  8
0
  6
CONTINUOUS
 10
1.834360
 20
1.816320
  0
VERTEX
  8
0
  6
CONTINUOUS
 10
2.470600
 20
1.454640
  0
VERTEX
  8
0
  6
CONTINUOUS
 10
2.386120
 20
1.367080
  0
VERTEX
  8
0
  6
CONTINUOUS
 10
1.750320
 20
1.728760
  0
VERTEX
  8
0
  6
CONTINUOUS
 10
1.834360
 20
1.816320
  0
SEQEND
  8
0
  0
SOLID
  8
0
 62
    15
 10
1.750320
 20
1.728760
 11
2.386120
 21
1.367080
 12
1.644280
 22
1.653960
 13
2.280520
 23
1.292280
  0
POLYLINE
  8
0
  6
CONTINUOUS
 66
     1
 40
0.000000
 41
0.000000
  0
VERTEX
  8
0
  6
CONTINUOUS
 10
1.750320
 20
1.728760
  0
VERTEX
  8
0
  6
CONTINUOUS
 10
2.386120
 20
1.367080
  0
VERTEX
  8
0
  6
CONTINUOUS
 10
2.280520
 20
1.292280
  0
VERTEX
  8
0
  6
CONTINUOUS
 10
1.644280
 20
1.653960
  0
VERTEX
  8
0
  6
CONTINUOUS
 10
1.750320
 20
1.728760
  0
SEQEND
  8
0
  0
SOLID
  8
0
 62
    15
 10
1.644280
 20
1.653960
 11
2.280520
 21
1.292280
 12
1.512720
 22
1.595000
 13
2.148960
 23
1.233320
  0
POLYLINE
  8
0
  6
CONTINUOUS
 66
     1
 40
0.000000
 41
0.000000
  0
VERTEX
  8
0
  6
CONTINUOUS
 10
1.644280
 20
1.653960
  0
VERTEX
  8
0
  6
CONTINUOUS
 10
2.280520
 20
1.292280
  0
VERTEX
  8
0
  6
CONTINUOUS
 10
2.148960
 20
1.233320
  0
VERTEX
  8
0
  6
CONTINUOUS
 10
1.512720
 20
1.595000
  0
VERTEX
  8
0
  6
CONTINUOUS
 10
1.644280
 20
1.653960
  0
SEQEND
  8
0
  0
SOLID
  8
0
 62
    15
 10
1.512720
 20
1.595000
 11
2.148960
 21
1.233320
 12
1.436160
 22
1.572120
 13
2.071960
 23
1.210440
  0
POLYLINE
  8
0
  6
CONTINUOUS
 66
     1
 40
0.000000
 41
0.000000
  0
VERTEX
  8
0
  6
CONTINUOUS
 10
1.512720
 20
1.595000
  0
VERTEX
  8
0
  6
CONTINUOUS
 10
2.148960
 20
1.233320
  0
VERTEX
  8
0
  6
CONTINUOUS
 10
2.071960
 20
1.210440
  0
VERTEX
  8
0
  6
CONTINUOUS
 10
1.436160
 20
1.572120
  0
VERTEX
  8
0
  6
CONTINUOUS
 10
1.512720
 20
1.595000
  0
SEQEND
  8
0
  0
SOLID
  8
0
 62
    15
 10
1.436160
 20
1.572120
 11
2.071960
 21
1.210440
 12
1.350800
 22
1.554520
 13
1.987040
 23
1.192840
  0
POLYLINE
  8
0
  6
CONTINUOUS
 66
     1
 40
0.000000
 41
0.000000
  0
VERTEX
  8
0
  6
CONTINUOUS
 10
1.436160
 20
1.572120
  0
VERTEX
  8
0
  6
CONTINUOUS
 10
2.071960
 20
1.210440
  0
VERTEX
  8
0
  6
CONTINUOUS
 10
1.987040
 20
1.192840
  0
VERTEX
  8
0
  6
CONTINUOUS
 10
1.350800
 20
1.554520
  0
VERTEX
  8
0
  6
CONTINUOUS
 10
1.436160
 20
1.572120
  0
SEQEND
  8
0
  0
SOLID
  8
0
 62
    15
 10
2.751760
 20
2.930840
 11
3.387560
 21
2.569160
 12
2.664640
 22
2.913680
 13
3.300880
 23
2.551560
  0
POLYLINE
  8
0
  6
CONTINUOUS
 66
     1
 40
0.000000
 41
0.000000
  0
VERTEX
  8
0
  6
CONTINUOUS
 10
2.751760
 20
2.930840
  0
VERTEX
  8
0
  6
CONTINUOUS
 10
3.387560
 20
2.569160
  0
VERTEX
  8
0
  6
CONTINUOUS
 10
3.300880
 20
2.551560
  0
VERTEX
  8
0
  6
CONTINUOUS
 10
2.664640
 20
2.913680
  0
VERTEX
  8
0
  6
CONTINUOUS
 10
2.751760
 20
2.930840
  0
SEQEND
  8
0
  0
SOLID
  8
0
 62
    15
 10
1.349920
 20
1.553200
 11
1.986160
 21
1.191520
 12
1.337160
 22
1.375440
 13
1.972960
 23
1.013760
  0
POLYLINE
  8
0
  6
CONTINUOUS
 66
     1
 40
0.000000
 41
0.000000
  0
VERTEX
  8
0
  6
CONTINUOUS
 10
1.349920
 20
1.553200
  0
VERTEX
  8
0
  6
CONTINUOUS
 10
1.986160
 20
1.191520
  0
VERTEX
  8
0
  6
CONTINUOUS
 10
1.972960
 20
1.013760
  0
VERTEX
  8
0
  6
CONTINUOUS
 10
1.337160
 20
1.375440
  0
VERTEX
  8
0
  6
CONTINUOUS
 10
1.349920
 20
1.553200
  0
SEQEND
  8
0
  0
SOLID
  8
0
 62
    15
 10
1.337160
 20
1.375440
 11
1.972960
 21
1.013760
 12
1.175680
 22
1.356960
 13
1.811480
 23
0.994840
  0
POLYLINE
  8
0
  6
CONTINUOUS
 66
     1
 40
0.000000
 41
0.000000
  0
VERTEX
  8
0
  6
CONTINUOUS
 10
1.337160
 20
1.375440
  0
VERTEX
  8
0
  6
CONTINUOUS
 10
1.972960
 20
1.013760
  0
VERTEX
  8
0
  6
CONTINUOUS
 10
1.811480
 20
0.994840
  0
VERTEX
  8
0
  6
CONTINUOUS
 10
1.175680
 20
1.356960
  0
VERTEX
  8
0
  6
CONTINUOUS
 10
1.337160
 20
1.375440
  0
SEQEND
  8
0
  0
SOLID
  8
0
 62
    15
 10
1.175680
 20
1.356960
 11
1.811480
 21
0.994840
 12
1.177880
 22
1.304160
 13
1.813680
 23
0.942480
  0
POLYLINE
  8
0
  6
CONTINUOUS
 66
     1
 40
0.000000
 41
0.000000
  0
VERTEX
  8
0
  6
CONTINUOUS
 10
1.175680
 20
1.356960
  0
VERTEX
  8
0
  6
CONTINUOUS
 10
1.811480
 20
0.994840
  0
VERTEX
  8
0
  6
CONTINUOUS
 10
1.813680
 20
0.942480
  0
VERTEX
  8
0
  6
CONTINUOUS
 10
1.177880
 20
1.304160
  0
VERTEX
  8
0
  6
CONTINUOUS
 10
1.175680
 20
1.356960
  0
SEQEND
  8
0
  0
SOLID
  8
0
 62
    15
 10
1.177880
 20
1.304160
 11
1.813680
 21
0.942480
 12
1.173040
 22
1.259280
 13
1.809280
 23
0.897600
  0
POLYLINE
  8
0
  6
CONTINUOUS
 66
     1
 40
0.000000
 41
0.000000
  0
VERTEX
  8
0
  6
CONTINUOUS
 10
1.177880
 20
1.304160
  0
VERTEX
  8
0
  6
CONTINUOUS
 10
1.813680
 20
0.942480
  0
VERTEX
  8
0
  6
CONTINUOUS
 10
1.809280
 20
0.897600
  0
VERTEX
  8
0
  6
CONTINUOUS
 10
1.173040
 20
1.259280
  0
VERTEX
  8
0
  6
CONTINUOUS
 10
1.177880
 20
1.304160
  0
SEQEND
  8
0
  0
SOLID
  8
0
 62
    15
 10
1.173040
 20
1.259280
 11
1.809280
 21
0.897600
 12
1.146640
 22
1.187120
 13
1.782440
 23
0.825440
  0
POLYLINE
  8
0
  6
CONTINUOUS
 66
     1
 40
0.000000
 41
0.000000
  0
VERTEX
  8
0
  6
CONTINUOUS
 10
1.173040
 20
1.259280
  0
VERTEX
  8
0
  6
CONTINUOUS
 10
1.809280
 20
0.897600
  0
VERTEX
  8
0
  6
CONTINUOUS
 10
1.782440
 20
0.825440
  0
VERTEX
  8
0
  6
CONTINUOUS
 10
1.146640
 20
1.187120
  0
VERTEX
  8
0
  6
CONTINUOUS
 10
1.173040
 20
1.259280
  0
SEQEND
  8
0
  0
SOLID
  8
0
 62
    15
 10
1.146640
 20
1.187120
 11
1.782440
 21
0.825440
 12
1.103960
 22
1.132560
 13
1.739760
 23
0.770440
  0
POLYLINE
  8
0
  6
CONTINUOUS
 66
     1
 40
0.000000
 41
0.000000
  0
VERTEX
  8
0
  6
CONTINUOUS
 10
1.146640
 20
1.187120
  0
VERTEX
  8
0
  6
CONTINUOUS
 10
1.782440
 20
0.825440
  0
VERTEX
  8
0
  6
CONTINUOUS
 10
1.739760
 20
0.770440
  0
VERTEX
  8
0
  6
CONTINUOUS
 10
1.103960
 20
1.132560
  0
VERTEX
  8
0
  6
CONTINUOUS
 10
1.146640
 20
1.187120
  0
SEQEND
  8
0
  0
SOLID
  8
0
 62
    15
 10
1.103960
 20
1.132560
 11
1.739760
 21
0.770440
 12
1.052040
 22
1.086360
 13
1.688280
 23
0.724680
  0
POLYLINE
  8
0
  6
CONTINUOUS
 66
     1
 40
0.000000
 41
0.000000
  0
VERTEX
  8
0
  6
CONTINUOUS
 10
1.103960
 20
1.132560
  0
VERTEX
  8
0
  6
CONTINUOUS
 10
1.739760
 20
0.770440
  0
VERTEX
  8
0
  6
CONTINUOUS
 10
1.688280
 20
0.724680
  0
VERTEX
  8
0
  6
CONTINUOUS
 10
1.052040
 20
1.086360
  0
VERTEX
  8
0
  6
CONTINUOUS
 10
1.103960
 20
1.132560
  0
SEQEND
  8
0
  0
SOLID
  8
0
 62
    15
 10
1.052040
 20
1.086360
 11
1.688280
 21
0.724680
 12
1.038840
 22
1.075360
 13
1.674640
 23
0.713240
  0
POLYLINE
  8
0
  6
CONTINUOUS
 66
     1
 40
0.000000
 41
0.000000
  0
VERTEX
  8
0
  6
CONTINUOUS
 10
1.052040
 20
1.086360
  0
VERTEX
  8
0
  6
CONTINUOUS
 10
1.688280
 20
0.724680
  0
VERTEX
  8
0
  6
CONTINUOUS
 10
1.674640
 20
0.713240
  0
VERTEX
  8
0
  6
CONTINUOUS
 10
1.038840
 20
1.075360
  0
VERTEX
  8
0
  6
CONTINUOUS
 10
1.052040
 20
1.086360
  0
SEQEND
  8
0
  0
SOLID
  8
0
 62
    15
 10
1.038840
 20
1.075360
 11
1.674640
 21
0.713240
 12
1.025640
 22
1.063920
 13
1.661440
 23
0.702240
  0
POLYLINE
  8
0
  6
CONTINUOUS
 66
     1
 40
0.000000
 41
0.000000
  0
VERTEX
  8
0
  6
CONTINUOUS
 10
1.038840
 20
1.075360
  0
VERTEX
  8
0
  6
CONTINUOUS
 10
1.674640
 20
0.713240
  0
VERTEX
  8
0
  6
CONTINUOUS
 10
1.661440
 20
0.702240
  0
VERTEX
  8
0
  6
CONTINUOUS
 10
1.025640
 20
1.063920
  0
VERTEX
  8
0
  6
CONTINUOUS
 10
1.038840
 20
1.075360
  0
SEQEND
  8
0
  0
SOLID
  8
0
 62
    15
 10
1.025640
 20
1.063920
 11
1.661440
 21
0.702240
 12
0.999680
 22
1.040600
 13
1.635480
 23
0.678920
  0
POLYLINE
  8
0
  6
CONTINUOUS
 66
     1
 40
0.000000
 41
0.000000
  0
VERTEX
  8
0
  6
CONTINUOUS
 10
1.025640
 20
1.063920
  0
VERTEX
  8
0
  6
CONTINUOUS
 10
1.661440
 20
0.702240
  0
VERTEX
  8
0
  6
CONTINUOUS
 10
1.635480
 20
0.678920
  0
VERTEX
  8
0
  6
CONTINUOUS
 10
0.999680
 20
1.040600
  0
VERTEX
  8
0
  6
CONTINUOUS
 10
1.025640
 20
1.063920
  0
SEQEND
  8
0
  0
SOLID
  8
0
 62
    15
 10
0.999680
 20
1.040600
 11
1.635480
 21
0.678920
 12
0.953040
 22
0.986920
 13
1.589280
 23
0.625240
  0
POLYLINE
  8
0
  6
CONTINUOUS
 66
     1
 40
0.000000
 41
0.000000
  0
VERTEX
  8
0
  6
CONTINUOUS
 10
0.999680
 20
1.040600
  0
VERTEX
  8
0
  6
CONTINUOUS
 10
1.635480
 20
0.678920
  0
VERTEX
  8
0
  6
CONTINUOUS
 10
1.589280
 20
0.625240
  0
VERTEX
  8
0
  6
CONTINUOUS
 10
0.953040
 20
0.986920
  0
VERTEX
  8
0
  6
CONTINUOUS
 10
0.999680
 20
1.040600
  0
SEQEND
  8
0
  0
SOLID
  8
0
 62
    15
 10
0.953040
 20
0.986920
 11
1.589280
 21
0.625240
 12
0.920920
 22
0.916520
 13
1.557160
 23
0.554400
  0
POLYLINE
  8
0
  6
CONTINUOUS
 66
     1
 40
0.000000
 41
0.000000
  0
VERTEX
  8
0
  6
CONTINUOUS
 10
0.953040
 20
0.986920
  0
VERTEX
  8
0
  6
CONTINUOUS
 10
1.589280
 20
0.625240
  0
VERTEX
  8
0
  6
CONTINUOUS
 10
1.557160
 20
0.554400
  0
VERTEX
  8
0
  6
CONTINUOUS
 10
0.920920
 20
0.916520
  0
VERTEX
  8
0
  6
CONTINUOUS
 10
0.953040
 20
0.986920
  0
SEQEND
  8
0
  0
SOLID
  8
0
 62
    15
 10
0.920920
 20
0.916520
 11
1.557160
 21
0.554400
 12
0.912560
 22
0.872080
 13
1.548360
 23
0.510400
  0
POLYLINE
  8
0
  6
CONTINUOUS
 66
     1
 40
0.000000
 41
0.000000
  0
VERTEX
  8
0
  6
CONTINUOUS
 10
0.920920
 20
0.916520
  0
VERTEX
  8
0
  6
CONTINUOUS
 10
1.557160
 20
0.554400
  0
VERTEX
  8
0
  6
CONTINUOUS
 10
1.548360
 20
0.510400
  0
VERTEX
  8
0
  6
CONTINUOUS
 10
0.912560
 20
0.872080
  0
VERTEX
  8
0
  6
CONTINUOUS
 10
0.920920
 20
0.916520
  0
SEQEND
  8
0
  0
SOLID
  8
0
 62
    15
 10
0.912560
 20
0.872080
 11
1.548360
 21
0.510400
 12
0.910360
 22
0.821040
 13
1.546600
 23
0.458920
  0
POLYLINE
  8
0
  6
CONTINUOUS
 66
     1
 40
0.000000
 41
0.000000
  0
VERTEX
  8
0
  6
CONTINUOUS
 10
0.912560
 20
0.872080
  0
VERTEX
  8
0
  6
CONTINUOUS
 10
1.548360
 20
0.510400
  0
VERTEX
  8
0
  6
CONTINUOUS
 10
1.546600
 20
0.458920
  0
VERTEX
  8
0
  6
CONTINUOUS
 10
0.910360
 20
0.821040
  0
VERTEX
  8
0
  6
CONTINUOUS
 10
0.912560
 20
0.872080
  0
SEQEND
  8
0
  0
SOLID
  8
0
 62
    15
 10
0.910360
 20
0.821040
 11
1.546600
 21
0.458920
 12
0.909920
 22
0.819720
 13
1.545720
 23
0.458040
  0
POLYLINE
  8
0
  6
CONTINUOUS
 66
     1
 40
0.000000
 41
0.000000
  0
VERTEX
  8
0
  6
CONTINUOUS
 10
0.910360
 20
0.821040
  0
VERTEX
  8
0
  6
CONTINUOUS
 10
1.546600
 20
0.458920
  0
VERTEX
  8
0
  6
CONTINUOUS
 10
1.545720
 20
0.458040
  0
VERTEX
  8
0
  6
CONTINUOUS
 10
0.909920
 20
0.819720
  0
VERTEX
  8
0
  6
CONTINUOUS
 10
0.910360
 20
0.821040
  0
SEQEND
  8
0
  0
SOLID
  8
0
 62
    15
 10
0.909920
 20
0.819720
 11
1.545720
 21
0.458040
 12
0.778360
 22
0.807400
 13
1.414160
 23
0.445720
  0
POLYLINE
  8
0
  6
CONTINUOUS
 66
     1
 40
0.000000
 41
0.000000
  0
VERTEX
  8
0
  6
CONTINUOUS
 10
0.909920
 20
0.819720
  0
VERTEX
  8
0
  6
CONTINUOUS
 10
1.545720
 20
0.458040
  0
VERTEX
  8
0
  6
CONTINUOUS
 10
1.414160
 20
0.445720
  0
VERTEX
  8
0
  6
CONTINUOUS
 10
0.778360
 20
0.807400
  0
VERTEX
  8
0
  6
CONTINUOUS
 10
0.909920
 20
0.819720
  0
SEQEND
  8
0
  0
SOLID
  8
0
 62
    15
 10
2.759240
 20
3.234000
 11
3.395480
 21
2.872320
 12
2.759240
 22
2.933040
 13
3.395040
 23
2.571360
  0
POLYLINE
  8
0
  6
CONTINUOUS
 66
     1
 40
0.000000
 41
0.000000
  0
VERTEX
  8
0
  6
CONTINUOUS
 10
2.759240
 20
3.234000
  0
VERTEX
  8
0
  6
CONTINUOUS
 10
3.395480
 20
2.872320
  0
VERTEX
  8
0
  6
CONTINUOUS
 10
3.395040
 20
2.571360
  0
VERTEX
  8
0
  6
CONTINUOUS
 10
2.759240
 20
2.933040
  0
VERTEX
  8
0
  6
CONTINUOUS
 10
2.759240
 20
3.234000
  0
SEQEND
  8
0
  0
SOLID
  8
0
 62
    15
 10
2.759240
 20
2.933040
 11
3.395040
 21
2.571360
 12
2.751760
 22
2.930840
 13
3.387560
 23
2.569160
  0
POLYLINE
  8
0
  6
CONTINUOUS
 66
     1
 40
0.000000
 41
0.000000
  0
VERTEX
  8
0
  6
CONTINUOUS
 10
2.759240
 20
2.933040
  0
VERTEX
  8
0
  6
CONTINUOUS
 10
3.395040
 20
2.571360
  0
VERTEX
  8
0
  6
CONTINUOUS
 10
3.387560
 20
2.569160
  0
VERTEX
  8
0
  6
CONTINUOUS
 10
2.751760
 20
2.930840
  0
VERTEX
  8
0
  6
CONTINUOUS
 10
2.759240
 20
2.933040
  0
SEQEND
  8
0
  0
POLYLINE
  8
0
  6
CONTINUOUS
 66
     1
 40
0.000000
 41
0.000000
  0
VERTEX
  8
0
  6
CONTINUOUS
 10
2.751760
 20
2.930840
  0
VERTEX
  8
0
  6
CONTINUOUS
 10
2.664640
 20
2.913680
  0
VERTEX
  8
0
  6
CONTINUOUS
 10
2.585880
 20
2.891240
  0
VERTEX
  8
0
  6
CONTINUOUS
 10
2.451240
 20
2.833600
  0
VERTEX
  8
0
  6
CONTINUOUS
 10
2.342560
 20
2.759680
  0
VERTEX
  8
0
  6
CONTINUOUS
 10
2.256320
 20
2.673000
  0
VERTEX
  8
0
  6
CONTINUOUS
 10
2.187240
 20
2.575320
  0
VERTEX
  8
0
  6
CONTINUOUS
 10
2.131800
 20
2.469720
  0
VERTEX
  8
0
  6
CONTINUOUS
 10
2.043360
 20
2.245320
  0
VERTEX
  8
0
  6
CONTINUOUS
 10
2.022680
 20
2.188560
  0
VERTEX
  8
0
  6
CONTINUOUS
 10
2.001560
 20
2.131800
  0
VERTEX
  8
0
  6
CONTINUOUS
 10
1.955800
 20
2.020480
  0
VERTEX
  8
0
  6
CONTINUOUS
 10
1.901680
 20
1.914440
  0
VERTEX
  8
0
  6
CONTINUOUS
 10
1.834360
 20
1.816320
  0
VERTEX
  8
0
  6
CONTINUOUS
 10
1.750320
 20
1.728760
  0
VERTEX
  8
0
  6
CONTINUOUS
 10
1.644280
 20
1.653960
  0
VERTEX
  8
0
  6
CONTINUOUS
 10
1.512720
 20
1.595000
  0
VERTEX
  8
0
  6
CONTINUOUS
 10
1.436160
 20
1.572120
  0
VERTEX
  8
0
  6
CONTINUOUS
 10
1.350800
 20
1.554520
  0
VERTEX
  8
0
  6
CONTINUOUS
 10
1.349920
 20
1.553200
  0
VERTEX
  8
0
  6
CONTINUOUS
 10
1.337160
 20
1.375440
  0
VERTEX
  8
0
  6
CONTINUOUS
 10
1.175680
 20
1.356960
  0
VERTEX
  8
0
  6
CONTINUOUS
 10
1.177880
 20
1.304160
  0
VERTEX
  8
0
  6
CONTINUOUS
 10
1.173040
 20
1.259280
  0
VERTEX
  8
0
  6
CONTINUOUS
 10
1.146640
 20
1.187120
  0
VERTEX
  8
0
  6
CONTINUOUS
 10
1.103960
 20
1.132560
  0
VERTEX
  8
0
  6
CONTINUOUS
 10
1.052040
 20
1.086360
  0
VERTEX
  8
0
  6
CONTINUOUS
 10
1.038840
 20
1.075360
  0
VERTEX
  8
0
  6
CONTINUOUS
 10
1.025640
 20
1.063920
  0
VERTEX
  8
0
  6
CONTINUOUS
 10
0.999680
 20
1.040600
  0
VERTEX
  8
0
  6
CONTINUOUS
 10
0.953040
 20
0.986920
  0
VERTEX
  8
0
  6
CONTINUOUS
 10
0.920920
 20
0.916520
  0
VERTEX
  8
0
  6
CONTINUOUS
 10
0.912560
 20
0.872080
  0
VERTEX
  8
0
  6
CONTINUOUS
 10
0.910360
 20
0.821040
  0
VERTEX
  8
0
  6
CONTINUOUS
 10
0.909920
 20
0.819720
  0
VERTEX
  8
0
  6
CONTINUOUS
 10
0.778360
 20
0.807400
  0
VERTEX
  8
0
  6
CONTINUOUS
 10
0.937200
 20
1.887160
  0
VERTEX
  8
0
  6
CONTINUOUS
 10
0.938080
 20
1.890240
  0
VERTEX
  8
0
  6
CONTINUOUS
 10
2.033680
 20
3.177680
  0
VERTEX
  8
0
  6
CONTINUOUS
 10
2.759240
 20
3.234000
  0
VERTEX
  8
0
  6
CONTINUOUS
 10
2.759240
 20
2.933040
  0
VERTEX
  8
0
  6
CONTINUOUS
 10
2.751760
 20
2.930840
  0
SEQEND
  8
0
  0
TEXT
  8
0
 10
1.991000
 20
0.631840
 40
0.138147
  1
BA  206
 41
1.000000
  7
SN0
 71
     0
 72
     5
 11
2.581395
 21
0.631840
  0
TEXT
  8
0
 10
1.835240
 20
0.440000
 40
0.138147
  1
3/4" x 3-1/8"
 41
1.000000
  7
SN0
 71
     0
 72
     5
 11
2.736523
 21
0.440000
  0
TEXT
  8
0
 10
7.632240
 20
3.021480
 40
0.138147
  1
crown
 41
1.000000
  7
SN0
 71
     0
 72
     5
 11
8.074854
 21
3.021480
  0
TEXT
  8
0
 10
7.715400
 20
2.829640
 40
0.138147
  1
206
 41
1.000000
  7
SN0
 71
     0
 72
     5
 11
7.992718
 21
2.829640
  0
ENDSEC
  0
EOF
