  0
SECTION
  2
HEADER
  9
$ACADVER
  1
AC1006
  9
$EXTMIN
 10
5.404080
 20
0.437360
  9
$EXTMAX
 10
8.099960
 20
3.220360
  9
$LTSCALE
 40
0.044000
  9
$PDMODE
 70
    35
  9
$PDSIZE
 40
0.035200
  0
ENDSEC
  0
SECTION
  2
TABLES
  0
TABLE
  2
LTYPE
 70
     9
  0
LTYPE
  2
CONTINUOUS
 70
    64
  3
Solid line
 72
    65
 73
     0
 40
0.000000
  0
LTYPE
  2
DASHED
 70
    64
  3
__ __ __ __ __ __ __ __ __ __ __ __ __ __ __
 72
    65
 73
     2
 40
0.000330
 49
0.000220
 49
-0.000110
  0
LTYPE
  2
HIDDEN
 70
    64
  3
 _ _ _ _ _ _ _ _ _ _ _ _ _ _ _ _ _ _ _ _ _ _
 72
    65
 73
     2
 40
0.000165
 49
0.000110
 49
-0.000055
  0
LTYPE
  2
CENTER
 70
    64
  3
____ _ ____ _ ____ _ ____ _ ____ _ ____ _ ____
 72
    65
 73
     4
 40
0.000880
 49
0.000550
 49
-0.000110
 49
0.000110
 49
-0.000110
  0
LTYPE
  2
PHANTOM
 70
    64
  3
_____ _ _ _____ _ _ _____ _ _ _____ _ _ ____
 72
    65
 73
     6
 40
0.001100
 49
0.000550
 49
-0.000110
 49
0.000110
 49
-0.000110
 49
0.000110
 49
-0.000110
  0
LTYPE
  2
DOT
 70
    64
  3
...............................................
 72
    65
 73
     2
 40
0.000110
 49
0.000000
 49
-0.000110
  0
LTYPE
  2
DASHDOT
 70
    64
  3
__ . __ . __ . __ . __ . __ . __ . __ . __ . __
 72
    65
 73
     4
 40
0.000440
 49
0.000220
 49
-0.000110
 49
0.000000
 49
-0.000110
  0
LTYPE
  2
BORDER
 70
    64
  3
__ __ . __ __ . __ __ . __ __ . __ __ . __ __
 72
    65
 73
     6
 40
0.000770
 49
0.000220
 49
-0.000110
 49
0.000220
 49
-0.000110
 49
0.000000
 49
-0.000110
  0
LTYPE
  2
DIVIDE
 70
    64
  3
__ . . __ . . __ . . __ . . __ . . __ . . __
 72
    65
 73
     6
 40
0.000550
 49
0.000220
 49
-0.000110
 49
0.000000
 49
-0.000110
 49
0.000000
 49
-0.000110
  0
LTYPE
  2
DOTDOT
 70
    64
  3
 . .  . .  . .  . .  . .  . . 
 72
    65
 73
     5
 40
0.000242
 49
-0.000110
 49
0.000000
 49
-0.000110
 49
0.000000
 49
-0.000110
  0
ENDTAB
  0
TABLE
  2
STYLE
 70
     2
  0
STYLE
 70
     0
  2
SN0
 40
0.000000
 41
0.000440
 50
0.000000
 71
     0
 42
0.000000
  3
ROMAND
  0
STYLE
 70
    68
  2
SV0
 40
0.000000
 41
0.000440
 50
0.000000
 71
     0
 42
0.000000
  3
ROMAND
  0
ENDTAB
  0
TABLE
  2
LAYER
 70
     3
  0
LAYER
  2
FOREGROUND
 70
    64
 62
     7
  6
CONTINUOUS
  0
LAYER
  2
BACKGROUND
 70
    65
 62
    -7
  6
CONTINUOUS
  0
LAYER
  2
0
 70
    64
 62
     7
  6
CONTINUOUS
  0
ENDTAB
  0
ENDSEC
  0
SECTION
  2
ENTITIES
  0
POLYLINE
  8
FOREGROUND
  6
CONTINUOUS
 66
     1
 40
0.000000
 41
0.000000
  0
VERTEX
  8
FOREGROUND
  6
CONTINUOUS
 10
0.000000
 20
3.657720
  0
VERTEX
  8
FOREGROUND
  6
CONTINUOUS
 10
8.499920
 20
3.657720
  0
VERTEX
  8
FOREGROUND
  6
CONTINUOUS
 10
8.499920
 20
-7.342280
  0
VERTEX
  8
FOREGROUND
  6
CONTINUOUS
 10
0.000000
 20
-7.342280
  0
VERTEX
  8
FOREGROUND
  6
CONTINUOUS
 10
0.000000
 20
3.657720
  0
SEQEND
  8
0
  0
POLYLINE
  8
FOREGROUND
  6
CONTINUOUS
 66
     1
 40
0.000000
 41
0.000000
  0
VERTEX
  8
FOREGROUND
  6
CONTINUOUS
 10
0.000000
 20
3.657720
  0
VERTEX
  8
FOREGROUND
  6
CONTINUOUS
 10
8.499920
 20
3.657720
  0
VERTEX
  8
FOREGROUND
  6
CONTINUOUS
 10
8.499920
 20
-7.342280
  0
VERTEX
  8
FOREGROUND
  6
CONTINUOUS
 10
0.000000
 20
-7.342280
  0
VERTEX
  8
FOREGROUND
  6
CONTINUOUS
 10
0.000000
 20
3.657720
  0
SEQEND
  8
0
  0
POLYLINE
  8
0
  6
CONTINUOUS
 66
     1
 40
0.014080
 41
0.014080
  0
VERTEX
  8
0
  6
CONTINUOUS
 10
7.108200
 20
3.021040
  0
VERTEX
  8
0
  6
CONTINUOUS
 10
6.509360
 20
2.415600
  0
VERTEX
  8
0
  6
CONTINUOUS
 10
5.921520
 20
2.415600
  0
VERTEX
  8
0
  6
CONTINUOUS
 10
5.409360
 20
2.881120
  0
VERTEX
  8
0
  6
CONTINUOUS
 10
5.440600
 20
2.934360
  0
VERTEX
  8
0
  6
CONTINUOUS
 10
5.475360
 20
2.981000
  0
VERTEX
  8
0
  6
CONTINUOUS
 10
5.514520
 20
3.023240
  0
VERTEX
  8
0
  6
CONTINUOUS
 10
5.558080
 20
3.061080
  0
VERTEX
  8
0
  6
CONTINUOUS
 10
5.605160
 20
3.093640
  0
VERTEX
  8
0
  6
CONTINUOUS
 10
5.629800
 20
3.108160
  0
VERTEX
  8
0
  6
CONTINUOUS
 10
5.681720
 20
3.132360
  0
VERTEX
  8
0
  6
CONTINUOUS
 10
5.708560
 20
3.142480
  0
VERTEX
  8
0
  6
CONTINUOUS
 10
5.736280
 20
3.150840
  0
VERTEX
  8
0
  6
CONTINUOUS
 10
5.792600
 20
3.162720
  0
VERTEX
  8
0
  6
CONTINUOUS
 10
5.821200
 20
3.166240
  0
VERTEX
  8
0
  6
CONTINUOUS
 10
5.879720
 20
3.167560
  0
VERTEX
  8
0
  6
CONTINUOUS
 10
5.939120
 20
3.161840
  0
VERTEX
  8
0
  6
CONTINUOUS
 10
5.969040
 20
3.155680
  0
VERTEX
  8
0
  6
CONTINUOUS
 10
5.998960
 20
3.147760
  0
VERTEX
  8
0
  6
CONTINUOUS
 10
6.028880
 20
3.138080
  0
VERTEX
  8
0
  6
CONTINUOUS
 10
6.058800
 20
3.125760
  0
VERTEX
  8
0
  6
CONTINUOUS
 10
6.088280
 20
3.111680
  0
VERTEX
  8
0
  6
CONTINUOUS
 10
6.117760
 20
3.095400
  0
VERTEX
  8
0
  6
CONTINUOUS
 10
6.175840
 20
3.055800
  0
VERTEX
  8
0
  6
CONTINUOUS
 10
6.218080
 20
3.019720
  0
VERTEX
  8
0
  6
CONTINUOUS
 10
6.232160
 20
3.006520
  0
VERTEX
  8
0
  6
CONTINUOUS
 10
6.234800
 20
3.006520
  0
VERTEX
  8
0
  6
CONTINUOUS
 10
6.372080
 20
3.130160
  0
VERTEX
  8
0
  6
CONTINUOUS
 10
6.374720
 20
3.134120
  0
VERTEX
  8
0
  6
CONTINUOUS
 10
6.434120
 20
3.096720
  0
VERTEX
  8
0
  6
CONTINUOUS
 10
6.481200
 20
3.073840
  0
VERTEX
  8
0
  6
CONTINUOUS
 10
6.530480
 20
3.055800
  0
VERTEX
  8
0
  6
CONTINUOUS
 10
6.582400
 20
3.043040
  0
VERTEX
  8
0
  6
CONTINUOUS
 10
6.618040
 20
3.038200
  0
VERTEX
  8
0
  6
CONTINUOUS
 10
6.655000
 20
3.036880
  0
VERTEX
  8
0
  6
CONTINUOUS
 10
6.692840
 20
3.038200
  0
VERTEX
  8
0
  6
CONTINUOUS
 10
6.731560
 20
3.043480
  0
VERTEX
  8
0
  6
CONTINUOUS
 10
6.771600
 20
3.052720
  0
VERTEX
  8
0
  6
CONTINUOUS
 10
6.812080
 20
3.065480
  0
VERTEX
  8
0
  6
CONTINUOUS
 10
6.853880
 20
3.082640
  0
VERTEX
  8
0
  6
CONTINUOUS
 10
6.897000
 20
3.104200
  0
VERTEX
  8
0
  6
CONTINUOUS
 10
6.963000
 20
3.145120
  0
VERTEX
  8
0
  6
CONTINUOUS
 10
6.965640
 20
3.145120
  0
VERTEX
  8
0
  6
CONTINUOUS
 10
7.105560
 20
3.026320
  0
VERTEX
  8
0
  6
CONTINUOUS
 10
7.108200
 20
3.021040
  0
SEQEND
  8
0
  0
SOLID
  8
0
 62
    15
 10
6.857840
 20
1.934680
 11
7.503320
 21
1.566400
 12
6.852560
 22
1.877040
 13
7.498040
 23
1.509200
  0
POLYLINE
  8
0
  6
CONTINUOUS
 66
     1
 40
0.000000
 41
0.000000
  0
VERTEX
  8
0
  6
CONTINUOUS
 10
6.857840
 20
1.934680
  0
VERTEX
  8
0
  6
CONTINUOUS
 10
7.503320
 20
1.566400
  0
VERTEX
  8
0
  6
CONTINUOUS
 10
7.498040
 20
1.509200
  0
VERTEX
  8
0
  6
CONTINUOUS
 10
6.852560
 20
1.877040
  0
VERTEX
  8
0
  6
CONTINUOUS
 10
6.857840
 20
1.934680
  0
SEQEND
  8
0
  0
SOLID
  8
0
 62
    15
 10
6.243600
 20
1.246080
 11
6.889520
 21
0.878240
 12
6.177600
 22
1.223640
 13
6.823080
 23
0.855800
  0
POLYLINE
  8
0
  6
CONTINUOUS
 66
     1
 40
0.000000
 41
0.000000
  0
VERTEX
  8
0
  6
CONTINUOUS
 10
6.243600
 20
1.246080
  0
VERTEX
  8
0
  6
CONTINUOUS
 10
6.889520
 20
0.878240
  0
VERTEX
  8
0
  6
CONTINUOUS
 10
6.823080
 20
0.855800
  0
VERTEX
  8
0
  6
CONTINUOUS
 10
6.177600
 20
1.223640
  0
VERTEX
  8
0
  6
CONTINUOUS
 10
6.243600
 20
1.246080
  0
SEQEND
  8
0
  0
SOLID
  8
0
 62
    15
 10
6.177600
 20
1.223640
 11
6.823080
 21
0.855800
 12
6.114680
 22
1.191520
 13
6.760600
 23
0.823680
  0
POLYLINE
  8
0
  6
CONTINUOUS
 66
     1
 40
0.000000
 41
0.000000
  0
VERTEX
  8
0
  6
CONTINUOUS
 10
6.177600
 20
1.223640
  0
VERTEX
  8
0
  6
CONTINUOUS
 10
6.823080
 20
0.855800
  0
VERTEX
  8
0
  6
CONTINUOUS
 10
6.760600
 20
0.823680
  0
VERTEX
  8
0
  6
CONTINUOUS
 10
6.114680
 20
1.191520
  0
VERTEX
  8
0
  6
CONTINUOUS
 10
6.177600
 20
1.223640
  0
SEQEND
  8
0
  0
SOLID
  8
0
 62
    15
 10
6.114680
 20
1.191520
 11
6.760600
 21
0.823680
 12
6.056600
 22
1.148840
 13
6.702520
 23
0.780560
  0
POLYLINE
  8
0
  6
CONTINUOUS
 66
     1
 40
0.000000
 41
0.000000
  0
VERTEX
  8
0
  6
CONTINUOUS
 10
6.114680
 20
1.191520
  0
VERTEX
  8
0
  6
CONTINUOUS
 10
6.760600
 20
0.823680
  0
VERTEX
  8
0
  6
CONTINUOUS
 10
6.702520
 20
0.780560
  0
VERTEX
  8
0
  6
CONTINUOUS
 10
6.056600
 20
1.148840
  0
VERTEX
  8
0
  6
CONTINUOUS
 10
6.114680
 20
1.191520
  0
SEQEND
  8
0
  0
SOLID
  8
0
 62
    15
 10
6.056600
 20
1.148840
 11
6.702520
 21
0.780560
 12
6.004680
 22
1.093400
 13
6.650600
 23
0.725560
  0
POLYLINE
  8
0
  6
CONTINUOUS
 66
     1
 40
0.000000
 41
0.000000
  0
VERTEX
  8
0
  6
CONTINUOUS
 10
6.056600
 20
1.148840
  0
VERTEX
  8
0
  6
CONTINUOUS
 10
6.702520
 20
0.780560
  0
VERTEX
  8
0
  6
CONTINUOUS
 10
6.650600
 20
0.725560
  0
VERTEX
  8
0
  6
CONTINUOUS
 10
6.004680
 20
1.093400
  0
VERTEX
  8
0
  6
CONTINUOUS
 10
6.056600
 20
1.148840
  0
SEQEND
  8
0
  0
SOLID
  8
0
 62
    15
 10
6.004680
 20
1.093400
 11
6.650600
 21
0.725560
 12
5.959800
 22
1.025200
 13
6.605720
 23
0.656920
  0
POLYLINE
  8
0
  6
CONTINUOUS
 66
     1
 40
0.000000
 41
0.000000
  0
VERTEX
  8
0
  6
CONTINUOUS
 10
6.004680
 20
1.093400
  0
VERTEX
  8
0
  6
CONTINUOUS
 10
6.650600
 20
0.725560
  0
VERTEX
  8
0
  6
CONTINUOUS
 10
6.605720
 20
0.656920
  0
VERTEX
  8
0
  6
CONTINUOUS
 10
5.959800
 20
1.025200
  0
VERTEX
  8
0
  6
CONTINUOUS
 10
6.004680
 20
1.093400
  0
SEQEND
  8
0
  0
SOLID
  8
0
 62
    15
 10
5.959800
 20
1.025200
 11
6.605720
 21
0.656920
 12
5.923280
 22
0.942480
 13
6.569200
 23
0.574200
  0
POLYLINE
  8
0
  6
CONTINUOUS
 66
     1
 40
0.000000
 41
0.000000
  0
VERTEX
  8
0
  6
CONTINUOUS
 10
5.959800
 20
1.025200
  0
VERTEX
  8
0
  6
CONTINUOUS
 10
6.605720
 20
0.656920
  0
VERTEX
  8
0
  6
CONTINUOUS
 10
6.569200
 20
0.574200
  0
VERTEX
  8
0
  6
CONTINUOUS
 10
5.923280
 20
0.942480
  0
VERTEX
  8
0
  6
CONTINUOUS
 10
5.959800
 20
1.025200
  0
SEQEND
  8
0
  0
SOLID
  8
0
 62
    15
 10
5.923280
 20
0.942480
 11
6.569200
 21
0.574200
 12
5.896440
 22
0.843920
 13
6.542360
 23
0.476080
  0
POLYLINE
  8
0
  6
CONTINUOUS
 66
     1
 40
0.000000
 41
0.000000
  0
VERTEX
  8
0
  6
CONTINUOUS
 10
5.923280
 20
0.942480
  0
VERTEX
  8
0
  6
CONTINUOUS
 10
6.569200
 20
0.574200
  0
VERTEX
  8
0
  6
CONTINUOUS
 10
6.542360
 20
0.476080
  0
VERTEX
  8
0
  6
CONTINUOUS
 10
5.896440
 20
0.843920
  0
VERTEX
  8
0
  6
CONTINUOUS
 10
5.923280
 20
0.942480
  0
SEQEND
  8
0
  0
SOLID
  8
0
 62
    15
 10
5.896440
 20
0.843920
 11
6.542360
 21
0.476080
 12
5.894680
 22
0.842160
 13
6.540160
 23
0.473880
  0
POLYLINE
  8
0
  6
CONTINUOUS
 66
     1
 40
0.000000
 41
0.000000
  0
VERTEX
  8
0
  6
CONTINUOUS
 10
5.896440
 20
0.843920
  0
VERTEX
  8
0
  6
CONTINUOUS
 10
6.542360
 20
0.476080
  0
VERTEX
  8
0
  6
CONTINUOUS
 10
6.540160
 20
0.473880
  0
VERTEX
  8
0
  6
CONTINUOUS
 10
5.894680
 20
0.842160
  0
VERTEX
  8
0
  6
CONTINUOUS
 10
5.896440
 20
0.843920
  0
SEQEND
  8
0
  0
SOLID
  8
0
 62
    15
 10
5.894680
 20
0.842160
 11
6.540160
 21
0.473880
 12
5.711200
 22
0.830720
 13
6.357120
 23
0.462880
  0
POLYLINE
  8
0
  6
CONTINUOUS
 66
     1
 40
0.000000
 41
0.000000
  0
VERTEX
  8
0
  6
CONTINUOUS
 10
5.894680
 20
0.842160
  0
VERTEX
  8
0
  6
CONTINUOUS
 10
6.540160
 20
0.473880
  0
VERTEX
  8
0
  6
CONTINUOUS
 10
6.357120
 20
0.462880
  0
VERTEX
  8
0
  6
CONTINUOUS
 10
5.711200
 20
0.830720
  0
VERTEX
  8
0
  6
CONTINUOUS
 10
5.894680
 20
0.842160
  0
SEQEND
  8
0
  0
SOLID
  8
0
 62
    15
 10
5.711200
 20
0.830720
 11
6.357120
 21
0.462880
 12
5.705920
 22
0.832920
 13
6.351400
 23
0.464640
  0
POLYLINE
  8
0
  6
CONTINUOUS
 66
     1
 40
0.000000
 41
0.000000
  0
VERTEX
  8
0
  6
CONTINUOUS
 10
5.711200
 20
0.830720
  0
VERTEX
  8
0
  6
CONTINUOUS
 10
6.357120
 20
0.462880
  0
VERTEX
  8
0
  6
CONTINUOUS
 10
6.351400
 20
0.464640
  0
VERTEX
  8
0
  6
CONTINUOUS
 10
5.705920
 20
0.832920
  0
VERTEX
  8
0
  6
CONTINUOUS
 10
5.711200
 20
0.830720
  0
SEQEND
  8
0
  0
SOLID
  8
0
 62
     7
 10
6.834960
 20
2.109800
 11
7.480440
 21
1.741520
 12
6.835840
 22
2.106720
 13
7.481320
 23
1.738440
  0
POLYLINE
  8
0
  6
CONTINUOUS
 66
     1
 40
0.000000
 41
0.000000
  0
VERTEX
  8
0
  6
CONTINUOUS
 10
6.834960
 20
2.109800
  0
VERTEX
  8
0
  6
CONTINUOUS
 10
7.480440
 20
1.741520
  0
VERTEX
  8
0
  6
CONTINUOUS
 10
7.481320
 20
1.738440
  0
VERTEX
  8
0
  6
CONTINUOUS
 10
6.835840
 20
2.106720
  0
VERTEX
  8
0
  6
CONTINUOUS
 10
6.834960
 20
2.109800
  0
SEQEND
  8
0
  0
SOLID
  8
0
 62
     7
 10
6.835840
 20
2.106720
 11
7.481320
 21
1.738440
 12
6.849480
 22
2.049960
 13
7.494960
 23
1.681680
  0
POLYLINE
  8
0
  6
CONTINUOUS
 66
     1
 40
0.000000
 41
0.000000
  0
VERTEX
  8
0
  6
CONTINUOUS
 10
6.835840
 20
2.106720
  0
VERTEX
  8
0
  6
CONTINUOUS
 10
7.481320
 20
1.738440
  0
VERTEX
  8
0
  6
CONTINUOUS
 10
7.494960
 20
1.681680
  0
VERTEX
  8
0
  6
CONTINUOUS
 10
6.849480
 20
2.049960
  0
VERTEX
  8
0
  6
CONTINUOUS
 10
6.835840
 20
2.106720
  0
SEQEND
  8
0
  0
SOLID
  8
0
 62
     7
 10
6.849480
 20
2.049960
 11
7.494960
 21
1.681680
 12
6.856520
 22
1.992320
 13
7.502440
 23
1.624040
  0
POLYLINE
  8
0
  6
CONTINUOUS
 66
     1
 40
0.000000
 41
0.000000
  0
VERTEX
  8
0
  6
CONTINUOUS
 10
6.849480
 20
2.049960
  0
VERTEX
  8
0
  6
CONTINUOUS
 10
7.494960
 20
1.681680
  0
VERTEX
  8
0
  6
CONTINUOUS
 10
7.502440
 20
1.624040
  0
VERTEX
  8
0
  6
CONTINUOUS
 10
6.856520
 20
1.992320
  0
VERTEX
  8
0
  6
CONTINUOUS
 10
6.849480
 20
2.049960
  0
SEQEND
  8
0
  0
SOLID
  8
0
 62
     7
 10
6.856520
 20
1.992320
 11
7.502440
 21
1.624040
 12
6.857840
 22
1.934680
 13
7.503320
 23
1.566400
  0
POLYLINE
  8
0
  6
CONTINUOUS
 66
     1
 40
0.000000
 41
0.000000
  0
VERTEX
  8
0
  6
CONTINUOUS
 10
6.856520
 20
1.992320
  0
VERTEX
  8
0
  6
CONTINUOUS
 10
7.502440
 20
1.624040
  0
VERTEX
  8
0
  6
CONTINUOUS
 10
7.503320
 20
1.566400
  0
VERTEX
  8
0
  6
CONTINUOUS
 10
6.857840
 20
1.934680
  0
VERTEX
  8
0
  6
CONTINUOUS
 10
6.856520
 20
1.992320
  0
SEQEND
  8
0
  0
SOLID
  8
0
 62
    15
 10
6.312240
 20
1.260160
 11
6.957720
 21
0.892320
 12
6.243600
 22
1.246080
 13
6.889520
 23
0.878240
  0
POLYLINE
  8
0
  6
CONTINUOUS
 66
     1
 40
0.000000
 41
0.000000
  0
VERTEX
  8
0
  6
CONTINUOUS
 10
6.312240
 20
1.260160
  0
VERTEX
  8
0
  6
CONTINUOUS
 10
6.957720
 20
0.892320
  0
VERTEX
  8
0
  6
CONTINUOUS
 10
6.889520
 20
0.878240
  0
VERTEX
  8
0
  6
CONTINUOUS
 10
6.243600
 20
1.246080
  0
VERTEX
  8
0
  6
CONTINUOUS
 10
6.312240
 20
1.260160
  0
SEQEND
  8
0
  0
SOLID
  8
0
 62
    15
 10
6.852560
 20
1.877040
 11
7.498040
 21
1.509200
 12
6.841120
 22
1.821160
 13
7.486600
 23
1.452880
  0
POLYLINE
  8
0
  6
CONTINUOUS
 66
     1
 40
0.000000
 41
0.000000
  0
VERTEX
  8
0
  6
CONTINUOUS
 10
6.852560
 20
1.877040
  0
VERTEX
  8
0
  6
CONTINUOUS
 10
7.498040
 20
1.509200
  0
VERTEX
  8
0
  6
CONTINUOUS
 10
7.486600
 20
1.452880
  0
VERTEX
  8
0
  6
CONTINUOUS
 10
6.841120
 20
1.821160
  0
VERTEX
  8
0
  6
CONTINUOUS
 10
6.852560
 20
1.877040
  0
SEQEND
  8
0
  0
SOLID
  8
0
 62
    15
 10
6.841120
 20
1.821160
 11
7.486600
 21
1.452880
 12
6.823520
 22
1.766160
 13
7.469000
 23
1.398320
  0
POLYLINE
  8
0
  6
CONTINUOUS
 66
     1
 40
0.000000
 41
0.000000
  0
VERTEX
  8
0
  6
CONTINUOUS
 10
6.841120
 20
1.821160
  0
VERTEX
  8
0
  6
CONTINUOUS
 10
7.486600
 20
1.452880
  0
VERTEX
  8
0
  6
CONTINUOUS
 10
7.469000
 20
1.398320
  0
VERTEX
  8
0
  6
CONTINUOUS
 10
6.823520
 20
1.766160
  0
VERTEX
  8
0
  6
CONTINUOUS
 10
6.841120
 20
1.821160
  0
SEQEND
  8
0
  0
SOLID
  8
0
 62
    15
 10
6.823520
 20
1.766160
 11
7.469000
 21
1.398320
 12
6.799760
 22
1.714240
 13
7.445680
 23
1.345960
  0
POLYLINE
  8
0
  6
CONTINUOUS
 66
     1
 40
0.000000
 41
0.000000
  0
VERTEX
  8
0
  6
CONTINUOUS
 10
6.823520
 20
1.766160
  0
VERTEX
  8
0
  6
CONTINUOUS
 10
7.469000
 20
1.398320
  0
VERTEX
  8
0
  6
CONTINUOUS
 10
7.445680
 20
1.345960
  0
VERTEX
  8
0
  6
CONTINUOUS
 10
6.799760
 20
1.714240
  0
VERTEX
  8
0
  6
CONTINUOUS
 10
6.823520
 20
1.766160
  0
SEQEND
  8
0
  0
SOLID
  8
0
 62
    15
 10
6.799760
 20
1.714240
 11
7.445680
 21
1.345960
 12
6.770280
 22
1.664520
 13
7.416200
 23
1.296680
  0
POLYLINE
  8
0
  6
CONTINUOUS
 66
     1
 40
0.000000
 41
0.000000
  0
VERTEX
  8
0
  6
CONTINUOUS
 10
6.799760
 20
1.714240
  0
VERTEX
  8
0
  6
CONTINUOUS
 10
7.445680
 20
1.345960
  0
VERTEX
  8
0
  6
CONTINUOUS
 10
7.416200
 20
1.296680
  0
VERTEX
  8
0
  6
CONTINUOUS
 10
6.770280
 20
1.664520
  0
VERTEX
  8
0
  6
CONTINUOUS
 10
6.799760
 20
1.714240
  0
SEQEND
  8
0
  0
SOLID
  8
0
 62
    15
 10
6.770280
 20
1.664520
 11
7.416200
 21
1.296680
 12
6.735080
 22
1.618760
 13
7.380560
 23
1.250920
  0
POLYLINE
  8
0
  6
CONTINUOUS
 66
     1
 40
0.000000
 41
0.000000
  0
VERTEX
  8
0
  6
CONTINUOUS
 10
6.770280
 20
1.664520
  0
VERTEX
  8
0
  6
CONTINUOUS
 10
7.416200
 20
1.296680
  0
VERTEX
  8
0
  6
CONTINUOUS
 10
7.380560
 20
1.250920
  0
VERTEX
  8
0
  6
CONTINUOUS
 10
6.735080
 20
1.618760
  0
VERTEX
  8
0
  6
CONTINUOUS
 10
6.770280
 20
1.664520
  0
SEQEND
  8
0
  0
SOLID
  8
0
 62
    15
 10
6.735080
 20
1.618760
 11
7.380560
 21
1.250920
 12
6.693720
 22
1.577400
 13
7.339640
 23
1.209120
  0
POLYLINE
  8
0
  6
CONTINUOUS
 66
     1
 40
0.000000
 41
0.000000
  0
VERTEX
  8
0
  6
CONTINUOUS
 10
6.735080
 20
1.618760
  0
VERTEX
  8
0
  6
CONTINUOUS
 10
7.380560
 20
1.250920
  0
VERTEX
  8
0
  6
CONTINUOUS
 10
7.339640
 20
1.209120
  0
VERTEX
  8
0
  6
CONTINUOUS
 10
6.693720
 20
1.577400
  0
VERTEX
  8
0
  6
CONTINUOUS
 10
6.735080
 20
1.618760
  0
SEQEND
  8
0
  0
SOLID
  8
0
 62
    15
 10
6.693720
 20
1.577400
 11
7.339640
 21
1.209120
 12
6.646640
 22
1.540440
 13
7.292560
 23
1.172160
  0
POLYLINE
  8
0
  6
CONTINUOUS
 66
     1
 40
0.000000
 41
0.000000
  0
VERTEX
  8
0
  6
CONTINUOUS
 10
6.693720
 20
1.577400
  0
VERTEX
  8
0
  6
CONTINUOUS
 10
7.339640
 20
1.209120
  0
VERTEX
  8
0
  6
CONTINUOUS
 10
7.292560
 20
1.172160
  0
VERTEX
  8
0
  6
CONTINUOUS
 10
6.646640
 20
1.540440
  0
VERTEX
  8
0
  6
CONTINUOUS
 10
6.693720
 20
1.577400
  0
SEQEND
  8
0
  0
SOLID
  8
0
 62
    15
 10
6.646640
 20
1.540440
 11
7.292560
 21
1.172160
 12
6.594280
 22
1.509200
 13
7.239760
 23
1.140920
  0
POLYLINE
  8
0
  6
CONTINUOUS
 66
     1
 40
0.000000
 41
0.000000
  0
VERTEX
  8
0
  6
CONTINUOUS
 10
6.646640
 20
1.540440
  0
VERTEX
  8
0
  6
CONTINUOUS
 10
7.292560
 20
1.172160
  0
VERTEX
  8
0
  6
CONTINUOUS
 10
7.239760
 20
1.140920
  0
VERTEX
  8
0
  6
CONTINUOUS
 10
6.594280
 20
1.509200
  0
VERTEX
  8
0
  6
CONTINUOUS
 10
6.646640
 20
1.540440
  0
SEQEND
  8
0
  0
SOLID
  8
0
 62
    15
 10
6.594280
 20
1.509200
 11
7.239760
 21
1.140920
 12
6.535760
 22
1.483680
 13
7.181680
 23
1.115400
  0
POLYLINE
  8
0
  6
CONTINUOUS
 66
     1
 40
0.000000
 41
0.000000
  0
VERTEX
  8
0
  6
CONTINUOUS
 10
6.594280
 20
1.509200
  0
VERTEX
  8
0
  6
CONTINUOUS
 10
7.239760
 20
1.140920
  0
VERTEX
  8
0
  6
CONTINUOUS
 10
7.181680
 20
1.115400
  0
VERTEX
  8
0
  6
CONTINUOUS
 10
6.535760
 20
1.483680
  0
VERTEX
  8
0
  6
CONTINUOUS
 10
6.594280
 20
1.509200
  0
SEQEND
  8
0
  0
SOLID
  8
0
 62
    15
 10
6.535760
 20
1.483680
 11
7.181680
 21
1.115400
 12
6.471960
 22
1.464760
 13
7.117440
 23
1.096480
  0
POLYLINE
  8
0
  6
CONTINUOUS
 66
     1
 40
0.000000
 41
0.000000
  0
VERTEX
  8
0
  6
CONTINUOUS
 10
6.535760
 20
1.483680
  0
VERTEX
  8
0
  6
CONTINUOUS
 10
7.181680
 20
1.115400
  0
VERTEX
  8
0
  6
CONTINUOUS
 10
7.117440
 20
1.096480
  0
VERTEX
  8
0
  6
CONTINUOUS
 10
6.471960
 20
1.464760
  0
VERTEX
  8
0
  6
CONTINUOUS
 10
6.535760
 20
1.483680
  0
SEQEND
  8
0
  0
SOLID
  8
0
 62
    15
 10
6.471960
 20
1.464760
 11
7.117440
 21
1.096480
 12
6.402440
 22
1.453320
 13
7.048360
 23
1.085040
  0
POLYLINE
  8
0
  6
CONTINUOUS
 66
     1
 40
0.000000
 41
0.000000
  0
VERTEX
  8
0
  6
CONTINUOUS
 10
6.471960
 20
1.464760
  0
VERTEX
  8
0
  6
CONTINUOUS
 10
7.117440
 20
1.096480
  0
VERTEX
  8
0
  6
CONTINUOUS
 10
7.048360
 20
1.085040
  0
VERTEX
  8
0
  6
CONTINUOUS
 10
6.402440
 20
1.453320
  0
VERTEX
  8
0
  6
CONTINUOUS
 10
6.471960
 20
1.464760
  0
SEQEND
  8
0
  0
SOLID
  8
0
 62
    15
 10
6.402440
 20
1.453320
 11
7.048360
 21
1.085040
 12
6.328080
 22
1.449800
 13
6.973560
 23
1.081520
  0
POLYLINE
  8
0
  6
CONTINUOUS
 66
     1
 40
0.000000
 41
0.000000
  0
VERTEX
  8
0
  6
CONTINUOUS
 10
6.402440
 20
1.453320
  0
VERTEX
  8
0
  6
CONTINUOUS
 10
7.048360
 20
1.085040
  0
VERTEX
  8
0
  6
CONTINUOUS
 10
6.973560
 20
1.081520
  0
VERTEX
  8
0
  6
CONTINUOUS
 10
6.328080
 20
1.449800
  0
VERTEX
  8
0
  6
CONTINUOUS
 10
6.402440
 20
1.453320
  0
SEQEND
  8
0
  0
SOLID
  8
0
 62
    15
 10
6.328080
 20
1.449800
 11
6.973560
 21
1.081520
 12
6.325880
 22
1.448040
 13
6.971800
 23
1.079760
  0
POLYLINE
  8
0
  6
CONTINUOUS
 66
     1
 40
0.000000
 41
0.000000
  0
VERTEX
  8
0
  6
CONTINUOUS
 10
6.328080
 20
1.449800
  0
VERTEX
  8
0
  6
CONTINUOUS
 10
6.973560
 20
1.081520
  0
VERTEX
  8
0
  6
CONTINUOUS
 10
6.971800
 20
1.079760
  0
VERTEX
  8
0
  6
CONTINUOUS
 10
6.325880
 20
1.448040
  0
VERTEX
  8
0
  6
CONTINUOUS
 10
6.328080
 20
1.449800
  0
SEQEND
  8
0
  0
SOLID
  8
0
 62
     7
 10
6.325880
 20
1.448040
 11
6.971800
 21
1.079760
 12
6.312680
 22
1.263240
 13
6.958160
 23
0.895400
  0
POLYLINE
  8
0
  6
CONTINUOUS
 66
     1
 40
0.000000
 41
0.000000
  0
VERTEX
  8
0
  6
CONTINUOUS
 10
6.325880
 20
1.448040
  0
VERTEX
  8
0
  6
CONTINUOUS
 10
6.971800
 20
1.079760
  0
VERTEX
  8
0
  6
CONTINUOUS
 10
6.958160
 20
0.895400
  0
VERTEX
  8
0
  6
CONTINUOUS
 10
6.312680
 20
1.263240
  0
VERTEX
  8
0
  6
CONTINUOUS
 10
6.325880
 20
1.448040
  0
SEQEND
  8
0
  0
SOLID
  8
0
 62
    15
 10
6.312680
 20
1.263240
 11
6.958160
 21
0.895400
 12
6.312240
 22
1.260160
 13
6.957720
 23
0.892320
  0
POLYLINE
  8
0
  6
CONTINUOUS
 66
     1
 40
0.000000
 41
0.000000
  0
VERTEX
  8
0
  6
CONTINUOUS
 10
6.312680
 20
1.263240
  0
VERTEX
  8
0
  6
CONTINUOUS
 10
6.958160
 20
0.895400
  0
VERTEX
  8
0
  6
CONTINUOUS
 10
6.957720
 20
0.892320
  0
VERTEX
  8
0
  6
CONTINUOUS
 10
6.312240
 20
1.260160
  0
VERTEX
  8
0
  6
CONTINUOUS
 10
6.312680
 20
1.263240
  0
SEQEND
  8
0
  0
POLYLINE
  8
0
  6
CONTINUOUS
 66
     1
 40
0.000000
 41
0.000000
  0
VERTEX
  8
0
  6
CONTINUOUS
 10
6.312240
 20
1.260160
  0
VERTEX
  8
0
  6
CONTINUOUS
 10
6.243600
 20
1.246080
  0
VERTEX
  8
0
  6
CONTINUOUS
 10
6.177600
 20
1.223640
  0
VERTEX
  8
0
  6
CONTINUOUS
 10
6.114680
 20
1.191520
  0
VERTEX
  8
0
  6
CONTINUOUS
 10
6.056600
 20
1.148840
  0
VERTEX
  8
0
  6
CONTINUOUS
 10
6.004680
 20
1.093400
  0
VERTEX
  8
0
  6
CONTINUOUS
 10
5.959800
 20
1.025200
  0
VERTEX
  8
0
  6
CONTINUOUS
 10
5.923280
 20
0.942480
  0
VERTEX
  8
0
  6
CONTINUOUS
 10
5.896440
 20
0.843920
  0
VERTEX
  8
0
  6
CONTINUOUS
 10
5.894680
 20
0.842160
  0
VERTEX
  8
0
  6
CONTINUOUS
 10
5.711200
 20
0.830720
  0
VERTEX
  8
0
  6
CONTINUOUS
 10
5.705920
 20
0.832920
  0
VERTEX
  8
0
  6
CONTINUOUS
 10
5.718680
 20
1.684320
  0
VERTEX
  8
0
  6
CONTINUOUS
 10
6.143280
 20
2.091320
  0
VERTEX
  8
0
  6
CONTINUOUS
 10
6.834960
 20
2.109800
  0
VERTEX
  8
0
  6
CONTINUOUS
 10
6.835840
 20
2.106720
  0
VERTEX
  8
0
  6
CONTINUOUS
 10
6.849480
 20
2.049960
  0
VERTEX
  8
0
  6
CONTINUOUS
 10
6.856520
 20
1.992320
  0
VERTEX
  8
0
  6
CONTINUOUS
 10
6.857840
 20
1.934680
  0
VERTEX
  8
0
  6
CONTINUOUS
 10
6.852560
 20
1.877040
  0
VERTEX
  8
0
  6
CONTINUOUS
 10
6.841120
 20
1.821160
  0
VERTEX
  8
0
  6
CONTINUOUS
 10
6.823520
 20
1.766160
  0
VERTEX
  8
0
  6
CONTINUOUS
 10
6.799760
 20
1.714240
  0
VERTEX
  8
0
  6
CONTINUOUS
 10
6.770280
 20
1.664520
  0
VERTEX
  8
0
  6
CONTINUOUS
 10
6.735080
 20
1.618760
  0
VERTEX
  8
0
  6
CONTINUOUS
 10
6.693720
 20
1.577400
  0
VERTEX
  8
0
  6
CONTINUOUS
 10
6.646640
 20
1.540440
  0
VERTEX
  8
0
  6
CONTINUOUS
 10
6.594280
 20
1.509200
  0
VERTEX
  8
0
  6
CONTINUOUS
 10
6.535760
 20
1.483680
  0
VERTEX
  8
0
  6
CONTINUOUS
 10
6.471960
 20
1.464760
  0
VERTEX
  8
0
  6
CONTINUOUS
 10
6.402440
 20
1.453320
  0
VERTEX
  8
0
  6
CONTINUOUS
 10
6.328080
 20
1.449800
  0
VERTEX
  8
0
  6
CONTINUOUS
 10
6.325880
 20
1.448040
  0
VERTEX
  8
0
  6
CONTINUOUS
 10
6.312680
 20
1.263240
  0
VERTEX
  8
0
  6
CONTINUOUS
 10
6.312240
 20
1.260160
  0
SEQEND
  8
0
  0
TEXT
  8
0
 10
6.975760
 20
0.673200
 40
0.138146
  1
BA  205
 41
1.000000
  7
SN0
 71
     0
 72
     5
 11
7.565339
 21
0.673200
  0
TEXT
  8
0
 10
6.727600
 20
0.481800
 40
0.138146
  1
3/4" x 1-11/16"
 41
1.000000
  7
SN0
 71
     0
 72
     5
 11
7.811161
 21
0.481800
  0
TEXT
  8
0
 10
7.656880
 20
3.069000
 40
0.138146
  1
crown
 41
1.000000
  7
SN0
 71
     0
 72
     5
 11
8.099099
 21
3.069000
  0
TEXT
  8
0
 10
7.740040
 20
2.877160
 40
0.138146
  1
205
 41
1.000000
  7
SN0
 71
     0
 72
     5
 11
8.016809
 21
2.877160
  0
TEXT
  8
0
 10
7.850920
 20
2.596000
 40
0.138146
  1
B
 41
1.000000
  7
SN0
 71
     0
 72
     5
 11
7.961962
 21
2.596000
  0
ENDSEC
  0
EOF
