  0
SECTION
  2
HEADER
  9
$ACADVER
  1
AC1006
  9
$EXTMIN
 10
5.299360
 20
0.366520
  9
$EXTMAX
 10
7.898880
 20
1.921040
  9
$LTSCALE
 40
0.044000
  9
$PDMODE
 70
    35
  9
$PDSIZE
 40
0.035200
  0
ENDSEC
  0
SECTION
  2
TABLES
  0
TABLE
  2
LTYPE
 70
     9
  0
LTYPE
  2
CONTINUOUS
 70
    64
  3
Solid line
 72
    65
 73
     0
 40
0.000000
  0
LTYPE
  2
DASHED
 70
    64
  3
__ __ __ __ __ __ __ __ __ __ __ __ __ __ __
 72
    65
 73
     2
 40
0.000330
 49
0.000220
 49
-0.000110
  0
LTYPE
  2
HIDDEN
 70
    64
  3
 _ _ _ _ _ _ _ _ _ _ _ _ _ _ _ _ _ _ _ _ _ _
 72
    65
 73
     2
 40
0.000165
 49
0.000110
 49
-0.000055
  0
LTYPE
  2
CENTER
 70
    64
  3
____ _ ____ _ ____ _ ____ _ ____ _ ____ _ ____
 72
    65
 73
     4
 40
0.000880
 49
0.000550
 49
-0.000110
 49
0.000110
 49
-0.000110
  0
LTYPE
  2
PHANTOM
 70
    64
  3
_____ _ _ _____ _ _ _____ _ _ _____ _ _ ____
 72
    65
 73
     6
 40
0.001100
 49
0.000550
 49
-0.000110
 49
0.000110
 49
-0.000110
 49
0.000110
 49
-0.000110
  0
LTYPE
  2
DOT
 70
    64
  3
...............................................
 72
    65
 73
     2
 40
0.000110
 49
0.000000
 49
-0.000110
  0
LTYPE
  2
DASHDOT
 70
    64
  3
__ . __ . __ . __ . __ . __ . __ . __ . __ . __
 72
    65
 73
     4
 40
0.000440
 49
0.000220
 49
-0.000110
 49
0.000000
 49
-0.000110
  0
LTYPE
  2
BORDER
 70
    64
  3
__ __ . __ __ . __ __ . __ __ . __ __ . __ __
 72
    65
 73
     6
 40
0.000770
 49
0.000220
 49
-0.000110
 49
0.000220
 49
-0.000110
 49
0.000000
 49
-0.000110
  0
LTYPE
  2
DIVIDE
 70
    64
  3
__ . . __ . . __ . . __ . . __ . . __ . . __
 72
    65
 73
     6
 40
0.000550
 49
0.000220
 49
-0.000110
 49
0.000000
 49
-0.000110
 49
0.000000
 49
-0.000110
  0
LTYPE
  2
DOTDOT
 70
    64
  3
 . .  . .  . .  . .  . .  . . 
 72
    65
 73
     5
 40
0.000242
 49
-0.000110
 49
0.000000
 49
-0.000110
 49
0.000000
 49
-0.000110
  0
ENDTAB
  0
TABLE
  2
STYLE
 70
     2
  0
STYLE
 70
     0
  2
SN0
 40
0.000000
 41
0.000440
 50
0.000000
 71
     0
 42
0.000000
  3
ROMAND
  0
STYLE
 70
    68
  2
SV0
 40
0.000000
 41
0.000440
 50
0.000000
 71
     0
 42
0.000000
  3
ROMAND
  0
ENDTAB
  0
TABLE
  2
LAYER
 70
     3
  0
LAYER
  2
FOREGROUND
 70
    64
 62
     7
  6
CONTINUOUS
  0
LAYER
  2
BACKGROUND
 70
    65
 62
    -7
  6
CONTINUOUS
  0
LAYER
  2
0
 70
    64
 62
     7
  6
CONTINUOUS
  0
ENDTAB
  0
ENDSEC
  0
SECTION
  2
ENTITIES
  0
POLYLINE
  8
FOREGROUND
  6
CONTINUOUS
 66
     1
 40
0.000000
 41
0.000000
  0
VERTEX
  8
FOREGROUND
  6
CONTINUOUS
 10
0.000000
 20
2.287560
  0
VERTEX
  8
FOREGROUND
  6
CONTINUOUS
 10
8.499920
 20
2.287560
  0
VERTEX
  8
FOREGROUND
  6
CONTINUOUS
 10
8.499920
 20
-8.712440
  0
VERTEX
  8
FOREGROUND
  6
CONTINUOUS
 10
0.000000
 20
-8.712440
  0
VERTEX
  8
FOREGROUND
  6
CONTINUOUS
 10
0.000000
 20
2.287560
  0
SEQEND
  8
0
  0
POLYLINE
  8
FOREGROUND
  6
CONTINUOUS
 66
     1
 40
0.000000
 41
0.000000
  0
VERTEX
  8
FOREGROUND
  6
CONTINUOUS
 10
0.000000
 20
2.287560
  0
VERTEX
  8
FOREGROUND
  6
CONTINUOUS
 10
8.499920
 20
2.287560
  0
VERTEX
  8
FOREGROUND
  6
CONTINUOUS
 10
8.499920
 20
-8.712440
  0
VERTEX
  8
FOREGROUND
  6
CONTINUOUS
 10
0.000000
 20
-8.712440
  0
VERTEX
  8
FOREGROUND
  6
CONTINUOUS
 10
0.000000
 20
2.287560
  0
SEQEND
  8
0
  0
TEXT
  8
0
 10
5.639920
 20
0.601920
 40
0.138213
  1
BA  203
 41
1.000000
  7
SN0
 71
     0
 72
     5
 11
6.229751
 21
0.601920
  0
TEXT
  8
0
 10
5.511880
 20
0.410080
 40
0.138213
  1
9/16" x 5/8"
 41
1.000000
  7
SN0
 71
     0
 72
     5
 11
6.356984
 21
0.410080
  0
SOLID
  8
0
 62
    15
 10
5.547080
 20
0.992200
 11
6.191680
 21
1.368400
 12
5.529920
 22
0.958320
 13
6.174520
 23
1.334080
  0
POLYLINE
  8
0
  6
CONTINUOUS
 66
     1
 40
0.000000
 41
0.000000
  0
VERTEX
  8
0
  6
CONTINUOUS
 10
5.547080
 20
0.992200
  0
VERTEX
  8
0
  6
CONTINUOUS
 10
6.191680
 20
1.368400
  0
VERTEX
  8
0
  6
CONTINUOUS
 10
6.174520
 20
1.334080
  0
VERTEX
  8
0
  6
CONTINUOUS
 10
5.529920
 20
0.958320
  0
VERTEX
  8
0
  6
CONTINUOUS
 10
5.547080
 20
0.992200
  0
SEQEND
  8
0
  0
SOLID
  8
0
 62
    15
 10
5.676000
 20
1.137840
 11
6.320600
 21
1.513600
 12
5.644760
 22
1.112320
 13
6.288920
 23
1.488520
  0
POLYLINE
  8
0
  6
CONTINUOUS
 66
     1
 40
0.000000
 41
0.000000
  0
VERTEX
  8
0
  6
CONTINUOUS
 10
5.676000
 20
1.137840
  0
VERTEX
  8
0
  6
CONTINUOUS
 10
6.320600
 20
1.513600
  0
VERTEX
  8
0
  6
CONTINUOUS
 10
6.288920
 20
1.488520
  0
VERTEX
  8
0
  6
CONTINUOUS
 10
5.644760
 20
1.112320
  0
VERTEX
  8
0
  6
CONTINUOUS
 10
5.676000
 20
1.137840
  0
SEQEND
  8
0
  0
SOLID
  8
0
 62
    15
 10
5.644760
 20
1.112320
 11
6.288920
 21
1.488520
 12
5.616160
 22
1.085040
 13
6.260760
 23
1.461240
  0
POLYLINE
  8
0
  6
CONTINUOUS
 66
     1
 40
0.000000
 41
0.000000
  0
VERTEX
  8
0
  6
CONTINUOUS
 10
5.644760
 20
1.112320
  0
VERTEX
  8
0
  6
CONTINUOUS
 10
6.288920
 20
1.488520
  0
VERTEX
  8
0
  6
CONTINUOUS
 10
6.260760
 20
1.461240
  0
VERTEX
  8
0
  6
CONTINUOUS
 10
5.616160
 20
1.085040
  0
VERTEX
  8
0
  6
CONTINUOUS
 10
5.644760
 20
1.112320
  0
SEQEND
  8
0
  0
SOLID
  8
0
 62
    15
 10
5.616160
 20
1.085040
 11
6.260760
 21
1.461240
 12
5.590200
 22
1.056000
 13
6.234800
 23
1.431760
  0
POLYLINE
  8
0
  6
CONTINUOUS
 66
     1
 40
0.000000
 41
0.000000
  0
VERTEX
  8
0
  6
CONTINUOUS
 10
5.616160
 20
1.085040
  0
VERTEX
  8
0
  6
CONTINUOUS
 10
6.260760
 20
1.461240
  0
VERTEX
  8
0
  6
CONTINUOUS
 10
6.234800
 20
1.431760
  0
VERTEX
  8
0
  6
CONTINUOUS
 10
5.590200
 20
1.056000
  0
VERTEX
  8
0
  6
CONTINUOUS
 10
5.616160
 20
1.085040
  0
SEQEND
  8
0
  0
SOLID
  8
0
 62
    15
 10
5.590200
 20
1.056000
 11
6.234800
 21
1.431760
 12
5.567320
 22
1.024760
 13
6.211920
 23
1.400960
  0
POLYLINE
  8
0
  6
CONTINUOUS
 66
     1
 40
0.000000
 41
0.000000
  0
VERTEX
  8
0
  6
CONTINUOUS
 10
5.590200
 20
1.056000
  0
VERTEX
  8
0
  6
CONTINUOUS
 10
6.234800
 20
1.431760
  0
VERTEX
  8
0
  6
CONTINUOUS
 10
6.211920
 20
1.400960
  0
VERTEX
  8
0
  6
CONTINUOUS
 10
5.567320
 20
1.024760
  0
VERTEX
  8
0
  6
CONTINUOUS
 10
5.590200
 20
1.056000
  0
SEQEND
  8
0
  0
SOLID
  8
0
 62
    15
 10
5.567320
 20
1.024760
 11
6.211920
 21
1.400960
 12
5.547080
 22
0.992200
 13
6.191680
 23
1.368400
  0
POLYLINE
  8
0
  6
CONTINUOUS
 66
     1
 40
0.000000
 41
0.000000
  0
VERTEX
  8
0
  6
CONTINUOUS
 10
5.567320
 20
1.024760
  0
VERTEX
  8
0
  6
CONTINUOUS
 10
6.211920
 20
1.400960
  0
VERTEX
  8
0
  6
CONTINUOUS
 10
6.191680
 20
1.368400
  0
VERTEX
  8
0
  6
CONTINUOUS
 10
5.547080
 20
0.992200
  0
VERTEX
  8
0
  6
CONTINUOUS
 10
5.567320
 20
1.024760
  0
SEQEND
  8
0
  0
SOLID
  8
0
 62
    15
 10
5.710320
 20
1.160720
 11
6.354920
 21
1.536920
 12
5.676000
 22
1.137840
 13
6.320600
 23
1.513600
  0
POLYLINE
  8
0
  6
CONTINUOUS
 66
     1
 40
0.000000
 41
0.000000
  0
VERTEX
  8
0
  6
CONTINUOUS
 10
5.710320
 20
1.160720
  0
VERTEX
  8
0
  6
CONTINUOUS
 10
6.354920
 20
1.536920
  0
VERTEX
  8
0
  6
CONTINUOUS
 10
6.320600
 20
1.513600
  0
VERTEX
  8
0
  6
CONTINUOUS
 10
5.676000
 20
1.137840
  0
VERTEX
  8
0
  6
CONTINUOUS
 10
5.710320
 20
1.160720
  0
SEQEND
  8
0
  0
SOLID
  8
0
 62
    15
 10
5.529920
 20
0.958320
 11
6.174520
 21
1.334080
 12
5.515840
 22
0.922680
 13
6.160440
 23
1.298880
  0
POLYLINE
  8
0
  6
CONTINUOUS
 66
     1
 40
0.000000
 41
0.000000
  0
VERTEX
  8
0
  6
CONTINUOUS
 10
5.529920
 20
0.958320
  0
VERTEX
  8
0
  6
CONTINUOUS
 10
6.174520
 20
1.334080
  0
VERTEX
  8
0
  6
CONTINUOUS
 10
6.160440
 20
1.298880
  0
VERTEX
  8
0
  6
CONTINUOUS
 10
5.515840
 20
0.922680
  0
VERTEX
  8
0
  6
CONTINUOUS
 10
5.529920
 20
0.958320
  0
SEQEND
  8
0
  0
SOLID
  8
0
 62
    15
 10
5.515840
 20
0.922680
 11
6.160440
 21
1.298880
 12
5.504400
 22
0.886160
 13
6.149000
 23
1.262360
  0
POLYLINE
  8
0
  6
CONTINUOUS
 66
     1
 40
0.000000
 41
0.000000
  0
VERTEX
  8
0
  6
CONTINUOUS
 10
5.515840
 20
0.922680
  0
VERTEX
  8
0
  6
CONTINUOUS
 10
6.160440
 20
1.298880
  0
VERTEX
  8
0
  6
CONTINUOUS
 10
6.149000
 20
1.262360
  0
VERTEX
  8
0
  6
CONTINUOUS
 10
5.504400
 20
0.886160
  0
VERTEX
  8
0
  6
CONTINUOUS
 10
5.515840
 20
0.922680
  0
SEQEND
  8
0
  0
SOLID
  8
0
 62
    15
 10
5.504400
 20
0.886160
 11
6.149000
 21
1.262360
 12
5.496040
 22
0.848320
 13
6.140640
 23
1.224520
  0
POLYLINE
  8
0
  6
CONTINUOUS
 66
     1
 40
0.000000
 41
0.000000
  0
VERTEX
  8
0
  6
CONTINUOUS
 10
5.504400
 20
0.886160
  0
VERTEX
  8
0
  6
CONTINUOUS
 10
6.149000
 20
1.262360
  0
VERTEX
  8
0
  6
CONTINUOUS
 10
6.140640
 20
1.224520
  0
VERTEX
  8
0
  6
CONTINUOUS
 10
5.496040
 20
0.848320
  0
VERTEX
  8
0
  6
CONTINUOUS
 10
5.504400
 20
0.886160
  0
SEQEND
  8
0
  0
SOLID
  8
0
 62
    15
 10
5.496040
 20
0.848320
 11
6.140640
 21
1.224520
 12
5.490760
 22
0.810040
 13
6.134920
 23
1.186240
  0
POLYLINE
  8
0
  6
CONTINUOUS
 66
     1
 40
0.000000
 41
0.000000
  0
VERTEX
  8
0
  6
CONTINUOUS
 10
5.496040
 20
0.848320
  0
VERTEX
  8
0
  6
CONTINUOUS
 10
6.140640
 20
1.224520
  0
VERTEX
  8
0
  6
CONTINUOUS
 10
6.134920
 20
1.186240
  0
VERTEX
  8
0
  6
CONTINUOUS
 10
5.490760
 20
0.810040
  0
VERTEX
  8
0
  6
CONTINUOUS
 10
5.496040
 20
0.848320
  0
SEQEND
  8
0
  0
SOLID
  8
0
 62
     7
 10
5.299800
 20
1.413720
 11
5.944400
 21
1.789920
 12
5.925040
 22
1.413720
 13
6.569640
 23
1.789920
  0
POLYLINE
  8
0
  6
CONTINUOUS
 66
     1
 40
0.000000
 41
0.000000
  0
VERTEX
  8
0
  6
CONTINUOUS
 10
5.299800
 20
1.413720
  0
VERTEX
  8
0
  6
CONTINUOUS
 10
5.944400
 20
1.789920
  0
VERTEX
  8
0
  6
CONTINUOUS
 10
6.569640
 20
1.789920
  0
VERTEX
  8
0
  6
CONTINUOUS
 10
5.925040
 20
1.413720
  0
VERTEX
  8
0
  6
CONTINUOUS
 10
5.299800
 20
1.413720
  0
SEQEND
  8
0
  0
SOLID
  8
0
 62
    15
 10
5.925040
 20
1.413720
 11
6.569640
 21
1.789920
 12
5.925040
 22
1.240800
 13
6.569640
 23
1.616560
  0
POLYLINE
  8
0
  6
CONTINUOUS
 66
     1
 40
0.000000
 41
0.000000
  0
VERTEX
  8
0
  6
CONTINUOUS
 10
5.925040
 20
1.413720
  0
VERTEX
  8
0
  6
CONTINUOUS
 10
6.569640
 20
1.789920
  0
VERTEX
  8
0
  6
CONTINUOUS
 10
6.569640
 20
1.616560
  0
VERTEX
  8
0
  6
CONTINUOUS
 10
5.925040
 20
1.240800
  0
VERTEX
  8
0
  6
CONTINUOUS
 10
5.925040
 20
1.413720
  0
SEQEND
  8
0
  0
POLYLINE
  8
0
  6
CONTINUOUS
 66
     1
 40
0.000000
 41
0.000000
  0
VERTEX
  8
0
  6
CONTINUOUS
 10
5.922400
 20
1.239040
  0
VERTEX
  8
0
  6
CONTINUOUS
 10
5.874440
 20
1.228920
  0
VERTEX
  8
0
  6
CONTINUOUS
 10
5.829560
 20
1.216160
  0
VERTEX
  8
0
  6
CONTINUOUS
 10
5.786880
 20
1.200320
  0
VERTEX
  8
0
  6
CONTINUOUS
 10
5.747280
 20
1.181840
  0
VERTEX
  8
0
  6
CONTINUOUS
 10
5.710320
 20
1.160720
  0
VERTEX
  8
0
  6
CONTINUOUS
 10
5.676000
 20
1.137840
  0
VERTEX
  8
0
  6
CONTINUOUS
 10
5.644760
 20
1.112320
  0
VERTEX
  8
0
  6
CONTINUOUS
 10
5.616160
 20
1.085040
  0
VERTEX
  8
0
  6
CONTINUOUS
 10
5.590200
 20
1.056000
  0
VERTEX
  8
0
  6
CONTINUOUS
 10
5.567320
 20
1.024760
  0
VERTEX
  8
0
  6
CONTINUOUS
 10
5.547080
 20
0.992200
  0
VERTEX
  8
0
  6
CONTINUOUS
 10
5.529920
 20
0.958320
  0
VERTEX
  8
0
  6
CONTINUOUS
 10
5.515840
 20
0.922680
  0
VERTEX
  8
0
  6
CONTINUOUS
 10
5.504400
 20
0.886160
  0
VERTEX
  8
0
  6
CONTINUOUS
 10
5.496040
 20
0.848320
  0
VERTEX
  8
0
  6
CONTINUOUS
 10
5.490760
 20
0.810040
  0
VERTEX
  8
0
  6
CONTINUOUS
 10
5.299800
 20
0.810040
  0
VERTEX
  8
0
  6
CONTINUOUS
 10
5.299800
 20
1.413720
  0
VERTEX
  8
0
  6
CONTINUOUS
 10
5.925040
 20
1.413720
  0
VERTEX
  8
0
  6
CONTINUOUS
 10
5.925040
 20
1.240800
  0
VERTEX
  8
0
  6
CONTINUOUS
 10
5.922400
 20
1.239040
  0
SEQEND
  8
0
  0
POLYLINE
  8
0
  6
CONTINUOUS
 66
     1
 40
0.014080
 41
0.014080
  0
VERTEX
  8
0
  6
CONTINUOUS
 10
7.293000
 20
1.913560
  0
VERTEX
  8
0
  6
CONTINUOUS
 10
7.119640
 20
1.913560
  0
VERTEX
  8
0
  6
CONTINUOUS
 10
7.119640
 20
1.913120
  0
VERTEX
  8
0
  6
CONTINUOUS
 10
7.119640
 20
1.287880
  0
VERTEX
  8
0
  6
CONTINUOUS
 10
7.723320
 20
1.287880
  0
VERTEX
  8
0
  6
CONTINUOUS
 10
7.723320
 20
1.478840
  0
VERTEX
  8
0
  6
CONTINUOUS
 10
7.703960
 20
1.481040
  0
VERTEX
  8
0
  6
CONTINUOUS
 10
7.684600
 20
1.484120
  0
VERTEX
  8
0
  6
CONTINUOUS
 10
7.665680
 20
1.488080
  0
VERTEX
  8
0
  6
CONTINUOUS
 10
7.647200
 20
1.492480
  0
VERTEX
  8
0
  6
CONTINUOUS
 10
7.628720
 20
1.498200
  0
VERTEX
  8
0
  6
CONTINUOUS
 10
7.610680
 20
1.503920
  0
VERTEX
  8
0
  6
CONTINUOUS
 10
7.592640
 20
1.510960
  0
VERTEX
  8
0
  6
CONTINUOUS
 10
7.575040
 20
1.518440
  0
VERTEX
  8
0
  6
CONTINUOUS
 10
7.557880
 20
1.526360
  0
VERTEX
  8
0
  6
CONTINUOUS
 10
7.541160
 20
1.535600
  0
VERTEX
  8
0
  6
CONTINUOUS
 10
7.524880
 20
1.545280
  0
VERTEX
  8
0
  6
CONTINUOUS
 10
7.508600
 20
1.555400
  0
VERTEX
  8
0
  6
CONTINUOUS
 10
7.492760
 20
1.566840
  0
VERTEX
  8
0
  6
CONTINUOUS
 10
7.477800
 20
1.578280
  0
VERTEX
  8
0
  6
CONTINUOUS
 10
7.462840
 20
1.591040
  0
VERTEX
  8
0
  6
CONTINUOUS
 10
7.448320
 20
1.604240
  0
VERTEX
  8
0
  6
CONTINUOUS
 10
7.434680
 20
1.618320
  0
VERTEX
  8
0
  6
CONTINUOUS
 10
7.421040
 20
1.632840
  0
VERTEX
  8
0
  6
CONTINUOUS
 10
7.408280
 20
1.648240
  0
VERTEX
  8
0
  6
CONTINUOUS
 10
7.395960
 20
1.664080
  0
VERTEX
  8
0
  6
CONTINUOUS
 10
7.384080
 20
1.680800
  0
VERTEX
  8
0
  6
CONTINUOUS
 10
7.372640
 20
1.698400
  0
VERTEX
  8
0
  6
CONTINUOUS
 10
7.362080
 20
1.716440
  0
VERTEX
  8
0
  6
CONTINUOUS
 10
7.351960
 20
1.735360
  0
VERTEX
  8
0
  6
CONTINUOUS
 10
7.342280
 20
1.754720
  0
VERTEX
  8
0
  6
CONTINUOUS
 10
7.333480
 20
1.774960
  0
VERTEX
  8
0
  6
CONTINUOUS
 10
7.325120
 20
1.796080
  0
VERTEX
  8
0
  6
CONTINUOUS
 10
7.317640
 20
1.817640
  0
VERTEX
  8
0
  6
CONTINUOUS
 10
7.310600
 20
1.839640
  0
VERTEX
  8
0
  6
CONTINUOUS
 10
7.304440
 20
1.862520
  0
VERTEX
  8
0
  6
CONTINUOUS
 10
7.299160
 20
1.886280
  0
VERTEX
  8
0
  6
CONTINUOUS
 10
7.294320
 20
1.910480
  0
VERTEX
  8
0
  6
CONTINUOUS
 10
7.293000
 20
1.913560
  0
SEQEND
  8
0
  0
TEXT
  8
0
 10
7.083120
 20
1.079760
 40
0.138213
  1
BA  203
 41
1.000000
  7
SN0
 71
     0
 72
     5
 11
7.672951
 21
1.079760
  0
TEXT
  8
0
 10
6.954640
 20
0.888360
 40
0.138213
  1
9/16" x 5/8"
 41
1.000000
  7
SN0
 71
     0
 72
     5
 11
7.799744
 21
0.888360
  0
ENDSEC
  0
EOF
