  0
SECTION
  2
HEADER
  9
$ACADVER
  1
AC1006
  9
$EXTMIN
 10
2.013880
 20
0.451000
  9
$EXTMAX
 10
8.003600
 20
5.081120
  9
$LTSCALE
 40
0.044000
  9
$PDMODE
 70
    35
  9
$PDSIZE
 40
0.035200
  0
ENDSEC
  0
SECTION
  2
TABLES
  0
TABLE
  2
LTYPE
 70
     9
  0
LTYPE
  2
CONTINUOUS
 70
    64
  3
Solid line
 72
    65
 73
     0
 40
0.000000
  0
LTYPE
  2
DASHED
 70
    64
  3
__ __ __ __ __ __ __ __ __ __ __ __ __ __ __
 72
    65
 73
     2
 40
0.000330
 49
0.000220
 49
-0.000110
  0
LTYPE
  2
HIDDEN
 70
    64
  3
 _ _ _ _ _ _ _ _ _ _ _ _ _ _ _ _ _ _ _ _ _ _
 72
    65
 73
     2
 40
0.000165
 49
0.000110
 49
-0.000055
  0
LTYPE
  2
CENTER
 70
    64
  3
____ _ ____ _ ____ _ ____ _ ____ _ ____ _ ____
 72
    65
 73
     4
 40
0.000880
 49
0.000550
 49
-0.000110
 49
0.000110
 49
-0.000110
  0
LTYPE
  2
PHANTOM
 70
    64
  3
_____ _ _ _____ _ _ _____ _ _ _____ _ _ ____
 72
    65
 73
     6
 40
0.001100
 49
0.000550
 49
-0.000110
 49
0.000110
 49
-0.000110
 49
0.000110
 49
-0.000110
  0
LTYPE
  2
DOT
 70
    64
  3
...............................................
 72
    65
 73
     2
 40
0.000110
 49
0.000000
 49
-0.000110
  0
LTYPE
  2
DASHDOT
 70
    64
  3
__ . __ . __ . __ . __ . __ . __ . __ . __ . __
 72
    65
 73
     4
 40
0.000440
 49
0.000220
 49
-0.000110
 49
0.000000
 49
-0.000110
  0
LTYPE
  2
BORDER
 70
    64
  3
__ __ . __ __ . __ __ . __ __ . __ __ . __ __
 72
    65
 73
     6
 40
0.000770
 49
0.000220
 49
-0.000110
 49
0.000220
 49
-0.000110
 49
0.000000
 49
-0.000110
  0
LTYPE
  2
DIVIDE
 70
    64
  3
__ . . __ . . __ . . __ . . __ . . __ . . __
 72
    65
 73
     6
 40
0.000550
 49
0.000220
 49
-0.000110
 49
0.000000
 49
-0.000110
 49
0.000000
 49
-0.000110
  0
LTYPE
  2
DOTDOT
 70
    64
  3
 . .  . .  . .  . .  . .  . . 
 72
    65
 73
     5
 40
0.000242
 49
-0.000110
 49
0.000000
 49
-0.000110
 49
0.000000
 49
-0.000110
  0
ENDTAB
  0
TABLE
  2
STYLE
 70
     2
  0
STYLE
 70
     0
  2
SN0
 40
0.000000
 41
0.000440
 50
0.000000
 71
     0
 42
0.000000
  3
ROMAND
  0
STYLE
 70
    68
  2
SV0
 40
0.000000
 41
0.000440
 50
0.000000
 71
     0
 42
0.000000
  3
ROMAND
  0
ENDTAB
  0
TABLE
  2
LAYER
 70
     3
  0
LAYER
  2
FOREGROUND
 70
    64
 62
     7
  6
CONTINUOUS
  0
LAYER
  2
BACKGROUND
 70
    65
 62
    -7
  6
CONTINUOUS
  0
LAYER
  2
0
 70
    64
 62
     7
  6
CONTINUOUS
  0
ENDTAB
  0
ENDSEC
  0
SECTION
  2
ENTITIES
  0
POLYLINE
  8
FOREGROUND
  6
CONTINUOUS
 66
     1
 40
0.000000
 41
0.000000
  0
VERTEX
  8
FOREGROUND
  6
CONTINUOUS
 10
0.000000
 20
5.532120
  0
VERTEX
  8
FOREGROUND
  6
CONTINUOUS
 10
8.499920
 20
5.532120
  0
VERTEX
  8
FOREGROUND
  6
CONTINUOUS
 10
8.499920
 20
-5.467880
  0
VERTEX
  8
FOREGROUND
  6
CONTINUOUS
 10
0.000000
 20
-5.467880
  0
VERTEX
  8
FOREGROUND
  6
CONTINUOUS
 10
0.000000
 20
5.532120
  0
SEQEND
  8
0
  0
POLYLINE
  8
FOREGROUND
  6
CONTINUOUS
 66
     1
 40
0.000000
 41
0.000000
  0
VERTEX
  8
FOREGROUND
  6
CONTINUOUS
 10
0.000000
 20
5.532120
  0
VERTEX
  8
FOREGROUND
  6
CONTINUOUS
 10
8.499920
 20
5.532120
  0
VERTEX
  8
FOREGROUND
  6
CONTINUOUS
 10
8.499920
 20
-5.467880
  0
VERTEX
  8
FOREGROUND
  6
CONTINUOUS
 10
0.000000
 20
-5.467880
  0
VERTEX
  8
FOREGROUND
  6
CONTINUOUS
 10
0.000000
 20
5.532120
  0
SEQEND
  8
0
  0
POLYLINE
  8
0
  6
CONTINUOUS
 66
     1
 40
0.014080
 41
0.014080
  0
VERTEX
  8
0
  6
CONTINUOUS
 10
4.426840
 20
5.016880
  0
VERTEX
  8
0
  6
CONTINUOUS
 10
4.429615
 20
4.961729
  0
VERTEX
  8
0
  6
CONTINUOUS
 10
4.437257
 20
4.918541
  0
VERTEX
  8
0
  6
CONTINUOUS
 10
4.448743
 20
4.885319
  0
VERTEX
  8
0
  6
CONTINUOUS
 10
4.463050
 20
4.860063
  0
VERTEX
  8
0
  6
CONTINUOUS
 10
4.479154
 20
4.840773
  0
VERTEX
  8
0
  6
CONTINUOUS
 10
4.496031
 20
4.825449
  0
VERTEX
  8
0
  6
CONTINUOUS
 10
4.512659
 20
4.812094
  0
VERTEX
  8
0
  6
CONTINUOUS
 10
4.528013
 20
4.798706
  0
VERTEX
  8
0
  6
CONTINUOUS
 10
4.541070
 20
4.783288
  0
VERTEX
  8
0
  6
CONTINUOUS
 10
4.550807
 20
4.763839
  0
VERTEX
  8
0
  6
CONTINUOUS
 10
4.556200
 20
4.738360
  0
SEQEND
  8
0
  0
POLYLINE
  8
0
  6
CONTINUOUS
 66
     1
 40
0.014080
 41
0.014080
  0
VERTEX
  8
0
  6
CONTINUOUS
 10
4.556200
 20
4.738360
  0
VERTEX
  8
0
  6
CONTINUOUS
 10
4.558477
 20
4.702639
  0
VERTEX
  8
0
  6
CONTINUOUS
 10
4.560515
 20
4.664656
  0
VERTEX
  8
0
  6
CONTINUOUS
 10
4.565309
 20
4.625217
  0
VERTEX
  8
0
  6
CONTINUOUS
 10
4.575852
 20
4.585132
  0
VERTEX
  8
0
  6
CONTINUOUS
 10
4.595139
 20
4.545209
  0
VERTEX
  8
0
  6
CONTINUOUS
 10
4.626164
 20
4.506256
  0
VERTEX
  8
0
  6
CONTINUOUS
 10
4.671920
 20
4.469080
  0
SEQEND
  8
0
  0
POLYLINE
  8
0
  6
CONTINUOUS
 66
     1
 40
0.014080
 41
0.014080
  0
VERTEX
  8
0
  6
CONTINUOUS
 10
4.675000
 20
4.469080
  0
VERTEX
  8
0
  6
CONTINUOUS
 10
4.675000
 20
4.033040
  0
SEQEND
  8
0
  0
POLYLINE
  8
0
  6
CONTINUOUS
 66
     1
 40
0.014080
 41
0.014080
  0
VERTEX
  8
0
  6
CONTINUOUS
 10
4.675000
 20
4.033040
  0
VERTEX
  8
0
  6
CONTINUOUS
 10
4.430800
 20
4.033040
  0
SEQEND
  8
0
  0
POLYLINE
  8
0
  6
CONTINUOUS
 66
     1
 40
0.014080
 41
0.014080
  0
VERTEX
  8
0
  6
CONTINUOUS
 10
4.430800
 20
4.033040
  0
VERTEX
  8
0
  6
CONTINUOUS
 10
4.430800
 20
3.270520
  0
SEQEND
  8
0
  0
POLYLINE
  8
0
  6
CONTINUOUS
 66
     1
 40
0.014080
 41
0.014080
  0
VERTEX
  8
0
  6
CONTINUOUS
 10
5.943960
 20
3.270520
  0
VERTEX
  8
0
  6
CONTINUOUS
 10
5.943960
 20
5.015560
  0
SEQEND
  8
0
  0
POLYLINE
  8
0
  6
CONTINUOUS
 66
     1
 40
0.014080
 41
0.014080
  0
VERTEX
  8
0
  6
CONTINUOUS
 10
5.943960
 20
5.018200
  0
VERTEX
  8
0
  6
CONTINUOUS
 10
2.900040
 20
5.018200
  0
SEQEND
  8
0
  0
POLYLINE
  8
0
  6
CONTINUOUS
 66
     1
 40
0.014080
 41
0.014080
  0
VERTEX
  8
0
  6
CONTINUOUS
 10
2.900040
 20
5.018200
  0
VERTEX
  8
0
  6
CONTINUOUS
 10
2.900040
 20
4.995760
  0
SEQEND
  8
0
  0
POLYLINE
  8
0
  6
CONTINUOUS
 66
     1
 40
0.014080
 41
0.014080
  0
VERTEX
  8
0
  6
CONTINUOUS
 10
2.900040
 20
4.990480
  0
VERTEX
  8
0
  6
CONTINUOUS
 10
2.900040
 20
3.271840
  0
SEQEND
  8
0
  0
POLYLINE
  8
0
  6
CONTINUOUS
 66
     1
 40
0.014080
 41
0.014080
  0
VERTEX
  8
0
  6
CONTINUOUS
 10
2.900040
 20
3.271840
  0
VERTEX
  8
0
  6
CONTINUOUS
 10
5.943960
 20
3.271840
  0
SEQEND
  8
0
  0
SOLID
  8
0
 62
    15
 10
3.671360
 20
2.218920
 11
4.312880
 21
2.593360
 12
3.673560
 22
2.188120
 13
4.315080
 23
2.562120
  0
POLYLINE
  8
0
  6
CONTINUOUS
 66
     1
 40
0.000000
 41
0.000000
  0
VERTEX
  8
0
  6
CONTINUOUS
 10
3.671360
 20
2.218920
  0
VERTEX
  8
0
  6
CONTINUOUS
 10
4.312880
 20
2.593360
  0
VERTEX
  8
0
  6
CONTINUOUS
 10
4.315080
 20
2.562120
  0
VERTEX
  8
0
  6
CONTINUOUS
 10
3.673560
 20
2.188120
  0
VERTEX
  8
0
  6
CONTINUOUS
 10
3.671360
 20
2.218920
  0
SEQEND
  8
0
  0
SOLID
  8
0
 62
     7
 10
3.539800
 20
2.500960
 11
4.181320
 21
2.874960
 12
3.542000
 22
2.497880
 13
4.183520
 23
2.871880
  0
POLYLINE
  8
0
  6
CONTINUOUS
 66
     1
 40
0.000000
 41
0.000000
  0
VERTEX
  8
0
  6
CONTINUOUS
 10
3.539800
 20
2.500960
  0
VERTEX
  8
0
  6
CONTINUOUS
 10
4.181320
 20
2.874960
  0
VERTEX
  8
0
  6
CONTINUOUS
 10
4.183520
 20
2.871880
  0
VERTEX
  8
0
  6
CONTINUOUS
 10
3.542000
 20
2.497880
  0
VERTEX
  8
0
  6
CONTINUOUS
 10
3.539800
 20
2.500960
  0
SEQEND
  8
0
  0
SOLID
  8
0
 62
    15
 10
3.542000
 20
2.497880
 11
4.183520
 21
2.871880
 12
3.547280
 22
2.424840
 13
4.188800
 23
2.799280
  0
POLYLINE
  8
0
  6
CONTINUOUS
 66
     1
 40
0.000000
 41
0.000000
  0
VERTEX
  8
0
  6
CONTINUOUS
 10
3.542000
 20
2.497880
  0
VERTEX
  8
0
  6
CONTINUOUS
 10
4.183520
 20
2.871880
  0
VERTEX
  8
0
  6
CONTINUOUS
 10
4.188800
 20
2.799280
  0
VERTEX
  8
0
  6
CONTINUOUS
 10
3.547280
 20
2.424840
  0
VERTEX
  8
0
  6
CONTINUOUS
 10
3.542000
 20
2.497880
  0
SEQEND
  8
0
  0
SOLID
  8
0
 62
    15
 10
3.547280
 20
2.424840
 11
4.188800
 21
2.799280
 12
3.560920
 22
2.373360
 13
4.202000
 23
2.747800
  0
POLYLINE
  8
0
  6
CONTINUOUS
 66
     1
 40
0.000000
 41
0.000000
  0
VERTEX
  8
0
  6
CONTINUOUS
 10
3.547280
 20
2.424840
  0
VERTEX
  8
0
  6
CONTINUOUS
 10
4.188800
 20
2.799280
  0
VERTEX
  8
0
  6
CONTINUOUS
 10
4.202000
 20
2.747800
  0
VERTEX
  8
0
  6
CONTINUOUS
 10
3.560920
 20
2.373360
  0
VERTEX
  8
0
  6
CONTINUOUS
 10
3.547280
 20
2.424840
  0
SEQEND
  8
0
  0
SOLID
  8
0
 62
     7
 10
3.560920
 20
2.373360
 11
4.202000
 21
2.747800
 12
3.580280
 22
2.338160
 13
4.221360
 23
2.712160
  0
POLYLINE
  8
0
  6
CONTINUOUS
 66
     1
 40
0.000000
 41
0.000000
  0
VERTEX
  8
0
  6
CONTINUOUS
 10
3.560920
 20
2.373360
  0
VERTEX
  8
0
  6
CONTINUOUS
 10
4.202000
 20
2.747800
  0
VERTEX
  8
0
  6
CONTINUOUS
 10
4.221360
 20
2.712160
  0
VERTEX
  8
0
  6
CONTINUOUS
 10
3.580280
 20
2.338160
  0
VERTEX
  8
0
  6
CONTINUOUS
 10
3.560920
 20
2.373360
  0
SEQEND
  8
0
  0
SOLID
  8
0
 62
     7
 10
3.580280
 20
2.338160
 11
4.221360
 21
2.712160
 12
3.602720
 22
2.313520
 13
4.244240
 23
2.687520
  0
POLYLINE
  8
0
  6
CONTINUOUS
 66
     1
 40
0.000000
 41
0.000000
  0
VERTEX
  8
0
  6
CONTINUOUS
 10
3.580280
 20
2.338160
  0
VERTEX
  8
0
  6
CONTINUOUS
 10
4.221360
 20
2.712160
  0
VERTEX
  8
0
  6
CONTINUOUS
 10
4.244240
 20
2.687520
  0
VERTEX
  8
0
  6
CONTINUOUS
 10
3.602720
 20
2.313520
  0
VERTEX
  8
0
  6
CONTINUOUS
 10
3.580280
 20
2.338160
  0
SEQEND
  8
0
  0
SOLID
  8
0
 62
     7
 10
3.602720
 20
2.313520
 11
4.244240
 21
2.687520
 12
3.614600
 22
2.303400
 13
4.255680
 23
2.677840
  0
POLYLINE
  8
0
  6
CONTINUOUS
 66
     1
 40
0.000000
 41
0.000000
  0
VERTEX
  8
0
  6
CONTINUOUS
 10
3.602720
 20
2.313520
  0
VERTEX
  8
0
  6
CONTINUOUS
 10
4.244240
 20
2.687520
  0
VERTEX
  8
0
  6
CONTINUOUS
 10
4.255680
 20
2.677840
  0
VERTEX
  8
0
  6
CONTINUOUS
 10
3.614600
 20
2.303400
  0
VERTEX
  8
0
  6
CONTINUOUS
 10
3.602720
 20
2.313520
  0
SEQEND
  8
0
  0
SOLID
  8
0
 62
     7
 10
3.614600
 20
2.303400
 11
4.255680
 21
2.677840
 12
3.626040
 22
2.294160
 13
4.267120
 23
2.668600
  0
POLYLINE
  8
0
  6
CONTINUOUS
 66
     1
 40
0.000000
 41
0.000000
  0
VERTEX
  8
0
  6
CONTINUOUS
 10
3.614600
 20
2.303400
  0
VERTEX
  8
0
  6
CONTINUOUS
 10
4.255680
 20
2.677840
  0
VERTEX
  8
0
  6
CONTINUOUS
 10
4.267120
 20
2.668600
  0
VERTEX
  8
0
  6
CONTINUOUS
 10
3.626040
 20
2.294160
  0
VERTEX
  8
0
  6
CONTINUOUS
 10
3.614600
 20
2.303400
  0
SEQEND
  8
0
  0
SOLID
  8
0
 62
     7
 10
3.626040
 20
2.294160
 11
4.267120
 21
2.668600
 12
3.646720
 22
2.275680
 13
4.288240
 23
2.650120
  0
POLYLINE
  8
0
  6
CONTINUOUS
 66
     1
 40
0.000000
 41
0.000000
  0
VERTEX
  8
0
  6
CONTINUOUS
 10
3.626040
 20
2.294160
  0
VERTEX
  8
0
  6
CONTINUOUS
 10
4.267120
 20
2.668600
  0
VERTEX
  8
0
  6
CONTINUOUS
 10
4.288240
 20
2.650120
  0
VERTEX
  8
0
  6
CONTINUOUS
 10
3.646720
 20
2.275680
  0
VERTEX
  8
0
  6
CONTINUOUS
 10
3.626040
 20
2.294160
  0
SEQEND
  8
0
  0
SOLID
  8
0
 62
     7
 10
3.646720
 20
2.275680
 11
4.288240
 21
2.650120
 12
3.663000
 22
2.252360
 13
4.304080
 23
2.626360
  0
POLYLINE
  8
0
  6
CONTINUOUS
 66
     1
 40
0.000000
 41
0.000000
  0
VERTEX
  8
0
  6
CONTINUOUS
 10
3.646720
 20
2.275680
  0
VERTEX
  8
0
  6
CONTINUOUS
 10
4.288240
 20
2.650120
  0
VERTEX
  8
0
  6
CONTINUOUS
 10
4.304080
 20
2.626360
  0
VERTEX
  8
0
  6
CONTINUOUS
 10
3.663000
 20
2.252360
  0
VERTEX
  8
0
  6
CONTINUOUS
 10
3.646720
 20
2.275680
  0
SEQEND
  8
0
  0
SOLID
  8
0
 62
    15
 10
3.663000
 20
2.252360
 11
4.304080
 21
2.626360
 12
3.671360
 22
2.218920
 13
4.312880
 23
2.593360
  0
POLYLINE
  8
0
  6
CONTINUOUS
 66
     1
 40
0.000000
 41
0.000000
  0
VERTEX
  8
0
  6
CONTINUOUS
 10
3.663000
 20
2.252360
  0
VERTEX
  8
0
  6
CONTINUOUS
 10
4.304080
 20
2.626360
  0
VERTEX
  8
0
  6
CONTINUOUS
 10
4.312880
 20
2.593360
  0
VERTEX
  8
0
  6
CONTINUOUS
 10
3.671360
 20
2.218920
  0
VERTEX
  8
0
  6
CONTINUOUS
 10
3.663000
 20
2.252360
  0
SEQEND
  8
0
  0
SOLID
  8
0
 62
    15
 10
2.017840
 20
2.500960
 11
2.658920
 21
2.874960
 12
3.539800
 22
2.500960
 13
4.181320
 23
2.874960
  0
POLYLINE
  8
0
  6
CONTINUOUS
 66
     1
 40
0.000000
 41
0.000000
  0
VERTEX
  8
0
  6
CONTINUOUS
 10
2.017840
 20
2.500960
  0
VERTEX
  8
0
  6
CONTINUOUS
 10
2.658920
 20
2.874960
  0
VERTEX
  8
0
  6
CONTINUOUS
 10
4.181320
 20
2.874960
  0
VERTEX
  8
0
  6
CONTINUOUS
 10
3.539800
 20
2.500960
  0
VERTEX
  8
0
  6
CONTINUOUS
 10
2.017840
 20
2.500960
  0
SEQEND
  8
0
  0
SOLID
  8
0
 62
    15
 10
3.673560
 20
2.188120
 11
4.315080
 21
2.562120
 12
3.674440
 22
2.171840
 13
4.315520
 23
2.545840
  0
POLYLINE
  8
0
  6
CONTINUOUS
 66
     1
 40
0.000000
 41
0.000000
  0
VERTEX
  8
0
  6
CONTINUOUS
 10
3.673560
 20
2.188120
  0
VERTEX
  8
0
  6
CONTINUOUS
 10
4.315080
 20
2.562120
  0
VERTEX
  8
0
  6
CONTINUOUS
 10
4.315520
 20
2.545840
  0
VERTEX
  8
0
  6
CONTINUOUS
 10
3.674440
 20
2.171840
  0
VERTEX
  8
0
  6
CONTINUOUS
 10
3.673560
 20
2.188120
  0
SEQEND
  8
0
  0
SOLID
  8
0
 62
    15
 10
3.674440
 20
2.171840
 11
4.315520
 21
2.545840
 12
3.675320
 22
2.155120
 13
4.316400
 23
2.529120
  0
POLYLINE
  8
0
  6
CONTINUOUS
 66
     1
 40
0.000000
 41
0.000000
  0
VERTEX
  8
0
  6
CONTINUOUS
 10
3.674440
 20
2.171840
  0
VERTEX
  8
0
  6
CONTINUOUS
 10
4.315520
 20
2.545840
  0
VERTEX
  8
0
  6
CONTINUOUS
 10
4.316400
 20
2.529120
  0
VERTEX
  8
0
  6
CONTINUOUS
 10
3.675320
 20
2.155120
  0
VERTEX
  8
0
  6
CONTINUOUS
 10
3.674440
 20
2.171840
  0
SEQEND
  8
0
  0
SOLID
  8
0
 62
    15
 10
3.675320
 20
2.155120
 11
4.316400
 21
2.529120
 12
3.685000
 22
2.086040
 13
4.326080
 23
2.460040
  0
POLYLINE
  8
0
  6
CONTINUOUS
 66
     1
 40
0.000000
 41
0.000000
  0
VERTEX
  8
0
  6
CONTINUOUS
 10
3.675320
 20
2.155120
  0
VERTEX
  8
0
  6
CONTINUOUS
 10
4.316400
 20
2.529120
  0
VERTEX
  8
0
  6
CONTINUOUS
 10
4.326080
 20
2.460040
  0
VERTEX
  8
0
  6
CONTINUOUS
 10
3.685000
 20
2.086040
  0
VERTEX
  8
0
  6
CONTINUOUS
 10
3.675320
 20
2.155120
  0
SEQEND
  8
0
  0
SOLID
  8
0
 62
    15
 10
3.685000
 20
2.086040
 11
4.326080
 21
2.460040
 12
3.717120
 22
2.016080
 13
4.358200
 23
2.390080
  0
POLYLINE
  8
0
  6
CONTINUOUS
 66
     1
 40
0.000000
 41
0.000000
  0
VERTEX
  8
0
  6
CONTINUOUS
 10
3.685000
 20
2.086040
  0
VERTEX
  8
0
  6
CONTINUOUS
 10
4.326080
 20
2.460040
  0
VERTEX
  8
0
  6
CONTINUOUS
 10
4.358200
 20
2.390080
  0
VERTEX
  8
0
  6
CONTINUOUS
 10
3.717120
 20
2.016080
  0
VERTEX
  8
0
  6
CONTINUOUS
 10
3.685000
 20
2.086040
  0
SEQEND
  8
0
  0
SOLID
  8
0
 62
     7
 10
3.717120
 20
2.016080
 11
4.358200
 21
2.390080
 12
3.746600
 22
1.982200
 13
4.387680
 23
2.356200
  0
POLYLINE
  8
0
  6
CONTINUOUS
 66
     1
 40
0.000000
 41
0.000000
  0
VERTEX
  8
0
  6
CONTINUOUS
 10
3.717120
 20
2.016080
  0
VERTEX
  8
0
  6
CONTINUOUS
 10
4.358200
 20
2.390080
  0
VERTEX
  8
0
  6
CONTINUOUS
 10
4.387680
 20
2.356200
  0
VERTEX
  8
0
  6
CONTINUOUS
 10
3.746600
 20
1.982200
  0
VERTEX
  8
0
  6
CONTINUOUS
 10
3.717120
 20
2.016080
  0
SEQEND
  8
0
  0
SOLID
  8
0
 62
     7
 10
3.746600
 20
1.982200
 11
4.387680
 21
2.356200
 12
3.787520
 22
1.949640
 13
4.428600
 23
2.324080
  0
POLYLINE
  8
0
  6
CONTINUOUS
 66
     1
 40
0.000000
 41
0.000000
  0
VERTEX
  8
0
  6
CONTINUOUS
 10
3.746600
 20
1.982200
  0
VERTEX
  8
0
  6
CONTINUOUS
 10
4.387680
 20
2.356200
  0
VERTEX
  8
0
  6
CONTINUOUS
 10
4.428600
 20
2.324080
  0
VERTEX
  8
0
  6
CONTINUOUS
 10
3.787520
 20
1.949640
  0
VERTEX
  8
0
  6
CONTINUOUS
 10
3.746600
 20
1.982200
  0
SEQEND
  8
0
  0
SOLID
  8
0
 62
    15
 10
3.787520
 20
1.949640
 11
4.428600
 21
2.324080
 12
3.790160
 22
1.949640
 13
4.431240
 23
2.323640
  0
POLYLINE
  8
0
  6
CONTINUOUS
 66
     1
 40
0.000000
 41
0.000000
  0
VERTEX
  8
0
  6
CONTINUOUS
 10
3.787520
 20
1.949640
  0
VERTEX
  8
0
  6
CONTINUOUS
 10
4.428600
 20
2.324080
  0
VERTEX
  8
0
  6
CONTINUOUS
 10
4.431240
 20
2.323640
  0
VERTEX
  8
0
  6
CONTINUOUS
 10
3.790160
 20
1.949640
  0
VERTEX
  8
0
  6
CONTINUOUS
 10
3.787520
 20
1.949640
  0
SEQEND
  8
0
  0
SOLID
  8
0
 62
    15
 10
3.545960
 20
1.513600
 11
4.187480
 21
1.888040
 12
3.545960
 22
0.751080
 13
4.187480
 23
1.125080
  0
POLYLINE
  8
0
  6
CONTINUOUS
 66
     1
 40
0.000000
 41
0.000000
  0
VERTEX
  8
0
  6
CONTINUOUS
 10
3.545960
 20
1.513600
  0
VERTEX
  8
0
  6
CONTINUOUS
 10
4.187480
 20
1.888040
  0
VERTEX
  8
0
  6
CONTINUOUS
 10
4.187480
 20
1.125080
  0
VERTEX
  8
0
  6
CONTINUOUS
 10
3.545960
 20
0.751080
  0
VERTEX
  8
0
  6
CONTINUOUS
 10
3.545960
 20
1.513600
  0
SEQEND
  8
0
  0
SOLID
  8
0
 62
    15
 10
3.790160
 20
1.949640
 11
4.431240
 21
2.323640
 12
3.790160
 22
1.513600
 13
4.431240
 23
1.888040
  0
POLYLINE
  8
0
  6
CONTINUOUS
 66
     1
 40
0.000000
 41
0.000000
  0
VERTEX
  8
0
  6
CONTINUOUS
 10
3.790160
 20
1.949640
  0
VERTEX
  8
0
  6
CONTINUOUS
 10
4.431240
 20
2.323640
  0
VERTEX
  8
0
  6
CONTINUOUS
 10
4.431240
 20
1.888040
  0
VERTEX
  8
0
  6
CONTINUOUS
 10
3.790160
 20
1.513600
  0
VERTEX
  8
0
  6
CONTINUOUS
 10
3.790160
 20
1.949640
  0
SEQEND
  8
0
  0
SOLID
  8
0
 62
     7
 10
2.014760
 20
0.752840
 11
2.655840
 21
1.126840
 12
2.015640
 22
0.752400
 13
2.656720
 23
1.126400
  0
POLYLINE
  8
0
  6
CONTINUOUS
 66
     1
 40
0.000000
 41
0.000000
  0
VERTEX
  8
0
  6
CONTINUOUS
 10
2.014760
 20
0.752840
  0
VERTEX
  8
0
  6
CONTINUOUS
 10
2.655840
 20
1.126840
  0
VERTEX
  8
0
  6
CONTINUOUS
 10
2.656720
 20
1.126400
  0
VERTEX
  8
0
  6
CONTINUOUS
 10
2.015640
 20
0.752400
  0
VERTEX
  8
0
  6
CONTINUOUS
 10
2.014760
 20
0.752840
  0
SEQEND
  8
0
  0
POLYLINE
  8
0
  6
CONTINUOUS
 66
     1
 40
0.000000
 41
0.000000
  0
VERTEX
  8
0
  6
CONTINUOUS
 10
2.015640
 20
2.476320
  0
VERTEX
  8
0
  6
CONTINUOUS
 10
2.015640
 20
2.499200
  0
VERTEX
  8
0
  6
CONTINUOUS
 10
2.017840
 20
2.500960
  0
VERTEX
  8
0
  6
CONTINUOUS
 10
3.539800
 20
2.500960
  0
VERTEX
  8
0
  6
CONTINUOUS
 10
3.542000
 20
2.497880
  0
VERTEX
  8
0
  6
CONTINUOUS
 10
3.547280
 20
2.424840
  0
VERTEX
  8
0
  6
CONTINUOUS
 10
3.560920
 20
2.373360
  0
VERTEX
  8
0
  6
CONTINUOUS
 10
3.580280
 20
2.338160
  0
VERTEX
  8
0
  6
CONTINUOUS
 10
3.602720
 20
2.313520
  0
VERTEX
  8
0
  6
CONTINUOUS
 10
3.614600
 20
2.303400
  0
VERTEX
  8
0
  6
CONTINUOUS
 10
3.626040
 20
2.294160
  0
VERTEX
  8
0
  6
CONTINUOUS
 10
3.646720
 20
2.275680
  0
VERTEX
  8
0
  6
CONTINUOUS
 10
3.663000
 20
2.252360
  0
VERTEX
  8
0
  6
CONTINUOUS
 10
3.671360
 20
2.218920
  0
VERTEX
  8
0
  6
CONTINUOUS
 10
3.673560
 20
2.188120
  0
VERTEX
  8
0
  6
CONTINUOUS
 10
3.674440
 20
2.171840
  0
VERTEX
  8
0
  6
CONTINUOUS
 10
3.675320
 20
2.155120
  0
VERTEX
  8
0
  6
CONTINUOUS
 10
3.685000
 20
2.086040
  0
VERTEX
  8
0
  6
CONTINUOUS
 10
3.717120
 20
2.016080
  0
VERTEX
  8
0
  6
CONTINUOUS
 10
3.746600
 20
1.982200
  0
VERTEX
  8
0
  6
CONTINUOUS
 10
3.787520
 20
1.949640
  0
VERTEX
  8
0
  6
CONTINUOUS
 10
3.790160
 20
1.949640
  0
VERTEX
  8
0
  6
CONTINUOUS
 10
3.790160
 20
1.513600
  0
VERTEX
  8
0
  6
CONTINUOUS
 10
3.545960
 20
1.513600
  0
VERTEX
  8
0
  6
CONTINUOUS
 10
3.545960
 20
0.751080
  0
VERTEX
  8
0
  6
CONTINUOUS
 10
3.544200
 20
0.752840
  0
VERTEX
  8
0
  6
CONTINUOUS
 10
2.014760
 20
0.752840
  0
VERTEX
  8
0
  6
CONTINUOUS
 10
2.015640
 20
0.752400
  0
VERTEX
  8
0
  6
CONTINUOUS
 10
2.015640
 20
2.471040
  0
VERTEX
  8
0
  6
CONTINUOUS
 10
2.015640
 20
2.476320
  0
SEQEND
  8
0
  0
SOLID
  8
0
 62
     7
 10
5.984440
 20
2.509320
 11
6.647080
 21
2.887280
 12
5.987080
 22
2.505800
 13
6.649720
 23
2.883760
  0
POLYLINE
  8
0
  6
CONTINUOUS
 66
     1
 40
0.000000
 41
0.000000
  0
VERTEX
  8
0
  6
CONTINUOUS
 10
5.984440
 20
2.509320
  0
VERTEX
  8
0
  6
CONTINUOUS
 10
6.647080
 20
2.887280
  0
VERTEX
  8
0
  6
CONTINUOUS
 10
6.649720
 20
2.883760
  0
VERTEX
  8
0
  6
CONTINUOUS
 10
5.987080
 20
2.505800
  0
VERTEX
  8
0
  6
CONTINUOUS
 10
5.984440
 20
2.509320
  0
SEQEND
  8
0
  0
SOLID
  8
0
 62
    15
 10
5.987080
 20
2.505800
 11
6.649720
 21
2.883760
 12
5.987080
 22
0.760320
 13
6.649720
 23
1.138280
  0
POLYLINE
  8
0
  6
CONTINUOUS
 66
     1
 40
0.000000
 41
0.000000
  0
VERTEX
  8
0
  6
CONTINUOUS
 10
5.987080
 20
2.505800
  0
VERTEX
  8
0
  6
CONTINUOUS
 10
6.649720
 20
2.883760
  0
VERTEX
  8
0
  6
CONTINUOUS
 10
6.649720
 20
1.138280
  0
VERTEX
  8
0
  6
CONTINUOUS
 10
5.987080
 20
0.760320
  0
VERTEX
  8
0
  6
CONTINUOUS
 10
5.987080
 20
2.505800
  0
SEQEND
  8
0
  0
SOLID
  8
0
 62
    15
 10
5.987080
 20
0.760320
 11
6.649720
 21
1.138280
 12
5.984440
 22
0.757240
 13
6.647080
 23
1.135200
  0
POLYLINE
  8
0
  6
CONTINUOUS
 66
     1
 40
0.000000
 41
0.000000
  0
VERTEX
  8
0
  6
CONTINUOUS
 10
5.987080
 20
0.760320
  0
VERTEX
  8
0
  6
CONTINUOUS
 10
6.649720
 20
1.138280
  0
VERTEX
  8
0
  6
CONTINUOUS
 10
6.647080
 20
1.135200
  0
VERTEX
  8
0
  6
CONTINUOUS
 10
5.984440
 20
0.757240
  0
VERTEX
  8
0
  6
CONTINUOUS
 10
5.987080
 20
0.760320
  0
SEQEND
  8
0
  0
SOLID
  8
0
 62
    15
 10
4.473480
 20
1.522840
 11
5.136120
 21
1.901240
 12
4.717680
 22
1.522840
 13
5.380320
 23
1.901240
  0
POLYLINE
  8
0
  6
CONTINUOUS
 66
     1
 40
0.000000
 41
0.000000
  0
VERTEX
  8
0
  6
CONTINUOUS
 10
4.473480
 20
1.522840
  0
VERTEX
  8
0
  6
CONTINUOUS
 10
5.136120
 20
1.901240
  0
VERTEX
  8
0
  6
CONTINUOUS
 10
5.380320
 20
1.901240
  0
VERTEX
  8
0
  6
CONTINUOUS
 10
4.717680
 20
1.522840
  0
VERTEX
  8
0
  6
CONTINUOUS
 10
4.473480
 20
1.522840
  0
SEQEND
  8
0
  0
SOLID
  8
0
 62
    15
 10
4.469520
 20
2.507120
 11
5.132160
 21
2.885080
 12
4.479640
 22
2.509320
 13
5.142280
 23
2.887280
  0
POLYLINE
  8
0
  6
CONTINUOUS
 66
     1
 40
0.000000
 41
0.000000
  0
VERTEX
  8
0
  6
CONTINUOUS
 10
4.469520
 20
2.507120
  0
VERTEX
  8
0
  6
CONTINUOUS
 10
5.132160
 20
2.885080
  0
VERTEX
  8
0
  6
CONTINUOUS
 10
5.142280
 20
2.887280
  0
VERTEX
  8
0
  6
CONTINUOUS
 10
4.479640
 20
2.509320
  0
VERTEX
  8
0
  6
CONTINUOUS
 10
4.469520
 20
2.507120
  0
SEQEND
  8
0
  0
SOLID
  8
0
 62
    15
 10
4.479640
 20
2.509320
 11
5.142280
 21
2.887280
 12
5.984440
 22
2.509320
 13
6.647080
 23
2.887280
  0
POLYLINE
  8
0
  6
CONTINUOUS
 66
     1
 40
0.000000
 41
0.000000
  0
VERTEX
  8
0
  6
CONTINUOUS
 10
4.479640
 20
2.509320
  0
VERTEX
  8
0
  6
CONTINUOUS
 10
5.142280
 20
2.887280
  0
VERTEX
  8
0
  6
CONTINUOUS
 10
6.647080
 20
2.887280
  0
VERTEX
  8
0
  6
CONTINUOUS
 10
5.984440
 20
2.509320
  0
VERTEX
  8
0
  6
CONTINUOUS
 10
4.479640
 20
2.509320
  0
SEQEND
  8
0
  0
POLYLINE
  8
0
  6
CONTINUOUS
 66
     1
 40
0.000000
 41
0.000000
  0
VERTEX
  8
0
  6
CONTINUOUS
 10
4.479640
 20
2.509320
  0
VERTEX
  8
0
  6
CONTINUOUS
 10
5.984440
 20
2.509320
  0
VERTEX
  8
0
  6
CONTINUOUS
 10
5.987080
 20
2.505800
  0
VERTEX
  8
0
  6
CONTINUOUS
 10
5.987080
 20
0.760320
  0
VERTEX
  8
0
  6
CONTINUOUS
 10
5.984440
 20
0.757240
  0
VERTEX
  8
0
  6
CONTINUOUS
 10
4.472160
 20
0.757240
  0
VERTEX
  8
0
  6
CONTINUOUS
 10
4.473480
 20
0.760320
  0
VERTEX
  8
0
  6
CONTINUOUS
 10
4.473480
 20
1.522840
  0
VERTEX
  8
0
  6
CONTINUOUS
 10
4.717680
 20
1.522840
  0
VERTEX
  8
0
  6
CONTINUOUS
 10
4.717680
 20
1.958880
  0
VERTEX
  8
0
  6
CONTINUOUS
 10
4.715040
 20
1.958880
  0
VERTEX
  8
0
  6
CONTINUOUS
 10
4.673680
 20
1.991440
  0
VERTEX
  8
0
  6
CONTINUOUS
 10
4.644640
 20
2.025320
  0
VERTEX
  8
0
  6
CONTINUOUS
 10
4.624840
 20
2.060080
  0
VERTEX
  8
0
  6
CONTINUOUS
 10
4.612520
 20
2.095280
  0
VERTEX
  8
0
  6
CONTINUOUS
 10
4.602840
 20
2.164360
  0
VERTEX
  8
0
  6
CONTINUOUS
 10
4.601960
 20
2.181080
  0
VERTEX
  8
0
  6
CONTINUOUS
 10
4.601080
 20
2.197360
  0
VERTEX
  8
0
  6
CONTINUOUS
 10
4.598880
 20
2.228160
  0
VERTEX
  8
0
  6
CONTINUOUS
 10
4.590520
 20
2.261600
  0
VERTEX
  8
0
  6
CONTINUOUS
 10
4.574240
 20
2.284920
  0
VERTEX
  8
0
  6
CONTINUOUS
 10
4.553560
 20
2.303400
  0
VERTEX
  8
0
  6
CONTINUOUS
 10
4.541680
 20
2.312640
  0
VERTEX
  8
0
  6
CONTINUOUS
 10
4.530240
 20
2.322760
  0
VERTEX
  8
0
  6
CONTINUOUS
 10
4.507800
 20
2.347400
  0
VERTEX
  8
0
  6
CONTINUOUS
 10
4.488440
 20
2.383040
  0
VERTEX
  8
0
  6
CONTINUOUS
 10
4.474800
 20
2.434520
  0
VERTEX
  8
0
  6
CONTINUOUS
 10
4.469520
 20
2.507120
  0
VERTEX
  8
0
  6
CONTINUOUS
 10
4.479640
 20
2.509320
  0
SEQEND
  8
0
  0
TEXT
  8
0
 10
2.104960
 20
0.861520
 40
0.138093
  1
A
 41
1.000000
  7
SN0
 71
     0
 72
     5
 11
2.216069
 21
0.861520
  0
TEXT
  8
0
 10
4.574240
 20
0.846120
 40
0.138093
  1
B
 41
1.000000
  7
SN0
 71
     0
 72
     5
 11
4.685349
 21
0.846120
  0
TEXT
  8
0
 10
3.739120
 20
0.492800
 40
0.138093
  1
BA  202A & B 1-3/4"
 41
1.000000
  7
SN0
 71
     0
 72
     5
 11
5.235652
 21
0.492800
  0
TEXT
  8
0
 10
7.238440
 20
4.929320
 40
0.138093
  1
style & rail
 41
1.000000
  7
SN0
 71
     0
 72
     5
 11
8.003028
 21
4.929320
  0
TEXT
  8
0
 10
7.372200
 20
4.737920
 40
0.138093
  1
202AB
 41
1.000000
  7
SN0
 71
     0
 72
     5
 11
7.870844
 21
4.737920
  0
ENDSEC
  0
EOF
