  0
SECTION
  2
HEADER
  9
$ACADVER
  1
AC1006
  9
$EXTMIN
 10
2.438040
 20
0.396880
  9
$EXTMAX
 10
8.093360
 20
2.104080
  9
$LTSCALE
 40
0.044000
  9
$PDMODE
 70
    35
  9
$PDSIZE
 40
0.035200
  0
ENDSEC
  0
SECTION
  2
TABLES
  0
TABLE
  2
LTYPE
 70
     9
  0
LTYPE
  2
CONTINUOUS
 70
    64
  3
Solid line
 72
    65
 73
     0
 40
0.000000
  0
LTYPE
  2
DASHED
 70
    64
  3
__ __ __ __ __ __ __ __ __ __ __ __ __ __ __
 72
    65
 73
     2
 40
0.000330
 49
0.000220
 49
-0.000110
  0
LTYPE
  2
HIDDEN
 70
    64
  3
 _ _ _ _ _ _ _ _ _ _ _ _ _ _ _ _ _ _ _ _ _ _
 72
    65
 73
     2
 40
0.000165
 49
0.000110
 49
-0.000055
  0
LTYPE
  2
CENTER
 70
    64
  3
____ _ ____ _ ____ _ ____ _ ____ _ ____ _ ____
 72
    65
 73
     4
 40
0.000880
 49
0.000550
 49
-0.000110
 49
0.000110
 49
-0.000110
  0
LTYPE
  2
PHANTOM
 70
    64
  3
_____ _ _ _____ _ _ _____ _ _ _____ _ _ ____
 72
    65
 73
     6
 40
0.001100
 49
0.000550
 49
-0.000110
 49
0.000110
 49
-0.000110
 49
0.000110
 49
-0.000110
  0
LTYPE
  2
DOT
 70
    64
  3
...............................................
 72
    65
 73
     2
 40
0.000110
 49
0.000000
 49
-0.000110
  0
LTYPE
  2
DASHDOT
 70
    64
  3
__ . __ . __ . __ . __ . __ . __ . __ . __ . __
 72
    65
 73
     4
 40
0.000440
 49
0.000220
 49
-0.000110
 49
0.000000
 49
-0.000110
  0
LTYPE
  2
BORDER
 70
    64
  3
__ __ . __ __ . __ __ . __ __ . __ __ . __ __
 72
    65
 73
     6
 40
0.000770
 49
0.000220
 49
-0.000110
 49
0.000220
 49
-0.000110
 49
0.000000
 49
-0.000110
  0
LTYPE
  2
DIVIDE
 70
    64
  3
__ . . __ . . __ . . __ . . __ . . __ . . __
 72
    65
 73
     6
 40
0.000550
 49
0.000220
 49
-0.000110
 49
0.000000
 49
-0.000110
 49
0.000000
 49
-0.000110
  0
LTYPE
  2
DOTDOT
 70
    64
  3
 . .  . .  . .  . .  . .  . . 
 72
    65
 73
     5
 40
0.000242
 49
-0.000110
 49
0.000000
 49
-0.000110
 49
0.000000
 49
-0.000110
  0
ENDTAB
  0
TABLE
  2
STYLE
 70
     2
  0
STYLE
 70
     0
  2
SN0
 40
0.000000
 41
0.000440
 50
0.000000
 71
     0
 42
0.000000
  3
ROMAND
  0
STYLE
 70
    68
  2
SV0
 40
0.000000
 41
0.000440
 50
0.000000
 71
     0
 42
0.000000
  3
ROMAND
  0
ENDTAB
  0
TABLE
  2
LAYER
 70
     3
  0
LAYER
  2
FOREGROUND
 70
    64
 62
     7
  6
CONTINUOUS
  0
LAYER
  2
BACKGROUND
 70
    65
 62
    -7
  6
CONTINUOUS
  0
LAYER
  2
0
 70
    64
 62
     7
  6
CONTINUOUS
  0
ENDTAB
  0
ENDSEC
  0
SECTION
  2
ENTITIES
  0
POLYLINE
  8
FOREGROUND
  6
CONTINUOUS
 66
     1
 40
0.000000
 41
0.000000
  0
VERTEX
  8
FOREGROUND
  6
CONTINUOUS
 10
0.000000
 20
2.500960
  0
VERTEX
  8
FOREGROUND
  6
CONTINUOUS
 10
8.499920
 20
2.500960
  0
VERTEX
  8
FOREGROUND
  6
CONTINUOUS
 10
8.499920
 20
-8.499040
  0
VERTEX
  8
FOREGROUND
  6
CONTINUOUS
 10
0.000000
 20
-8.499040
  0
VERTEX
  8
FOREGROUND
  6
CONTINUOUS
 10
0.000000
 20
2.500960
  0
SEQEND
  8
0
  0
POLYLINE
  8
FOREGROUND
  6
CONTINUOUS
 66
     1
 40
0.000000
 41
0.000000
  0
VERTEX
  8
FOREGROUND
  6
CONTINUOUS
 10
0.000000
 20
2.500960
  0
VERTEX
  8
FOREGROUND
  6
CONTINUOUS
 10
8.499920
 20
2.500960
  0
VERTEX
  8
FOREGROUND
  6
CONTINUOUS
 10
8.499920
 20
-8.499040
  0
VERTEX
  8
FOREGROUND
  6
CONTINUOUS
 10
0.000000
 20
-8.499040
  0
VERTEX
  8
FOREGROUND
  6
CONTINUOUS
 10
0.000000
 20
2.500960
  0
SEQEND
  8
0
  0
POLYLINE
  8
0
  6
CONTINUOUS
 66
     1
 40
0.014080
 41
0.014080
  0
VERTEX
  8
0
  6
CONTINUOUS
 10
6.744320
 20
1.308120
  0
VERTEX
  8
0
  6
CONTINUOUS
 10
6.743440
 20
1.346400
  0
VERTEX
  8
0
  6
CONTINUOUS
 10
6.735960
 20
1.421640
  0
VERTEX
  8
0
  6
CONTINUOUS
 10
6.729360
 20
1.458600
  0
VERTEX
  8
0
  6
CONTINUOUS
 10
6.711320
 20
1.530320
  0
VERTEX
  8
0
  6
CONTINUOUS
 10
6.686680
 20
1.598960
  0
VERTEX
  8
0
  6
CONTINUOUS
 10
6.655440
 20
1.664520
  0
VERTEX
  8
0
  6
CONTINUOUS
 10
6.637840
 20
1.695760
  0
VERTEX
  8
0
  6
CONTINUOUS
 10
6.597800
 20
1.755600
  0
VERTEX
  8
0
  6
CONTINUOUS
 10
6.552920
 20
1.811040
  0
VERTEX
  8
0
  6
CONTINUOUS
 10
6.502760
 20
1.862080
  0
VERTEX
  8
0
  6
CONTINUOUS
 10
6.475920
 20
1.885840
  0
VERTEX
  8
0
  6
CONTINUOUS
 10
6.418720
 20
1.928960
  0
VERTEX
  8
0
  6
CONTINUOUS
 10
6.357560
 20
1.966800
  0
VERTEX
  8
0
  6
CONTINUOUS
 10
6.292880
 20
1.998480
  0
VERTEX
  8
0
  6
CONTINUOUS
 10
6.224680
 20
2.023560
  0
VERTEX
  8
0
  6
CONTINUOUS
 10
6.189480
 20
2.033680
  0
VERTEX
  8
0
  6
CONTINUOUS
 10
6.153400
 20
2.042040
  0
VERTEX
  8
0
  6
CONTINUOUS
 10
6.116880
 20
2.048640
  0
VERTEX
  8
0
  6
CONTINUOUS
 10
6.079480
 20
2.053480
  0
VERTEX
  8
0
  6
CONTINUOUS
 10
6.041640
 20
2.056560
  0
VERTEX
  8
0
  6
CONTINUOUS
 10
6.003360
 20
2.057440
  0
VERTEX
  8
0
  6
CONTINUOUS
 10
5.965080
 20
2.056560
  0
VERTEX
  8
0
  6
CONTINUOUS
 10
5.926800
 20
2.053480
  0
VERTEX
  8
0
  6
CONTINUOUS
 10
5.889400
 20
2.048640
  0
VERTEX
  8
0
  6
CONTINUOUS
 10
5.852880
 20
2.042040
  0
VERTEX
  8
0
  6
CONTINUOUS
 10
5.816800
 20
2.033680
  0
VERTEX
  8
0
  6
CONTINUOUS
 10
5.781160
 20
2.023560
  0
VERTEX
  8
0
  6
CONTINUOUS
 10
5.712080
 20
1.998480
  0
VERTEX
  8
0
  6
CONTINUOUS
 10
5.646960
 20
1.966800
  0
VERTEX
  8
0
  6
CONTINUOUS
 10
5.584920
 20
1.928960
  0
VERTEX
  8
0
  6
CONTINUOUS
 10
5.527280
 20
1.885840
  0
VERTEX
  8
0
  6
CONTINUOUS
 10
5.474040
 20
1.837000
  0
VERTEX
  8
0
  6
CONTINUOUS
 10
5.425200
 20
1.783760
  0
VERTEX
  8
0
  6
CONTINUOUS
 10
5.382080
 20
1.726120
  0
VERTEX
  8
0
  6
CONTINUOUS
 10
5.344240
 20
1.664520
  0
VERTEX
  8
0
  6
CONTINUOUS
 10
5.312560
 20
1.598960
  0
VERTEX
  8
0
  6
CONTINUOUS
 10
5.287480
 20
1.530320
  0
VERTEX
  8
0
  6
CONTINUOUS
 10
5.277360
 20
1.494680
  0
VERTEX
  8
0
  6
CONTINUOUS
 10
5.269000
 20
1.458600
  0
VERTEX
  8
0
  6
CONTINUOUS
 10
5.262400
 20
1.421640
  0
VERTEX
  8
0
  6
CONTINUOUS
 10
5.257560
 20
1.384240
  0
VERTEX
  8
0
  6
CONTINUOUS
 10
5.254480
 20
1.346400
  0
VERTEX
  8
0
  6
CONTINUOUS
 10
5.253600
 20
1.306800
  0
VERTEX
  8
0
  6
CONTINUOUS
 10
6.741680
 20
1.306800
  0
VERTEX
  8
0
  6
CONTINUOUS
 10
6.744320
 20
1.308120
  0
SEQEND
  8
0
  0
SOLID
  8
0
 62
     7
 10
3.542440
 20
1.509640
 11
4.183960
 21
1.888920
 12
3.603600
 22
1.472240
 13
4.245120
 23
1.851520
  0
POLYLINE
  8
0
  6
CONTINUOUS
 66
     1
 40
0.000000
 41
0.000000
  0
VERTEX
  8
0
  6
CONTINUOUS
 10
3.542440
 20
1.509640
  0
VERTEX
  8
0
  6
CONTINUOUS
 10
4.183960
 20
1.888920
  0
VERTEX
  8
0
  6
CONTINUOUS
 10
4.245120
 20
1.851520
  0
VERTEX
  8
0
  6
CONTINUOUS
 10
3.603600
 20
1.472240
  0
VERTEX
  8
0
  6
CONTINUOUS
 10
3.542440
 20
1.509640
  0
SEQEND
  8
0
  0
SOLID
  8
0
 62
    15
 10
2.896960
 20
1.541320
 11
3.538920
 21
1.920600
 12
2.965600
 22
1.566840
 13
3.607560
 23
1.946120
  0
POLYLINE
  8
0
  6
CONTINUOUS
 66
     1
 40
0.000000
 41
0.000000
  0
VERTEX
  8
0
  6
CONTINUOUS
 10
2.896960
 20
1.541320
  0
VERTEX
  8
0
  6
CONTINUOUS
 10
3.538920
 20
1.920600
  0
VERTEX
  8
0
  6
CONTINUOUS
 10
3.607560
 20
1.946120
  0
VERTEX
  8
0
  6
CONTINUOUS
 10
2.965600
 20
1.566840
  0
VERTEX
  8
0
  6
CONTINUOUS
 10
2.896960
 20
1.541320
  0
SEQEND
  8
0
  0
SOLID
  8
0
 62
    15
 10
2.965600
 20
1.566840
 11
3.607560
 21
1.946120
 12
3.037320
 22
1.585320
 13
3.679280
 23
1.964600
  0
POLYLINE
  8
0
  6
CONTINUOUS
 66
     1
 40
0.000000
 41
0.000000
  0
VERTEX
  8
0
  6
CONTINUOUS
 10
2.965600
 20
1.566840
  0
VERTEX
  8
0
  6
CONTINUOUS
 10
3.607560
 20
1.946120
  0
VERTEX
  8
0
  6
CONTINUOUS
 10
3.679280
 20
1.964600
  0
VERTEX
  8
0
  6
CONTINUOUS
 10
3.037320
 20
1.585320
  0
VERTEX
  8
0
  6
CONTINUOUS
 10
2.965600
 20
1.566840
  0
SEQEND
  8
0
  0
SOLID
  8
0
 62
    15
 10
3.037320
 20
1.585320
 11
3.679280
 21
1.964600
 12
3.111680
 22
1.596760
 13
3.753200
 23
1.976040
  0
POLYLINE
  8
0
  6
CONTINUOUS
 66
     1
 40
0.000000
 41
0.000000
  0
VERTEX
  8
0
  6
CONTINUOUS
 10
3.037320
 20
1.585320
  0
VERTEX
  8
0
  6
CONTINUOUS
 10
3.679280
 20
1.964600
  0
VERTEX
  8
0
  6
CONTINUOUS
 10
3.753200
 20
1.976040
  0
VERTEX
  8
0
  6
CONTINUOUS
 10
3.111680
 20
1.596760
  0
VERTEX
  8
0
  6
CONTINUOUS
 10
3.037320
 20
1.585320
  0
SEQEND
  8
0
  0
SOLID
  8
0
 62
    15
 10
3.111680
 20
1.596760
 11
3.753200
 21
1.976040
 12
3.187800
 22
1.600720
 13
3.829760
 23
1.980000
  0
POLYLINE
  8
0
  6
CONTINUOUS
 66
     1
 40
0.000000
 41
0.000000
  0
VERTEX
  8
0
  6
CONTINUOUS
 10
3.111680
 20
1.596760
  0
VERTEX
  8
0
  6
CONTINUOUS
 10
3.753200
 20
1.976040
  0
VERTEX
  8
0
  6
CONTINUOUS
 10
3.829760
 20
1.980000
  0
VERTEX
  8
0
  6
CONTINUOUS
 10
3.187800
 20
1.600720
  0
VERTEX
  8
0
  6
CONTINUOUS
 10
3.111680
 20
1.596760
  0
SEQEND
  8
0
  0
SOLID
  8
0
 62
    15
 10
3.187800
 20
1.600720
 11
3.829760
 21
1.980000
 12
3.263920
 22
1.596760
 13
3.905880
 23
1.976040
  0
POLYLINE
  8
0
  6
CONTINUOUS
 66
     1
 40
0.000000
 41
0.000000
  0
VERTEX
  8
0
  6
CONTINUOUS
 10
3.187800
 20
1.600720
  0
VERTEX
  8
0
  6
CONTINUOUS
 10
3.829760
 20
1.980000
  0
VERTEX
  8
0
  6
CONTINUOUS
 10
3.905880
 20
1.976040
  0
VERTEX
  8
0
  6
CONTINUOUS
 10
3.263920
 20
1.596760
  0
VERTEX
  8
0
  6
CONTINUOUS
 10
3.187800
 20
1.600720
  0
SEQEND
  8
0
  0
SOLID
  8
0
 62
    15
 10
3.263920
 20
1.596760
 11
3.905880
 21
1.976040
 12
3.337840
 22
1.585320
 13
3.979800
 23
1.964600
  0
POLYLINE
  8
0
  6
CONTINUOUS
 66
     1
 40
0.000000
 41
0.000000
  0
VERTEX
  8
0
  6
CONTINUOUS
 10
3.263920
 20
1.596760
  0
VERTEX
  8
0
  6
CONTINUOUS
 10
3.905880
 20
1.976040
  0
VERTEX
  8
0
  6
CONTINUOUS
 10
3.979800
 20
1.964600
  0
VERTEX
  8
0
  6
CONTINUOUS
 10
3.337840
 20
1.585320
  0
VERTEX
  8
0
  6
CONTINUOUS
 10
3.263920
 20
1.596760
  0
SEQEND
  8
0
  0
SOLID
  8
0
 62
    15
 10
3.337840
 20
1.585320
 11
3.979800
 21
1.964600
 12
3.409120
 22
1.566840
 13
4.051080
 23
1.946120
  0
POLYLINE
  8
0
  6
CONTINUOUS
 66
     1
 40
0.000000
 41
0.000000
  0
VERTEX
  8
0
  6
CONTINUOUS
 10
3.337840
 20
1.585320
  0
VERTEX
  8
0
  6
CONTINUOUS
 10
3.979800
 20
1.964600
  0
VERTEX
  8
0
  6
CONTINUOUS
 10
4.051080
 20
1.946120
  0
VERTEX
  8
0
  6
CONTINUOUS
 10
3.409120
 20
1.566840
  0
VERTEX
  8
0
  6
CONTINUOUS
 10
3.337840
 20
1.585320
  0
SEQEND
  8
0
  0
SOLID
  8
0
 62
    15
 10
3.409120
 20
1.566840
 11
4.051080
 21
1.946120
 12
3.477320
 22
1.541320
 13
4.119280
 23
1.920600
  0
POLYLINE
  8
0
  6
CONTINUOUS
 66
     1
 40
0.000000
 41
0.000000
  0
VERTEX
  8
0
  6
CONTINUOUS
 10
3.409120
 20
1.566840
  0
VERTEX
  8
0
  6
CONTINUOUS
 10
4.051080
 20
1.946120
  0
VERTEX
  8
0
  6
CONTINUOUS
 10
4.119280
 20
1.920600
  0
VERTEX
  8
0
  6
CONTINUOUS
 10
3.477320
 20
1.541320
  0
VERTEX
  8
0
  6
CONTINUOUS
 10
3.409120
 20
1.566840
  0
SEQEND
  8
0
  0
SOLID
  8
0
 62
     7
 10
3.477320
 20
1.541320
 11
4.119280
 21
1.920600
 12
3.542440
 22
1.509640
 13
4.183960
 23
1.888920
  0
POLYLINE
  8
0
  6
CONTINUOUS
 66
     1
 40
0.000000
 41
0.000000
  0
VERTEX
  8
0
  6
CONTINUOUS
 10
3.477320
 20
1.541320
  0
VERTEX
  8
0
  6
CONTINUOUS
 10
4.119280
 20
1.920600
  0
VERTEX
  8
0
  6
CONTINUOUS
 10
4.183960
 20
1.888920
  0
VERTEX
  8
0
  6
CONTINUOUS
 10
3.542440
 20
1.509640
  0
VERTEX
  8
0
  6
CONTINUOUS
 10
3.477320
 20
1.541320
  0
SEQEND
  8
0
  0
SOLID
  8
0
 62
    15
 10
2.831400
 20
1.509640
 11
3.473360
 21
1.888920
 12
2.896960
 22
1.541320
 13
3.538920
 23
1.920600
  0
POLYLINE
  8
0
  6
CONTINUOUS
 66
     1
 40
0.000000
 41
0.000000
  0
VERTEX
  8
0
  6
CONTINUOUS
 10
2.831400
 20
1.509640
  0
VERTEX
  8
0
  6
CONTINUOUS
 10
3.473360
 20
1.888920
  0
VERTEX
  8
0
  6
CONTINUOUS
 10
3.538920
 20
1.920600
  0
VERTEX
  8
0
  6
CONTINUOUS
 10
2.896960
 20
1.541320
  0
VERTEX
  8
0
  6
CONTINUOUS
 10
2.831400
 20
1.509640
  0
SEQEND
  8
0
  0
SOLID
  8
0
 62
     7
 10
3.603600
 20
1.472240
 11
4.245120
 21
1.851520
 12
3.660360
 22
1.429120
 13
4.302320
 23
1.807960
  0
POLYLINE
  8
0
  6
CONTINUOUS
 66
     1
 40
0.000000
 41
0.000000
  0
VERTEX
  8
0
  6
CONTINUOUS
 10
3.603600
 20
1.472240
  0
VERTEX
  8
0
  6
CONTINUOUS
 10
4.245120
 20
1.851520
  0
VERTEX
  8
0
  6
CONTINUOUS
 10
4.302320
 20
1.807960
  0
VERTEX
  8
0
  6
CONTINUOUS
 10
3.660360
 20
1.429120
  0
VERTEX
  8
0
  6
CONTINUOUS
 10
3.603600
 20
1.472240
  0
SEQEND
  8
0
  0
SOLID
  8
0
 62
     7
 10
3.660360
 20
1.429120
 11
4.302320
 21
1.807960
 12
3.713160
 22
1.380280
 13
4.354680
 23
1.759560
  0
POLYLINE
  8
0
  6
CONTINUOUS
 66
     1
 40
0.000000
 41
0.000000
  0
VERTEX
  8
0
  6
CONTINUOUS
 10
3.660360
 20
1.429120
  0
VERTEX
  8
0
  6
CONTINUOUS
 10
4.302320
 20
1.807960
  0
VERTEX
  8
0
  6
CONTINUOUS
 10
4.354680
 20
1.759560
  0
VERTEX
  8
0
  6
CONTINUOUS
 10
3.713160
 20
1.380280
  0
VERTEX
  8
0
  6
CONTINUOUS
 10
3.660360
 20
1.429120
  0
SEQEND
  8
0
  0
SOLID
  8
0
 62
     7
 10
3.713160
 20
1.380280
 11
4.354680
 21
1.759560
 12
3.760680
 22
1.327040
 13
4.402640
 23
1.706320
  0
POLYLINE
  8
0
  6
CONTINUOUS
 66
     1
 40
0.000000
 41
0.000000
  0
VERTEX
  8
0
  6
CONTINUOUS
 10
3.713160
 20
1.380280
  0
VERTEX
  8
0
  6
CONTINUOUS
 10
4.354680
 20
1.759560
  0
VERTEX
  8
0
  6
CONTINUOUS
 10
4.402640
 20
1.706320
  0
VERTEX
  8
0
  6
CONTINUOUS
 10
3.760680
 20
1.327040
  0
VERTEX
  8
0
  6
CONTINUOUS
 10
3.713160
 20
1.380280
  0
SEQEND
  8
0
  0
SOLID
  8
0
 62
     7
 10
3.760680
 20
1.327040
 11
4.402640
 21
1.706320
 12
3.803360
 22
1.269400
 13
4.444880
 23
1.648680
  0
POLYLINE
  8
0
  6
CONTINUOUS
 66
     1
 40
0.000000
 41
0.000000
  0
VERTEX
  8
0
  6
CONTINUOUS
 10
3.760680
 20
1.327040
  0
VERTEX
  8
0
  6
CONTINUOUS
 10
4.402640
 20
1.706320
  0
VERTEX
  8
0
  6
CONTINUOUS
 10
4.444880
 20
1.648680
  0
VERTEX
  8
0
  6
CONTINUOUS
 10
3.803360
 20
1.269400
  0
VERTEX
  8
0
  6
CONTINUOUS
 10
3.760680
 20
1.327040
  0
SEQEND
  8
0
  0
SOLID
  8
0
 62
     7
 10
3.803360
 20
1.269400
 11
4.444880
 21
1.648680
 12
3.840320
 22
1.207800
 13
4.481840
 23
1.587080
  0
POLYLINE
  8
0
  6
CONTINUOUS
 66
     1
 40
0.000000
 41
0.000000
  0
VERTEX
  8
0
  6
CONTINUOUS
 10
3.803360
 20
1.269400
  0
VERTEX
  8
0
  6
CONTINUOUS
 10
4.444880
 20
1.648680
  0
VERTEX
  8
0
  6
CONTINUOUS
 10
4.481840
 20
1.587080
  0
VERTEX
  8
0
  6
CONTINUOUS
 10
3.840320
 20
1.207800
  0
VERTEX
  8
0
  6
CONTINUOUS
 10
3.803360
 20
1.269400
  0
SEQEND
  8
0
  0
SOLID
  8
0
 62
     7
 10
3.840320
 20
1.207800
 11
4.481840
 21
1.587080
 12
3.871120
 22
1.142240
 13
4.513080
 23
1.521520
  0
POLYLINE
  8
0
  6
CONTINUOUS
 66
     1
 40
0.000000
 41
0.000000
  0
VERTEX
  8
0
  6
CONTINUOUS
 10
3.840320
 20
1.207800
  0
VERTEX
  8
0
  6
CONTINUOUS
 10
4.481840
 20
1.587080
  0
VERTEX
  8
0
  6
CONTINUOUS
 10
4.513080
 20
1.521520
  0
VERTEX
  8
0
  6
CONTINUOUS
 10
3.871120
 20
1.142240
  0
VERTEX
  8
0
  6
CONTINUOUS
 10
3.840320
 20
1.207800
  0
SEQEND
  8
0
  0
SOLID
  8
0
 62
     7
 10
3.871120
 20
1.142240
 11
4.513080
 21
1.521520
 12
3.896200
 22
1.073600
 13
4.537720
 23
1.452440
  0
POLYLINE
  8
0
  6
CONTINUOUS
 66
     1
 40
0.000000
 41
0.000000
  0
VERTEX
  8
0
  6
CONTINUOUS
 10
3.871120
 20
1.142240
  0
VERTEX
  8
0
  6
CONTINUOUS
 10
4.513080
 20
1.521520
  0
VERTEX
  8
0
  6
CONTINUOUS
 10
4.537720
 20
1.452440
  0
VERTEX
  8
0
  6
CONTINUOUS
 10
3.896200
 20
1.073600
  0
VERTEX
  8
0
  6
CONTINUOUS
 10
3.871120
 20
1.142240
  0
SEQEND
  8
0
  0
SOLID
  8
0
 62
     7
 10
3.896200
 20
1.073600
 11
4.537720
 21
1.452440
 12
3.914240
 22
1.001880
 13
4.556200
 23
1.381160
  0
POLYLINE
  8
0
  6
CONTINUOUS
 66
     1
 40
0.000000
 41
0.000000
  0
VERTEX
  8
0
  6
CONTINUOUS
 10
3.896200
 20
1.073600
  0
VERTEX
  8
0
  6
CONTINUOUS
 10
4.537720
 20
1.452440
  0
VERTEX
  8
0
  6
CONTINUOUS
 10
4.556200
 20
1.381160
  0
VERTEX
  8
0
  6
CONTINUOUS
 10
3.914240
 20
1.001880
  0
VERTEX
  8
0
  6
CONTINUOUS
 10
3.896200
 20
1.073600
  0
SEQEND
  8
0
  0
SOLID
  8
0
 62
     7
 10
3.914240
 20
1.001880
 11
4.556200
 21
1.381160
 12
3.925240
 22
0.927520
 13
4.567200
 23
1.306800
  0
POLYLINE
  8
0
  6
CONTINUOUS
 66
     1
 40
0.000000
 41
0.000000
  0
VERTEX
  8
0
  6
CONTINUOUS
 10
3.914240
 20
1.001880
  0
VERTEX
  8
0
  6
CONTINUOUS
 10
4.556200
 20
1.381160
  0
VERTEX
  8
0
  6
CONTINUOUS
 10
4.567200
 20
1.306800
  0
VERTEX
  8
0
  6
CONTINUOUS
 10
3.925240
 20
0.927520
  0
VERTEX
  8
0
  6
CONTINUOUS
 10
3.914240
 20
1.001880
  0
SEQEND
  8
0
  0
SOLID
  8
0
 62
    15
 10
3.925240
 20
0.927520
 11
4.567200
 21
1.306800
 12
3.929200
 22
0.851400
 13
4.571160
 23
1.230680
  0
POLYLINE
  8
0
  6
CONTINUOUS
 66
     1
 40
0.000000
 41
0.000000
  0
VERTEX
  8
0
  6
CONTINUOUS
 10
3.925240
 20
0.927520
  0
VERTEX
  8
0
  6
CONTINUOUS
 10
4.567200
 20
1.306800
  0
VERTEX
  8
0
  6
CONTINUOUS
 10
4.571160
 20
1.230680
  0
VERTEX
  8
0
  6
CONTINUOUS
 10
3.929200
 20
0.851400
  0
VERTEX
  8
0
  6
CONTINUOUS
 10
3.925240
 20
0.927520
  0
SEQEND
  8
0
  0
POLYLINE
  8
0
  6
CONTINUOUS
 66
     1
 40
0.000000
 41
0.000000
  0
VERTEX
  8
0
  6
CONTINUOUS
 10
3.926560
 20
0.850080
  0
VERTEX
  8
0
  6
CONTINUOUS
 10
2.438480
 20
0.850080
  0
VERTEX
  8
0
  6
CONTINUOUS
 10
2.438480
 20
0.851400
  0
VERTEX
  8
0
  6
CONTINUOUS
 10
2.442440
 20
0.927520
  0
VERTEX
  8
0
  6
CONTINUOUS
 10
2.453880
 20
1.001880
  0
VERTEX
  8
0
  6
CONTINUOUS
 10
2.472360
 20
1.073600
  0
VERTEX
  8
0
  6
CONTINUOUS
 10
2.497440
 20
1.142240
  0
VERTEX
  8
0
  6
CONTINUOUS
 10
2.529120
 20
1.207800
  0
VERTEX
  8
0
  6
CONTINUOUS
 10
2.566960
 20
1.269400
  0
VERTEX
  8
0
  6
CONTINUOUS
 10
2.610080
 20
1.327040
  0
VERTEX
  8
0
  6
CONTINUOUS
 10
2.658480
 20
1.380280
  0
VERTEX
  8
0
  6
CONTINUOUS
 10
2.712160
 20
1.429120
  0
VERTEX
  8
0
  6
CONTINUOUS
 10
2.769800
 20
1.472240
  0
VERTEX
  8
0
  6
CONTINUOUS
 10
2.831400
 20
1.509640
  0
VERTEX
  8
0
  6
CONTINUOUS
 10
2.896960
 20
1.541320
  0
VERTEX
  8
0
  6
CONTINUOUS
 10
2.965600
 20
1.566840
  0
VERTEX
  8
0
  6
CONTINUOUS
 10
3.037320
 20
1.585320
  0
VERTEX
  8
0
  6
CONTINUOUS
 10
3.111680
 20
1.596760
  0
VERTEX
  8
0
  6
CONTINUOUS
 10
3.187800
 20
1.600720
  0
VERTEX
  8
0
  6
CONTINUOUS
 10
3.263920
 20
1.596760
  0
VERTEX
  8
0
  6
CONTINUOUS
 10
3.337840
 20
1.585320
  0
VERTEX
  8
0
  6
CONTINUOUS
 10
3.409120
 20
1.566840
  0
VERTEX
  8
0
  6
CONTINUOUS
 10
3.477320
 20
1.541320
  0
VERTEX
  8
0
  6
CONTINUOUS
 10
3.542440
 20
1.509640
  0
VERTEX
  8
0
  6
CONTINUOUS
 10
3.603600
 20
1.472240
  0
VERTEX
  8
0
  6
CONTINUOUS
 10
3.660360
 20
1.429120
  0
VERTEX
  8
0
  6
CONTINUOUS
 10
3.713160
 20
1.380280
  0
VERTEX
  8
0
  6
CONTINUOUS
 10
3.760680
 20
1.327040
  0
VERTEX
  8
0
  6
CONTINUOUS
 10
3.803360
 20
1.269400
  0
VERTEX
  8
0
  6
CONTINUOUS
 10
3.840320
 20
1.207800
  0
VERTEX
  8
0
  6
CONTINUOUS
 10
3.871120
 20
1.142240
  0
VERTEX
  8
0
  6
CONTINUOUS
 10
3.896200
 20
1.073600
  0
VERTEX
  8
0
  6
CONTINUOUS
 10
3.914240
 20
1.001880
  0
VERTEX
  8
0
  6
CONTINUOUS
 10
3.925240
 20
0.927520
  0
VERTEX
  8
0
  6
CONTINUOUS
 10
3.929200
 20
0.851400
  0
VERTEX
  8
0
  6
CONTINUOUS
 10
3.926560
 20
0.850080
  0
SEQEND
  8
0
  0
TEXT
  8
0
 10
3.210240
 20
0.632280
 40
0.138160
  1
BA  200
 41
1.000000
  7
SN0
 71
     0
 72
     5
 11
3.801786
 21
0.632280
  0
TEXT
  8
0
 10
3.286800
 20
0.440440
 40
0.138160
  1
1-1/2"
 41
1.000000
  7
SN0
 71
     0
 72
     5
 11
3.724522
 21
0.440440
  0
TEXT
  8
0
 10
7.577240
 20
1.952720
 40
0.138160
  1
1/2 rnd
 41
1.000000
  7
SN0
 71
     0
 72
     5
 11
8.094702
 21
1.952720
  0
TEXT
  8
0
 10
7.697360
 20
1.761320
 40
0.138160
  1
200
 41
1.000000
  7
SN0
 71
     0
 72
     5
 11
7.975036
 21
1.761320
  0
ENDSEC
  0
EOF
