  0
SECTION
  2
HEADER
  9
$ACADVER
  1
AC1006
  9
$EXTMIN
 10
4.036560
 20
0.371360
  9
$EXTMAX
 10
8.032200
 20
7.392000
  9
$LTSCALE
 40
0.044000
  9
$PDMODE
 70
    35
  9
$PDSIZE
 40
0.035200
  0
ENDSEC
  0
SECTION
  2
TABLES
  0
TABLE
  2
LTYPE
 70
     9
  0
LTYPE
  2
CONTINUOUS
 70
    64
  3
Solid line
 72
    65
 73
     0
 40
0.000000
  0
LTYPE
  2
DASHED
 70
    64
  3
__ __ __ __ __ __ __ __ __ __ __ __ __ __ __
 72
    65
 73
     2
 40
0.000330
 49
0.000220
 49
-0.000110
  0
LTYPE
  2
HIDDEN
 70
    64
  3
 _ _ _ _ _ _ _ _ _ _ _ _ _ _ _ _ _ _ _ _ _ _
 72
    65
 73
     2
 40
0.000165
 49
0.000110
 49
-0.000055
  0
LTYPE
  2
CENTER
 70
    64
  3
____ _ ____ _ ____ _ ____ _ ____ _ ____ _ ____
 72
    65
 73
     4
 40
0.000880
 49
0.000550
 49
-0.000110
 49
0.000110
 49
-0.000110
  0
LTYPE
  2
PHANTOM
 70
    64
  3
_____ _ _ _____ _ _ _____ _ _ _____ _ _ ____
 72
    65
 73
     6
 40
0.001100
 49
0.000550
 49
-0.000110
 49
0.000110
 49
-0.000110
 49
0.000110
 49
-0.000110
  0
LTYPE
  2
DOT
 70
    64
  3
...............................................
 72
    65
 73
     2
 40
0.000110
 49
0.000000
 49
-0.000110
  0
LTYPE
  2
DASHDOT
 70
    64
  3
__ . __ . __ . __ . __ . __ . __ . __ . __ . __
 72
    65
 73
     4
 40
0.000440
 49
0.000220
 49
-0.000110
 49
0.000000
 49
-0.000110
  0
LTYPE
  2
BORDER
 70
    64
  3
__ __ . __ __ . __ __ . __ __ . __ __ . __ __
 72
    65
 73
     6
 40
0.000770
 49
0.000220
 49
-0.000110
 49
0.000220
 49
-0.000110
 49
0.000000
 49
-0.000110
  0
LTYPE
  2
DIVIDE
 70
    64
  3
__ . . __ . . __ . . __ . . __ . . __ . . __
 72
    65
 73
     6
 40
0.000550
 49
0.000220
 49
-0.000110
 49
0.000000
 49
-0.000110
 49
0.000000
 49
-0.000110
  0
LTYPE
  2
DOTDOT
 70
    64
  3
 . .  . .  . .  . .  . .  . . 
 72
    65
 73
     5
 40
0.000242
 49
-0.000110
 49
0.000000
 49
-0.000110
 49
0.000000
 49
-0.000110
  0
ENDTAB
  0
TABLE
  2
STYLE
 70
     2
  0
STYLE
 70
     0
  2
SN0
 40
0.000000
 41
0.000440
 50
0.000000
 71
     0
 42
0.000000
  3
ROMAND
  0
STYLE
 70
    68
  2
SV0
 40
0.000000
 41
0.000440
 50
0.000000
 71
     0
 42
0.000000
  3
ROMAND
  0
ENDTAB
  0
TABLE
  2
LAYER
 70
     3
  0
LAYER
  2
FOREGROUND
 70
    64
 62
     7
  6
CONTINUOUS
  0
LAYER
  2
BACKGROUND
 70
    65
 62
    -7
  6
CONTINUOUS
  0
LAYER
  2
0
 70
    64
 62
     7
  6
CONTINUOUS
  0
ENDTAB
  0
ENDSEC
  0
SECTION
  2
ENTITIES
  0
POLYLINE
  8
FOREGROUND
  6
CONTINUOUS
 66
     1
 40
0.000000
 41
0.000000
  0
VERTEX
  8
FOREGROUND
  6
CONTINUOUS
 10
0.000000
 20
7.763360
  0
VERTEX
  8
FOREGROUND
  6
CONTINUOUS
 10
8.499920
 20
7.763360
  0
VERTEX
  8
FOREGROUND
  6
CONTINUOUS
 10
8.499920
 20
-3.236640
  0
VERTEX
  8
FOREGROUND
  6
CONTINUOUS
 10
0.000000
 20
-3.236640
  0
VERTEX
  8
FOREGROUND
  6
CONTINUOUS
 10
0.000000
 20
7.763360
  0
SEQEND
  8
0
  0
POLYLINE
  8
FOREGROUND
  6
CONTINUOUS
 66
     1
 40
0.000000
 41
0.000000
  0
VERTEX
  8
FOREGROUND
  6
CONTINUOUS
 10
0.000000
 20
7.763360
  0
VERTEX
  8
FOREGROUND
  6
CONTINUOUS
 10
8.499920
 20
7.763360
  0
VERTEX
  8
FOREGROUND
  6
CONTINUOUS
 10
8.499920
 20
-3.236640
  0
VERTEX
  8
FOREGROUND
  6
CONTINUOUS
 10
0.000000
 20
-3.236640
  0
VERTEX
  8
FOREGROUND
  6
CONTINUOUS
 10
0.000000
 20
7.763360
  0
SEQEND
  8
0
  0
POLYLINE
  8
0
  6
CONTINUOUS
 66
     1
 40
0.014080
 41
0.014080
  0
VERTEX
  8
0
  6
CONTINUOUS
 10
7.224800
 20
1.293600
  0
VERTEX
  8
0
  6
CONTINUOUS
 10
6.453920
 20
1.293600
  0
VERTEX
  8
0
  6
CONTINUOUS
 10
6.453920
 20
7.272320
  0
VERTEX
  8
0
  6
CONTINUOUS
 10
6.455240
 20
7.273640
  0
VERTEX
  8
0
  6
CONTINUOUS
 10
7.131520
 20
7.273640
  0
VERTEX
  8
0
  6
CONTINUOUS
 10
7.173760
 20
6.901400
  0
VERTEX
  8
0
  6
CONTINUOUS
 10
7.174200
 20
6.901400
  0
VERTEX
  8
0
  6
CONTINUOUS
 10
7.139440
 20
6.901400
  0
VERTEX
  8
0
  6
CONTINUOUS
 10
7.178160
 20
6.536200
  0
VERTEX
  8
0
  6
CONTINUOUS
 10
7.176840
 20
6.532240
  0
VERTEX
  8
0
  6
CONTINUOUS
 10
7.143400
 20
6.523000
  0
VERTEX
  8
0
  6
CONTINUOUS
 10
7.140760
 20
6.519040
  0
VERTEX
  8
0
  6
CONTINUOUS
 10
7.176840
 20
6.168360
  0
VERTEX
  8
0
  6
CONTINUOUS
 10
7.174200
 20
6.169680
  0
VERTEX
  8
0
  6
CONTINUOUS
 10
7.139440
 20
6.156040
  0
VERTEX
  8
0
  6
CONTINUOUS
 10
7.182120
 20
5.785560
  0
VERTEX
  8
0
  6
CONTINUOUS
 10
7.183440
 20
5.782920
  0
VERTEX
  8
0
  6
CONTINUOUS
 10
7.143400
 20
5.776320
  0
VERTEX
  8
0
  6
CONTINUOUS
 10
7.139440
 20
5.776320
  0
VERTEX
  8
0
  6
CONTINUOUS
 10
7.182120
 20
5.417720
  0
VERTEX
  8
0
  6
CONTINUOUS
 10
7.139440
 20
5.400120
  0
VERTEX
  8
0
  6
CONTINUOUS
 10
7.182120
 20
5.046800
  0
VERTEX
  8
0
  6
CONTINUOUS
 10
7.152640
 20
5.029640
  0
VERTEX
  8
0
  6
CONTINUOUS
 10
7.195320
 20
4.672360
  0
VERTEX
  8
0
  6
CONTINUOUS
 10
7.160560
 20
4.658720
  0
VERTEX
  8
0
  6
CONTINUOUS
 10
7.207200
 20
4.305400
  0
VERTEX
  8
0
  6
CONTINUOUS
 10
7.164520
 20
4.288240
  0
VERTEX
  8
0
  6
CONTINUOUS
 10
7.211160
 20
3.917760
  0
VERTEX
  8
0
  6
CONTINUOUS
 10
7.211160
 20
3.920400
  0
VERTEX
  8
0
  6
CONTINUOUS
 10
7.178160
 20
3.898840
  0
VERTEX
  8
0
  6
CONTINUOUS
 10
7.216880
 20
3.553440
  0
VERTEX
  8
0
  6
CONTINUOUS
 10
7.178160
 20
3.545520
  0
VERTEX
  8
0
  6
CONTINUOUS
 10
7.211160
 20
3.179000
  0
VERTEX
  8
0
  6
CONTINUOUS
 10
7.178160
 20
3.161400
  0
VERTEX
  8
0
  6
CONTINUOUS
 10
7.220840
 20
2.817760
  0
VERTEX
  8
0
  6
CONTINUOUS
 10
7.186080
 20
2.804120
  0
VERTEX
  8
0
  6
CONTINUOUS
 10
7.224800
 20
2.433640
  0
VERTEX
  8
0
  6
CONTINUOUS
 10
7.223480
 20
2.429680
  0
VERTEX
  8
0
  6
CONTINUOUS
 10
7.190040
 20
2.429680
  0
VERTEX
  8
0
  6
CONTINUOUS
 10
7.186080
 20
2.428360
  0
VERTEX
  8
0
  6
CONTINUOUS
 10
7.224800
 20
2.057440
  0
VERTEX
  8
0
  6
CONTINUOUS
 10
7.190040
 20
2.052160
  0
VERTEX
  8
0
  6
CONTINUOUS
 10
7.224800
 20
1.673760
  0
VERTEX
  8
0
  6
CONTINUOUS
 10
7.190040
 20
1.669800
  0
VERTEX
  8
0
  6
CONTINUOUS
 10
7.186080
 20
1.668040
  0
VERTEX
  8
0
  6
CONTINUOUS
 10
7.232720
 20
1.292280
  0
VERTEX
  8
0
  6
CONTINUOUS
 10
7.224800
 20
1.293600
  0
SEQEND
  8
0
  0
SOLID
  8
0
 62
    15
 10
4.769160
 20
1.298440
 11
5.405400
 21
1.657040
 12
4.815800
 22
0.922240
 13
5.452040
 23
1.281280
  0
POLYLINE
  8
0
  6
CONTINUOUS
 66
     1
 40
0.000000
 41
0.000000
  0
VERTEX
  8
0
  6
CONTINUOUS
 10
4.769160
 20
1.298440
  0
VERTEX
  8
0
  6
CONTINUOUS
 10
5.405400
 20
1.657040
  0
VERTEX
  8
0
  6
CONTINUOUS
 10
5.452040
 20
1.281280
  0
VERTEX
  8
0
  6
CONTINUOUS
 10
4.815800
 20
0.922240
  0
VERTEX
  8
0
  6
CONTINUOUS
 10
4.769160
 20
1.298440
  0
SEQEND
  8
0
  0
SOLID
  8
0
 62
    15
 10
4.773120
 20
1.682120
 11
5.409360
 21
2.041160
 12
4.807440
 22
1.303720
 13
5.444120
 23
1.662320
  0
POLYLINE
  8
0
  6
CONTINUOUS
 66
     1
 40
0.000000
 41
0.000000
  0
VERTEX
  8
0
  6
CONTINUOUS
 10
4.773120
 20
1.682120
  0
VERTEX
  8
0
  6
CONTINUOUS
 10
5.409360
 20
2.041160
  0
VERTEX
  8
0
  6
CONTINUOUS
 10
5.444120
 20
1.662320
  0
VERTEX
  8
0
  6
CONTINUOUS
 10
4.807440
 20
1.303720
  0
VERTEX
  8
0
  6
CONTINUOUS
 10
4.773120
 20
1.682120
  0
SEQEND
  8
0
  0
SOLID
  8
0
 62
    15
 10
4.726480
 20
6.152960
 11
5.362720
 21
6.512000
 12
4.723840
 22
6.149000
 13
5.360080
 23
6.508040
  0
POLYLINE
  8
0
  6
CONTINUOUS
 66
     1
 40
0.000000
 41
0.000000
  0
VERTEX
  8
0
  6
CONTINUOUS
 10
4.726480
 20
6.152960
  0
VERTEX
  8
0
  6
CONTINUOUS
 10
5.362720
 20
6.512000
  0
VERTEX
  8
0
  6
CONTINUOUS
 10
5.360080
 20
6.508040
  0
VERTEX
  8
0
  6
CONTINUOUS
 10
4.723840
 20
6.149000
  0
VERTEX
  8
0
  6
CONTINUOUS
 10
4.726480
 20
6.152960
  0
SEQEND
  8
0
  0
SOLID
  8
0
 62
    15
 10
4.722520
 20
5.030080
 11
5.358760
 21
5.389120
 12
4.764760
 22
4.676760
 13
5.401440
 23
5.035800
  0
POLYLINE
  8
0
  6
CONTINUOUS
 66
     1
 40
0.000000
 41
0.000000
  0
VERTEX
  8
0
  6
CONTINUOUS
 10
4.722520
 20
5.030080
  0
VERTEX
  8
0
  6
CONTINUOUS
 10
5.358760
 20
5.389120
  0
VERTEX
  8
0
  6
CONTINUOUS
 10
5.401440
 20
5.035800
  0
VERTEX
  8
0
  6
CONTINUOUS
 10
4.764760
 20
4.676760
  0
VERTEX
  8
0
  6
CONTINUOUS
 10
4.722520
 20
5.030080
  0
SEQEND
  8
0
  0
SOLID
  8
0
 62
    15
 10
4.722520
 20
5.406280
 11
5.358760
 21
5.765320
 12
4.764760
 22
5.047680
 13
5.401440
 23
5.406720
  0
POLYLINE
  8
0
  6
CONTINUOUS
 66
     1
 40
0.000000
 41
0.000000
  0
VERTEX
  8
0
  6
CONTINUOUS
 10
4.722520
 20
5.406280
  0
VERTEX
  8
0
  6
CONTINUOUS
 10
5.358760
 20
5.765320
  0
VERTEX
  8
0
  6
CONTINUOUS
 10
5.401440
 20
5.406720
  0
VERTEX
  8
0
  6
CONTINUOUS
 10
4.764760
 20
5.047680
  0
VERTEX
  8
0
  6
CONTINUOUS
 10
4.722520
 20
5.406280
  0
SEQEND
  8
0
  0
SOLID
  8
0
 62
    15
 10
4.722520
 20
5.786440
 11
5.358760
 21
6.145040
 12
4.764760
 22
5.415520
 13
5.401440
 23
5.774560
  0
POLYLINE
  8
0
  6
CONTINUOUS
 66
     1
 40
0.000000
 41
0.000000
  0
VERTEX
  8
0
  6
CONTINUOUS
 10
4.722520
 20
5.786440
  0
VERTEX
  8
0
  6
CONTINUOUS
 10
5.358760
 20
6.145040
  0
VERTEX
  8
0
  6
CONTINUOUS
 10
5.401440
 20
5.774560
  0
VERTEX
  8
0
  6
CONTINUOUS
 10
4.764760
 20
5.415520
  0
VERTEX
  8
0
  6
CONTINUOUS
 10
4.722520
 20
5.786440
  0
SEQEND
  8
0
  0
SOLID
  8
0
 62
    15
 10
4.723840
 20
6.149000
 11
5.360080
 21
6.508040
 12
4.759480
 22
5.798320
 13
5.396160
 23
6.157360
  0
POLYLINE
  8
0
  6
CONTINUOUS
 66
     1
 40
0.000000
 41
0.000000
  0
VERTEX
  8
0
  6
CONTINUOUS
 10
4.723840
 20
6.149000
  0
VERTEX
  8
0
  6
CONTINUOUS
 10
5.360080
 20
6.508040
  0
VERTEX
  8
0
  6
CONTINUOUS
 10
5.396160
 20
6.157360
  0
VERTEX
  8
0
  6
CONTINUOUS
 10
4.759480
 20
5.798320
  0
VERTEX
  8
0
  6
CONTINUOUS
 10
4.723840
 20
6.149000
  0
SEQEND
  8
0
  0
SOLID
  8
0
 62
    15
 10
4.760800
 20
6.166160
 11
5.397480
 21
6.525200
 12
4.759480
 22
6.162200
 13
5.396160
 23
6.521240
  0
POLYLINE
  8
0
  6
CONTINUOUS
 66
     1
 40
0.000000
 41
0.000000
  0
VERTEX
  8
0
  6
CONTINUOUS
 10
4.760800
 20
6.166160
  0
VERTEX
  8
0
  6
CONTINUOUS
 10
5.397480
 20
6.525200
  0
VERTEX
  8
0
  6
CONTINUOUS
 10
5.396160
 20
6.521240
  0
VERTEX
  8
0
  6
CONTINUOUS
 10
4.759480
 20
6.162200
  0
VERTEX
  8
0
  6
CONTINUOUS
 10
4.760800
 20
6.166160
  0
SEQEND
  8
0
  0
SOLID
  8
0
 62
    15
 10
4.764760
 20
5.415520
 11
5.401440
 21
5.774560
 12
4.766520
 22
5.412880
 13
5.402760
 23
5.771920
  0
POLYLINE
  8
0
  6
CONTINUOUS
 66
     1
 40
0.000000
 41
0.000000
  0
VERTEX
  8
0
  6
CONTINUOUS
 10
4.764760
 20
5.415520
  0
VERTEX
  8
0
  6
CONTINUOUS
 10
5.401440
 20
5.774560
  0
VERTEX
  8
0
  6
CONTINUOUS
 10
5.402760
 20
5.771920
  0
VERTEX
  8
0
  6
CONTINUOUS
 10
4.766520
 20
5.412880
  0
VERTEX
  8
0
  6
CONTINUOUS
 10
4.764760
 20
5.415520
  0
SEQEND
  8
0
  0
SOLID
  8
0
 62
    15
 10
4.722520
 20
6.531360
 11
5.358760
 21
6.890400
 12
4.760800
 22
6.166160
 13
5.397480
 23
6.525200
  0
POLYLINE
  8
0
  6
CONTINUOUS
 66
     1
 40
0.000000
 41
0.000000
  0
VERTEX
  8
0
  6
CONTINUOUS
 10
4.722520
 20
6.531360
  0
VERTEX
  8
0
  6
CONTINUOUS
 10
5.358760
 20
6.890400
  0
VERTEX
  8
0
  6
CONTINUOUS
 10
5.397480
 20
6.525200
  0
VERTEX
  8
0
  6
CONTINUOUS
 10
4.760800
 20
6.166160
  0
VERTEX
  8
0
  6
CONTINUOUS
 10
4.722520
 20
6.531360
  0
SEQEND
  8
0
  0
SOLID
  8
0
 62
    15
 10
4.038320
 20
6.903600
 11
4.674560
 21
7.262640
 12
4.714160
 22
6.903600
 13
5.350840
 23
7.262640
  0
POLYLINE
  8
0
  6
CONTINUOUS
 66
     1
 40
0.000000
 41
0.000000
  0
VERTEX
  8
0
  6
CONTINUOUS
 10
4.038320
 20
6.903600
  0
VERTEX
  8
0
  6
CONTINUOUS
 10
4.674560
 20
7.262640
  0
VERTEX
  8
0
  6
CONTINUOUS
 10
5.350840
 20
7.262640
  0
VERTEX
  8
0
  6
CONTINUOUS
 10
4.714160
 20
6.903600
  0
VERTEX
  8
0
  6
CONTINUOUS
 10
4.038320
 20
6.903600
  0
SEQEND
  8
0
  0
SOLID
  8
0
 62
    15
 10
4.764760
 20
4.676760
 11
5.401440
 21
5.035800
 12
4.735720
 22
4.659600
 13
5.371960
 23
5.018640
  0
POLYLINE
  8
0
  6
CONTINUOUS
 66
     1
 40
0.000000
 41
0.000000
  0
VERTEX
  8
0
  6
CONTINUOUS
 10
4.764760
 20
4.676760
  0
VERTEX
  8
0
  6
CONTINUOUS
 10
5.401440
 20
5.035800
  0
VERTEX
  8
0
  6
CONTINUOUS
 10
5.371960
 20
5.018640
  0
VERTEX
  8
0
  6
CONTINUOUS
 10
4.735720
 20
4.659600
  0
VERTEX
  8
0
  6
CONTINUOUS
 10
4.764760
 20
4.676760
  0
SEQEND
  8
0
  0
SOLID
  8
0
 62
    15
 10
4.714160
 20
6.903600
 11
5.350840
 21
7.262640
 12
4.756840
 22
6.531360
 13
5.393520
 23
6.890400
  0
POLYLINE
  8
0
  6
CONTINUOUS
 66
     1
 40
0.000000
 41
0.000000
  0
VERTEX
  8
0
  6
CONTINUOUS
 10
4.714160
 20
6.903600
  0
VERTEX
  8
0
  6
CONTINUOUS
 10
5.350840
 20
7.262640
  0
VERTEX
  8
0
  6
CONTINUOUS
 10
5.393520
 20
6.890400
  0
VERTEX
  8
0
  6
CONTINUOUS
 10
4.756840
 20
6.531360
  0
VERTEX
  8
0
  6
CONTINUOUS
 10
4.714160
 20
6.903600
  0
SEQEND
  8
0
  0
SOLID
  8
0
 62
    15
 10
4.769160
 20
2.058320
 11
5.405400
 21
2.417360
 12
4.807880
 22
1.687400
 13
5.444120
 23
2.046440
  0
POLYLINE
  8
0
  6
CONTINUOUS
 66
     1
 40
0.000000
 41
0.000000
  0
VERTEX
  8
0
  6
CONTINUOUS
 10
4.769160
 20
2.058320
  0
VERTEX
  8
0
  6
CONTINUOUS
 10
5.405400
 20
2.417360
  0
VERTEX
  8
0
  6
CONTINUOUS
 10
5.444120
 20
2.046440
  0
VERTEX
  8
0
  6
CONTINUOUS
 10
4.807880
 20
1.687400
  0
VERTEX
  8
0
  6
CONTINUOUS
 10
4.769160
 20
2.058320
  0
SEQEND
  8
0
  0
SOLID
  8
0
 62
    15
 10
4.769160
 20
2.434080
 11
5.405400
 21
2.793120
 12
4.807880
 22
2.063600
 13
5.444120
 23
2.422640
  0
POLYLINE
  8
0
  6
CONTINUOUS
 66
     1
 40
0.000000
 41
0.000000
  0
VERTEX
  8
0
  6
CONTINUOUS
 10
4.769160
 20
2.434080
  0
VERTEX
  8
0
  6
CONTINUOUS
 10
5.405400
 20
2.793120
  0
VERTEX
  8
0
  6
CONTINUOUS
 10
5.444120
 20
2.422640
  0
VERTEX
  8
0
  6
CONTINUOUS
 10
4.807880
 20
2.063600
  0
VERTEX
  8
0
  6
CONTINUOUS
 10
4.769160
 20
2.434080
  0
SEQEND
  8
0
  0
SOLID
  8
0
 62
    15
 10
4.761240
 20
2.791360
 11
5.397480
 21
3.150400
 12
4.803480
 22
2.447720
 13
5.440160
 23
2.806760
  0
POLYLINE
  8
0
  6
CONTINUOUS
 66
     1
 40
0.000000
 41
0.000000
  0
VERTEX
  8
0
  6
CONTINUOUS
 10
4.761240
 20
2.791360
  0
VERTEX
  8
0
  6
CONTINUOUS
 10
5.397480
 20
3.150400
  0
VERTEX
  8
0
  6
CONTINUOUS
 10
5.440160
 20
2.806760
  0
VERTEX
  8
0
  6
CONTINUOUS
 10
4.803480
 20
2.447720
  0
VERTEX
  8
0
  6
CONTINUOUS
 10
4.761240
 20
2.791360
  0
SEQEND
  8
0
  0
SOLID
  8
0
 62
    15
 10
4.761240
 20
3.175480
 11
5.397480
 21
3.534520
 12
4.794240
 22
2.808960
 13
5.430480
 23
3.168000
  0
POLYLINE
  8
0
  6
CONTINUOUS
 66
     1
 40
0.000000
 41
0.000000
  0
VERTEX
  8
0
  6
CONTINUOUS
 10
4.761240
 20
3.175480
  0
VERTEX
  8
0
  6
CONTINUOUS
 10
5.397480
 20
3.534520
  0
VERTEX
  8
0
  6
CONTINUOUS
 10
5.430480
 20
3.168000
  0
VERTEX
  8
0
  6
CONTINUOUS
 10
4.794240
 20
2.808960
  0
VERTEX
  8
0
  6
CONTINUOUS
 10
4.761240
 20
3.175480
  0
SEQEND
  8
0
  0
SOLID
  8
0
 62
    15
 10
4.761240
 20
3.528800
 11
5.397480
 21
3.887840
 12
4.799520
 22
3.183400
 13
5.436200
 23
3.542440
  0
POLYLINE
  8
0
  6
CONTINUOUS
 66
     1
 40
0.000000
 41
0.000000
  0
VERTEX
  8
0
  6
CONTINUOUS
 10
4.761240
 20
3.528800
  0
VERTEX
  8
0
  6
CONTINUOUS
 10
5.397480
 20
3.887840
  0
VERTEX
  8
0
  6
CONTINUOUS
 10
5.436200
 20
3.542440
  0
VERTEX
  8
0
  6
CONTINUOUS
 10
4.799520
 20
3.183400
  0
VERTEX
  8
0
  6
CONTINUOUS
 10
4.761240
 20
3.528800
  0
SEQEND
  8
0
  0
SOLID
  8
0
 62
    15
 10
5.430480
 20
3.908960
 11
5.430480
 21
3.906760
 12
4.793800
 22
3.549920
 13
4.794240
 23
3.547720
  0
POLYLINE
  8
0
  6
CONTINUOUS
 66
     1
 40
0.000000
 41
0.000000
  0
VERTEX
  8
0
  6
CONTINUOUS
 10
5.430480
 20
3.908960
  0
VERTEX
  8
0
  6
CONTINUOUS
 10
5.430480
 20
3.906760
  0
VERTEX
  8
0
  6
CONTINUOUS
 10
4.794240
 20
3.547720
  0
VERTEX
  8
0
  6
CONTINUOUS
 10
4.793800
 20
3.549920
  0
VERTEX
  8
0
  6
CONTINUOUS
 10
5.430480
 20
3.908960
  0
SEQEND
  8
0
  0
SOLID
  8
0
 62
    15
 10
4.794240
 20
3.550360
 11
5.430480
 21
3.909400
 12
4.761240
 22
3.528800
 13
5.397480
 23
3.887840
  0
POLYLINE
  8
0
  6
CONTINUOUS
 66
     1
 40
0.000000
 41
0.000000
  0
VERTEX
  8
0
  6
CONTINUOUS
 10
4.794240
 20
3.550360
  0
VERTEX
  8
0
  6
CONTINUOUS
 10
5.430480
 20
3.909400
  0
VERTEX
  8
0
  6
CONTINUOUS
 10
5.397480
 20
3.887840
  0
VERTEX
  8
0
  6
CONTINUOUS
 10
4.761240
 20
3.528800
  0
VERTEX
  8
0
  6
CONTINUOUS
 10
4.794240
 20
3.550360
  0
SEQEND
  8
0
  0
SOLID
  8
0
 62
    15
 10
4.807880
 20
2.063600
 11
5.444120
 21
2.422640
 12
4.806120
 22
2.059640
 13
5.442800
 23
2.418680
  0
POLYLINE
  8
0
  6
CONTINUOUS
 66
     1
 40
0.000000
 41
0.000000
  0
VERTEX
  8
0
  6
CONTINUOUS
 10
4.807880
 20
2.063600
  0
VERTEX
  8
0
  6
CONTINUOUS
 10
5.444120
 20
2.422640
  0
VERTEX
  8
0
  6
CONTINUOUS
 10
5.442800
 20
2.418680
  0
VERTEX
  8
0
  6
CONTINUOUS
 10
4.806120
 20
2.059640
  0
VERTEX
  8
0
  6
CONTINUOUS
 10
4.807880
 20
2.063600
  0
SEQEND
  8
0
  0
SOLID
  8
0
 62
    15
 10
4.747600
 20
3.918200
 11
5.383840
 21
4.277240
 12
4.793800
 22
3.549920
 13
5.430480
 23
3.908960
  0
POLYLINE
  8
0
  6
CONTINUOUS
 66
     1
 40
0.000000
 41
0.000000
  0
VERTEX
  8
0
  6
CONTINUOUS
 10
4.747600
 20
3.918200
  0
VERTEX
  8
0
  6
CONTINUOUS
 10
5.383840
 20
4.277240
  0
VERTEX
  8
0
  6
CONTINUOUS
 10
5.430480
 20
3.908960
  0
VERTEX
  8
0
  6
CONTINUOUS
 10
4.793800
 20
3.549920
  0
VERTEX
  8
0
  6
CONTINUOUS
 10
4.747600
 20
3.918200
  0
SEQEND
  8
0
  0
SOLID
  8
0
 62
    15
 10
4.743640
 20
4.288680
 11
5.379880
 21
4.647720
 12
4.790280
 22
3.935360
 13
5.426520
 23
4.294400
  0
POLYLINE
  8
0
  6
CONTINUOUS
 66
     1
 40
0.000000
 41
0.000000
  0
VERTEX
  8
0
  6
CONTINUOUS
 10
4.743640
 20
4.288680
  0
VERTEX
  8
0
  6
CONTINUOUS
 10
5.379880
 20
4.647720
  0
VERTEX
  8
0
  6
CONTINUOUS
 10
5.426520
 20
4.294400
  0
VERTEX
  8
0
  6
CONTINUOUS
 10
4.790280
 20
3.935360
  0
VERTEX
  8
0
  6
CONTINUOUS
 10
4.743640
 20
4.288680
  0
SEQEND
  8
0
  0
SOLID
  8
0
 62
    15
 10
4.735720
 20
4.659600
 11
5.371960
 21
5.018640
 12
4.778400
 22
4.302320
 13
5.414640
 23
4.661360
  0
POLYLINE
  8
0
  6
CONTINUOUS
 66
     1
 40
0.000000
 41
0.000000
  0
VERTEX
  8
0
  6
CONTINUOUS
 10
4.735720
 20
4.659600
  0
VERTEX
  8
0
  6
CONTINUOUS
 10
5.371960
 20
5.018640
  0
VERTEX
  8
0
  6
CONTINUOUS
 10
5.414640
 20
4.661360
  0
VERTEX
  8
0
  6
CONTINUOUS
 10
4.778400
 20
4.302320
  0
VERTEX
  8
0
  6
CONTINUOUS
 10
4.735720
 20
4.659600
  0
SEQEND
  8
0
  0
POLYLINE
  8
0
  6
CONTINUOUS
 66
     1
 40
0.000000
 41
0.000000
  0
VERTEX
  8
0
  6
CONTINUOUS
 10
4.807440
 20
0.923560
  0
VERTEX
  8
0
  6
CONTINUOUS
 10
4.037000
 20
0.923560
  0
VERTEX
  8
0
  6
CONTINUOUS
 10
4.037000
 20
6.902280
  0
VERTEX
  8
0
  6
CONTINUOUS
 10
4.038320
 20
6.903600
  0
VERTEX
  8
0
  6
CONTINUOUS
 10
4.714160
 20
6.903600
  0
VERTEX
  8
0
  6
CONTINUOUS
 10
4.756840
 20
6.531360
  0
VERTEX
  8
0
  6
CONTINUOUS
 10
4.722520
 20
6.531360
  0
VERTEX
  8
0
  6
CONTINUOUS
 10
4.760800
 20
6.166160
  0
VERTEX
  8
0
  6
CONTINUOUS
 10
4.759480
 20
6.162200
  0
VERTEX
  8
0
  6
CONTINUOUS
 10
4.726480
 20
6.152960
  0
VERTEX
  8
0
  6
CONTINUOUS
 10
4.723840
 20
6.149000
  0
VERTEX
  8
0
  6
CONTINUOUS
 10
4.759480
 20
5.798320
  0
VERTEX
  8
0
  6
CONTINUOUS
 10
4.756840
 20
5.799640
  0
VERTEX
  8
0
  6
CONTINUOUS
 10
4.722520
 20
5.786440
  0
VERTEX
  8
0
  6
CONTINUOUS
 10
4.764760
 20
5.415520
  0
VERTEX
  8
0
  6
CONTINUOUS
 10
4.766520
 20
5.412880
  0
VERTEX
  8
0
  6
CONTINUOUS
 10
4.726480
 20
5.406280
  0
VERTEX
  8
0
  6
CONTINUOUS
 10
4.722520
 20
5.406280
  0
VERTEX
  8
0
  6
CONTINUOUS
 10
4.764760
 20
5.047680
  0
VERTEX
  8
0
  6
CONTINUOUS
 10
4.722520
 20
5.030080
  0
VERTEX
  8
0
  6
CONTINUOUS
 10
4.764760
 20
4.676760
  0
VERTEX
  8
0
  6
CONTINUOUS
 10
4.735720
 20
4.659600
  0
VERTEX
  8
0
  6
CONTINUOUS
 10
4.778400
 20
4.302320
  0
VERTEX
  8
0
  6
CONTINUOUS
 10
4.743640
 20
4.288680
  0
VERTEX
  8
0
  6
CONTINUOUS
 10
4.790280
 20
3.935360
  0
VERTEX
  8
0
  6
CONTINUOUS
 10
4.747600
 20
3.918200
  0
VERTEX
  8
0
  6
CONTINUOUS
 10
4.794240
 20
3.547720
  0
VERTEX
  8
0
  6
CONTINUOUS
 10
4.794240
 20
3.550360
  0
VERTEX
  8
0
  6
CONTINUOUS
 10
4.761240
 20
3.528800
  0
VERTEX
  8
0
  6
CONTINUOUS
 10
4.799520
 20
3.183400
  0
VERTEX
  8
0
  6
CONTINUOUS
 10
4.761240
 20
3.175480
  0
VERTEX
  8
0
  6
CONTINUOUS
 10
4.794240
 20
2.808960
  0
VERTEX
  8
0
  6
CONTINUOUS
 10
4.761240
 20
2.791360
  0
VERTEX
  8
0
  6
CONTINUOUS
 10
4.803480
 20
2.447720
  0
VERTEX
  8
0
  6
CONTINUOUS
 10
4.769160
 20
2.434080
  0
VERTEX
  8
0
  6
CONTINUOUS
 10
4.807880
 20
2.063600
  0
VERTEX
  8
0
  6
CONTINUOUS
 10
4.806120
 20
2.059640
  0
VERTEX
  8
0
  6
CONTINUOUS
 10
4.773120
 20
2.059640
  0
VERTEX
  8
0
  6
CONTINUOUS
 10
4.769160
 20
2.058320
  0
VERTEX
  8
0
  6
CONTINUOUS
 10
4.807880
 20
1.687400
  0
VERTEX
  8
0
  6
CONTINUOUS
 10
4.773120
 20
1.682120
  0
VERTEX
  8
0
  6
CONTINUOUS
 10
4.807440
 20
1.303720
  0
VERTEX
  8
0
  6
CONTINUOUS
 10
4.773120
 20
1.299760
  0
VERTEX
  8
0
  6
CONTINUOUS
 10
4.769160
 20
1.298440
  0
VERTEX
  8
0
  6
CONTINUOUS
 10
4.815800
 20
0.922240
  0
VERTEX
  8
0
  6
CONTINUOUS
 10
4.807440
 20
0.923560
  0
SEQEND
  8
0
  0
TEXT
  8
0
 10
4.449280
 20
0.606320
 40
0.138048
  1
BA  198
 41
1.000000
  7
SN0
 71
     0
 72
     5
 11
5.039716
 21
0.606320
  0
TEXT
  8
0
 10
4.436520
 20
0.414480
 40
0.138048
  1
3/4" x 6"
 41
1.000000
  7
SN0
 71
     0
 72
     5
 11
5.051879
 21
0.414480
  0
TEXT
  8
0
 10
7.755880
 20
7.240200
 40
0.138048
  1
trim
 41
1.000000
  7
SN0
 71
     0
 72
     5
 11
8.033195
 21
7.240200
  0
TEXT
  8
0
 10
7.755880
 20
7.048360
 40
0.138048
  1
198
 41
1.000000
  7
SN0
 71
     0
 72
     5
 11
8.033195
 21
7.048360
  0
ENDSEC
  0
EOF
