  0
SECTION
  2
HEADER
  9
$ACADVER
  1
AC1006
  9
$EXTMIN
 10
0.632280
 20
0.393800
  9
$EXTMAX
 10
8.056840
 20
5.311240
  9
$LTSCALE
 40
0.044000
  9
$PDMODE
 70
    35
  9
$PDSIZE
 40
0.035200
  0
ENDSEC
  0
SECTION
  2
TABLES
  0
TABLE
  2
LTYPE
 70
     9
  0
LTYPE
  2
CONTINUOUS
 70
    64
  3
Solid line
 72
    65
 73
     0
 40
0.000000
  0
LTYPE
  2
DASHED
 70
    64
  3
__ __ __ __ __ __ __ __ __ __ __ __ __ __ __
 72
    65
 73
     2
 40
0.000330
 49
0.000220
 49
-0.000110
  0
LTYPE
  2
HIDDEN
 70
    64
  3
 _ _ _ _ _ _ _ _ _ _ _ _ _ _ _ _ _ _ _ _ _ _
 72
    65
 73
     2
 40
0.000165
 49
0.000110
 49
-0.000055
  0
LTYPE
  2
CENTER
 70
    64
  3
____ _ ____ _ ____ _ ____ _ ____ _ ____ _ ____
 72
    65
 73
     4
 40
0.000880
 49
0.000550
 49
-0.000110
 49
0.000110
 49
-0.000110
  0
LTYPE
  2
PHANTOM
 70
    64
  3
_____ _ _ _____ _ _ _____ _ _ _____ _ _ ____
 72
    65
 73
     6
 40
0.001100
 49
0.000550
 49
-0.000110
 49
0.000110
 49
-0.000110
 49
0.000110
 49
-0.000110
  0
LTYPE
  2
DOT
 70
    64
  3
...............................................
 72
    65
 73
     2
 40
0.000110
 49
0.000000
 49
-0.000110
  0
LTYPE
  2
DASHDOT
 70
    64
  3
__ . __ . __ . __ . __ . __ . __ . __ . __ . __
 72
    65
 73
     4
 40
0.000440
 49
0.000220
 49
-0.000110
 49
0.000000
 49
-0.000110
  0
LTYPE
  2
BORDER
 70
    64
  3
__ __ . __ __ . __ __ . __ __ . __ __ . __ __
 72
    65
 73
     6
 40
0.000770
 49
0.000220
 49
-0.000110
 49
0.000220
 49
-0.000110
 49
0.000000
 49
-0.000110
  0
LTYPE
  2
DIVIDE
 70
    64
  3
__ . . __ . . __ . . __ . . __ . . __ . . __
 72
    65
 73
     6
 40
0.000550
 49
0.000220
 49
-0.000110
 49
0.000000
 49
-0.000110
 49
0.000000
 49
-0.000110
  0
LTYPE
  2
DOTDOT
 70
    64
  3
 . .  . .  . .  . .  . .  . . 
 72
    65
 73
     5
 40
0.000242
 49
-0.000110
 49
0.000000
 49
-0.000110
 49
0.000000
 49
-0.000110
  0
ENDTAB
  0
TABLE
  2
STYLE
 70
     4
  0
STYLE
 70
     0
  2
SN0
 40
0.000000
 41
0.000440
 50
0.000000
 71
     0
 42
0.000000
  3
ROMAND
  0
STYLE
 70
    68
  2
SV0
 40
0.000000
 41
0.000440
 50
0.000000
 71
     0
 42
0.000000
  3
ROMAND
  0
STYLE
 70
     0
  2
SN1
 40
0.000000
 41
0.000440
 50
0.000000
 71
     0
 42
0.000000
  3
ROMAND
  0
STYLE
 70
    68
  2
SV1
 40
0.000000
 41
0.000440
 50
0.000000
 71
     0
 42
0.000000
  3
ROMAND
  0
ENDTAB
  0
TABLE
  2
LAYER
 70
     3
  0
LAYER
  2
FOREGROUND
 70
    64
 62
     7
  6
CONTINUOUS
  0
LAYER
  2
BACKGROUND
 70
    65
 62
    -7
  6
CONTINUOUS
  0
LAYER
  2
0
 70
    64
 62
     7
  6
CONTINUOUS
  0
ENDTAB
  0
ENDSEC
  0
SECTION
  2
ENTITIES
  0
POLYLINE
  8
FOREGROUND
  6
CONTINUOUS
 66
     1
 40
0.000000
 41
0.000000
  0
VERTEX
  8
FOREGROUND
  6
CONTINUOUS
 10
0.000000
 20
5.705040
  0
VERTEX
  8
FOREGROUND
  6
CONTINUOUS
 10
8.499920
 20
5.705040
  0
VERTEX
  8
FOREGROUND
  6
CONTINUOUS
 10
8.499920
 20
-5.294960
  0
VERTEX
  8
FOREGROUND
  6
CONTINUOUS
 10
0.000000
 20
-5.294960
  0
VERTEX
  8
FOREGROUND
  6
CONTINUOUS
 10
0.000000
 20
5.705040
  0
SEQEND
  8
0
  0
POLYLINE
  8
FOREGROUND
  6
CONTINUOUS
 66
     1
 40
0.000000
 41
0.000000
  0
VERTEX
  8
FOREGROUND
  6
CONTINUOUS
 10
0.000000
 20
5.705040
  0
VERTEX
  8
FOREGROUND
  6
CONTINUOUS
 10
8.499920
 20
5.705040
  0
VERTEX
  8
FOREGROUND
  6
CONTINUOUS
 10
8.499920
 20
-5.294960
  0
VERTEX
  8
FOREGROUND
  6
CONTINUOUS
 10
0.000000
 20
-5.294960
  0
VERTEX
  8
FOREGROUND
  6
CONTINUOUS
 10
0.000000
 20
5.705040
  0
SEQEND
  8
0
  0
POLYLINE
  8
0
  6
CONTINUOUS
 66
     1
 40
0.013200
 41
0.013200
  0
VERTEX
  8
0
  6
CONTINUOUS
 10
6.017880
 20
3.533200
  0
VERTEX
  8
0
  6
CONTINUOUS
 10
6.017880
 20
3.542440
  0
SEQEND
  8
0
  0
POLYLINE
  8
0
  6
CONTINUOUS
 66
     1
 40
0.013200
 41
0.013200
  0
VERTEX
  8
0
  6
CONTINUOUS
 10
5.489880
 20
4.176920
  0
VERTEX
  8
0
  6
CONTINUOUS
 10
5.489880
 20
3.779600
  0
SEQEND
  8
0
  0
POLYLINE
  8
0
  6
CONTINUOUS
 66
     1
 40
0.013200
 41
0.013200
  0
VERTEX
  8
0
  6
CONTINUOUS
 10
5.489880
 20
3.779600
  0
VERTEX
  8
0
  6
CONTINUOUS
 10
5.420800
 20
3.779600
  0
SEQEND
  8
0
  0
POLYLINE
  8
0
  6
CONTINUOUS
 66
     1
 40
0.013200
 41
0.013200
  0
VERTEX
  8
0
  6
CONTINUOUS
 10
5.419480
 20
3.779600
  0
VERTEX
  8
0
  6
CONTINUOUS
 10
5.419480
 20
3.541120
  0
SEQEND
  8
0
  0
POLYLINE
  8
0
  6
CONTINUOUS
 66
     1
 40
0.013200
 41
0.013200
  0
VERTEX
  8
0
  6
CONTINUOUS
 10
5.440600
 20
3.542440
  0
VERTEX
  8
0
  6
CONTINUOUS
 10
5.420800
 20
3.542440
  0
SEQEND
  8
0
  0
POLYLINE
  8
0
  6
CONTINUOUS
 66
     1
 40
0.013200
 41
0.013200
  0
VERTEX
  8
0
  6
CONTINUOUS
 10
5.427400
 20
3.542440
  0
VERTEX
  8
0
  6
CONTINUOUS
 10
5.489880
 20
3.542440
  0
SEQEND
  8
0
  0
POLYLINE
  8
0
  6
CONTINUOUS
 66
     1
 40
0.013200
 41
0.013200
  0
VERTEX
  8
0
  6
CONTINUOUS
 10
5.489880
 20
3.542440
  0
VERTEX
  8
0
  6
CONTINUOUS
 10
5.489880
 20
3.131920
  0
SEQEND
  8
0
  0
POLYLINE
  8
0
  6
CONTINUOUS
 66
     1
 40
0.013200
 41
0.013200
  0
VERTEX
  8
0
  6
CONTINUOUS
 10
5.747280
 20
2.974400
  0
VERTEX
  8
0
  6
CONTINUOUS
 10
5.747280
 20
2.977040
  0
SEQEND
  8
0
  0
POLYLINE
  8
0
  6
CONTINUOUS
 66
     1
 40
0.013200
 41
0.013200
  0
VERTEX
  8
0
  6
CONTINUOUS
 10
5.745960
 20
2.979680
  0
VERTEX
  8
0
  6
CONTINUOUS
 10
5.745960
 20
3.542440
  0
SEQEND
  8
0
  0
POLYLINE
  8
0
  6
CONTINUOUS
 66
     1
 40
0.013200
 41
0.013200
  0
VERTEX
  8
0
  6
CONTINUOUS
 10
5.745960
 20
3.542440
  0
VERTEX
  8
0
  6
CONTINUOUS
 10
5.683480
 20
3.542440
  0
SEQEND
  8
0
  0
POLYLINE
  8
0
  6
CONTINUOUS
 66
     1
 40
0.013200
 41
0.013200
  0
VERTEX
  8
0
  6
CONTINUOUS
 10
5.679520
 20
3.542440
  0
VERTEX
  8
0
  6
CONTINUOUS
 10
5.679520
 20
3.779600
  0
SEQEND
  8
0
  0
POLYLINE
  8
0
  6
CONTINUOUS
 66
     1
 40
0.013200
 41
0.013200
  0
VERTEX
  8
0
  6
CONTINUOUS
 10
5.679520
 20
3.779600
  0
VERTEX
  8
0
  6
CONTINUOUS
 10
5.745960
 20
3.779600
  0
SEQEND
  8
0
  0
POLYLINE
  8
0
  6
CONTINUOUS
 66
     1
 40
0.013200
 41
0.013200
  0
VERTEX
  8
0
  6
CONTINUOUS
 10
5.745960
 20
3.779600
  0
VERTEX
  8
0
  6
CONTINUOUS
 10
5.745960
 20
4.337080
  0
SEQEND
  8
0
  0
POLYLINE
  8
0
  6
CONTINUOUS
 66
     1
 40
0.013200
 41
0.013200
  0
VERTEX
  8
0
  6
CONTINUOUS
 10
6.017880
 20
4.451480
  0
VERTEX
  8
0
  6
CONTINUOUS
 10
6.017880
 20
3.779600
  0
SEQEND
  8
0
  0
POLYLINE
  8
0
  6
CONTINUOUS
 66
     1
 40
0.013200
 41
0.013200
  0
VERTEX
  8
0
  6
CONTINUOUS
 10
6.017880
 20
3.779600
  0
VERTEX
  8
0
  6
CONTINUOUS
 10
5.944840
 20
3.779600
  0
SEQEND
  8
0
  0
POLYLINE
  8
0
  6
CONTINUOUS
 66
     1
 40
0.013200
 41
0.013200
  0
VERTEX
  8
0
  6
CONTINUOUS
 10
5.944840
 20
3.779600
  0
VERTEX
  8
0
  6
CONTINUOUS
 10
5.944840
 20
3.542440
  0
SEQEND
  8
0
  0
POLYLINE
  8
0
  6
CONTINUOUS
 66
     1
 40
0.013200
 41
0.013200
  0
VERTEX
  8
0
  6
CONTINUOUS
 10
5.944840
 20
3.542440
  0
VERTEX
  8
0
  6
CONTINUOUS
 10
6.017880
 20
3.542440
  0
SEQEND
  8
0
  0
POLYLINE
  8
0
  6
CONTINUOUS
 66
     1
 40
0.013200
 41
0.013200
  0
VERTEX
  8
0
  6
CONTINUOUS
 10
6.017880
 20
3.538480
  0
VERTEX
  8
0
  6
CONTINUOUS
 10
6.017880
 20
2.846360
  0
SEQEND
  8
0
  0
POLYLINE
  8
0
  6
CONTINUOUS
 66
     1
 40
0.013200
 41
0.013200
  0
VERTEX
  8
0
  6
CONTINUOUS
 10
6.283200
 20
2.846360
  0
VERTEX
  8
0
  6
CONTINUOUS
 10
6.283200
 20
3.542440
  0
SEQEND
  8
0
  0
POLYLINE
  8
0
  6
CONTINUOUS
 66
     1
 40
0.013200
 41
0.013200
  0
VERTEX
  8
0
  6
CONTINUOUS
 10
6.283200
 20
3.542440
  0
VERTEX
  8
0
  6
CONTINUOUS
 10
6.220720
 20
3.542440
  0
SEQEND
  8
0
  0
POLYLINE
  8
0
  6
CONTINUOUS
 66
     1
 40
0.013200
 41
0.013200
  0
VERTEX
  8
0
  6
CONTINUOUS
 10
6.216760
 20
3.542440
  0
VERTEX
  8
0
  6
CONTINUOUS
 10
6.216760
 20
3.553000
  0
SEQEND
  8
0
  0
POLYLINE
  8
0
  6
CONTINUOUS
 66
     1
 40
0.013200
 41
0.013200
  0
VERTEX
  8
0
  6
CONTINUOUS
 10
6.216760
 20
3.547720
  0
VERTEX
  8
0
  6
CONTINUOUS
 10
6.216760
 20
3.775640
  0
SEQEND
  8
0
  0
POLYLINE
  8
0
  6
CONTINUOUS
 66
     1
 40
0.013200
 41
0.013200
  0
VERTEX
  8
0
  6
CONTINUOUS
 10
6.216760
 20
3.767720
  0
VERTEX
  8
0
  6
CONTINUOUS
 10
6.216760
 20
3.779600
  0
SEQEND
  8
0
  0
POLYLINE
  8
0
  6
CONTINUOUS
 66
     1
 40
0.013200
 41
0.013200
  0
VERTEX
  8
0
  6
CONTINUOUS
 10
6.216760
 20
3.779600
  0
VERTEX
  8
0
  6
CONTINUOUS
 10
6.283200
 20
3.779600
  0
SEQEND
  8
0
  0
POLYLINE
  8
0
  6
CONTINUOUS
 66
     1
 40
0.013200
 41
0.013200
  0
VERTEX
  8
0
  6
CONTINUOUS
 10
6.283200
 20
3.780920
  0
VERTEX
  8
0
  6
CONTINUOUS
 10
6.283200
 20
4.515720
  0
SEQEND
  8
0
  0
POLYLINE
  8
0
  6
CONTINUOUS
 66
     1
 40
0.013200
 41
0.013200
  0
VERTEX
  8
0
  6
CONTINUOUS
 10
6.544560
 20
4.535520
  0
VERTEX
  8
0
  6
CONTINUOUS
 10
6.524772
 20
4.533629
  0
VERTEX
  8
0
  6
CONTINUOUS
 10
6.502343
 20
4.532338
  0
VERTEX
  8
0
  6
CONTINUOUS
 10
6.477237
 20
4.531337
  0
VERTEX
  8
0
  6
CONTINUOUS
 10
6.449414
 20
4.530320
  0
VERTEX
  8
0
  6
CONTINUOUS
 10
6.418839
 20
4.528977
  0
VERTEX
  8
0
  6
CONTINUOUS
 10
6.385474
 20
4.527002
  0
VERTEX
  8
0
  6
CONTINUOUS
 10
6.349282
 20
4.524086
  0
VERTEX
  8
0
  6
CONTINUOUS
 10
6.310224
 20
4.519921
  0
VERTEX
  8
0
  6
CONTINUOUS
 10
6.268265
 20
4.514200
  0
VERTEX
  8
0
  6
CONTINUOUS
 10
6.223366
 20
4.506615
  0
VERTEX
  8
0
  6
CONTINUOUS
 10
6.175490
 20
4.496857
  0
VERTEX
  8
0
  6
CONTINUOUS
 10
6.124600
 20
4.484619
  0
VERTEX
  8
0
  6
CONTINUOUS
 10
6.070659
 20
4.469593
  0
VERTEX
  8
0
  6
CONTINUOUS
 10
6.013629
 20
4.451470
  0
VERTEX
  8
0
  6
CONTINUOUS
 10
5.953473
 20
4.429944
  0
VERTEX
  8
0
  6
CONTINUOUS
 10
5.890153
 20
4.404706
  0
VERTEX
  8
0
  6
CONTINUOUS
 10
5.823633
 20
4.375448
  0
VERTEX
  8
0
  6
CONTINUOUS
 10
5.753874
 20
4.341862
  0
VERTEX
  8
0
  6
CONTINUOUS
 10
5.680840
 20
4.303640
  0
SEQEND
  8
0
  0
POLYLINE
  8
0
  6
CONTINUOUS
 66
     1
 40
0.013200
 41
0.013200
  0
VERTEX
  8
0
  6
CONTINUOUS
 10
5.680840
 20
4.303640
  0
VERTEX
  8
0
  6
CONTINUOUS
 10
5.634571
 20
4.278080
  0
VERTEX
  8
0
  6
CONTINUOUS
 10
5.591125
 20
4.251744
  0
VERTEX
  8
0
  6
CONTINUOUS
 10
5.550447
 20
4.224677
  0
VERTEX
  8
0
  6
CONTINUOUS
 10
5.512483
 20
4.196925
  0
VERTEX
  8
0
  6
CONTINUOUS
 10
5.477180
 20
4.168532
  0
VERTEX
  8
0
  6
CONTINUOUS
 10
5.444482
 20
4.139546
  0
VERTEX
  8
0
  6
CONTINUOUS
 10
5.414337
 20
4.110010
  0
VERTEX
  8
0
  6
CONTINUOUS
 10
5.386690
 20
4.079971
  0
VERTEX
  8
0
  6
CONTINUOUS
 10
5.361487
 20
4.049475
  0
VERTEX
  8
0
  6
CONTINUOUS
 10
5.338674
 20
4.018567
  0
VERTEX
  8
0
  6
CONTINUOUS
 10
5.318197
 20
3.987291
  0
VERTEX
  8
0
  6
CONTINUOUS
 10
5.300002
 20
3.955695
  0
VERTEX
  8
0
  6
CONTINUOUS
 10
5.284036
 20
3.923824
  0
VERTEX
  8
0
  6
CONTINUOUS
 10
5.270243
 20
3.891722
  0
VERTEX
  8
0
  6
CONTINUOUS
 10
5.258570
 20
3.859436
  0
VERTEX
  8
0
  6
CONTINUOUS
 10
5.248964
 20
3.827012
  0
VERTEX
  8
0
  6
CONTINUOUS
 10
5.241369
 20
3.794494
  0
VERTEX
  8
0
  6
CONTINUOUS
 10
5.235733
 20
3.761928
  0
VERTEX
  8
0
  6
CONTINUOUS
 10
5.232000
 20
3.729360
  0
VERTEX
  8
0
  6
CONTINUOUS
 10
5.230117
 20
3.696836
  0
VERTEX
  8
0
  6
CONTINUOUS
 10
5.230031
 20
3.664400
  0
VERTEX
  8
0
  6
CONTINUOUS
 10
5.231686
 20
3.632099
  0
VERTEX
  8
0
  6
CONTINUOUS
 10
5.235029
 20
3.599978
  0
VERTEX
  8
0
  6
CONTINUOUS
 10
5.240006
 20
3.568082
  0
VERTEX
  8
0
  6
CONTINUOUS
 10
5.246562
 20
3.536458
  0
VERTEX
  8
0
  6
CONTINUOUS
 10
5.254645
 20
3.505150
  0
VERTEX
  8
0
  6
CONTINUOUS
 10
5.264199
 20
3.474204
  0
VERTEX
  8
0
  6
CONTINUOUS
 10
5.275172
 20
3.443667
  0
VERTEX
  8
0
  6
CONTINUOUS
 10
5.287508
 20
3.413582
  0
VERTEX
  8
0
  6
CONTINUOUS
 10
5.301153
 20
3.383997
  0
VERTEX
  8
0
  6
CONTINUOUS
 10
5.316055
 20
3.354956
  0
VERTEX
  8
0
  6
CONTINUOUS
 10
5.332158
 20
3.326504
  0
VERTEX
  8
0
  6
CONTINUOUS
 10
5.349409
 20
3.298689
  0
VERTEX
  8
0
  6
CONTINUOUS
 10
5.367754
 20
3.271554
  0
VERTEX
  8
0
  6
CONTINUOUS
 10
5.387138
 20
3.245146
  0
VERTEX
  8
0
  6
CONTINUOUS
 10
5.407508
 20
3.219510
  0
VERTEX
  8
0
  6
CONTINUOUS
 10
5.428810
 20
3.194692
  0
VERTEX
  8
0
  6
CONTINUOUS
 10
5.450989
 20
3.170737
  0
VERTEX
  8
0
  6
CONTINUOUS
 10
5.473992
 20
3.147691
  0
VERTEX
  8
0
  6
CONTINUOUS
 10
5.497764
 20
3.125600
  0
VERTEX
  8
0
  6
CONTINUOUS
 10
5.522252
 20
3.104508
  0
VERTEX
  8
0
  6
CONTINUOUS
 10
5.547402
 20
3.084462
  0
VERTEX
  8
0
  6
CONTINUOUS
 10
5.573159
 20
3.065506
  0
VERTEX
  8
0
  6
CONTINUOUS
 10
5.599470
 20
3.047688
  0
VERTEX
  8
0
  6
CONTINUOUS
 10
5.626280
 20
3.031051
  0
VERTEX
  8
0
  6
CONTINUOUS
 10
5.653536
 20
3.015642
  0
VERTEX
  8
0
  6
CONTINUOUS
 10
5.681183
 20
3.001506
  0
VERTEX
  8
0
  6
CONTINUOUS
 10
5.709167
 20
2.988689
  0
VERTEX
  8
0
  6
CONTINUOUS
 10
5.737435
 20
2.977237
  0
VERTEX
  8
0
  6
CONTINUOUS
 10
5.765933
 20
2.967194
  0
VERTEX
  8
0
  6
CONTINUOUS
 10
5.794606
 20
2.958606
  0
VERTEX
  8
0
  6
CONTINUOUS
 10
5.823400
 20
2.951520
  0
SEQEND
  8
0
  0
POLYLINE
  8
0
  6
CONTINUOUS
 66
     1
 40
0.013200
 41
0.013200
  0
VERTEX
  8
0
  6
CONTINUOUS
 10
5.823400
 20
2.951520
  0
VERTEX
  8
0
  6
CONTINUOUS
 10
5.876184
 20
2.927043
  0
VERTEX
  8
0
  6
CONTINUOUS
 10
5.909510
 20
2.898264
  0
VERTEX
  8
0
  6
CONTINUOUS
 10
5.923280
 20
2.845040
  0
SEQEND
  8
0
  0
POLYLINE
  8
0
  6
CONTINUOUS
 66
     1
 40
0.013200
 41
0.013200
  0
VERTEX
  8
0
  6
CONTINUOUS
 10
5.923280
 20
2.845040
  0
VERTEX
  8
0
  6
CONTINUOUS
 10
7.166280
 20
2.845040
  0
SEQEND
  8
0
  0
POLYLINE
  8
0
  6
CONTINUOUS
 66
     1
 40
0.013200
 41
0.013200
  0
VERTEX
  8
0
  6
CONTINUOUS
 10
7.166280
 20
2.845040
  0
VERTEX
  8
0
  6
CONTINUOUS
 10
7.166280
 20
2.849000
  0
SEQEND
  8
0
  0
POLYLINE
  8
0
  6
CONTINUOUS
 66
     1
 40
0.013200
 41
0.013200
  0
VERTEX
  8
0
  6
CONTINUOUS
 10
7.166280
 20
2.849000
  0
VERTEX
  8
0
  6
CONTINUOUS
 10
7.180295
 20
2.900855
  0
VERTEX
  8
0
  6
CONTINUOUS
 10
7.214159
 20
2.927092
  0
VERTEX
  8
0
  6
CONTINUOUS
 10
7.267480
 20
2.950200
  0
SEQEND
  8
0
  0
POLYLINE
  8
0
  6
CONTINUOUS
 66
     1
 40
0.013200
 41
0.013200
  0
VERTEX
  8
0
  6
CONTINUOUS
 10
7.267480
 20
2.950200
  0
VERTEX
  8
0
  6
CONTINUOUS
 10
7.296274
 20
2.957286
  0
VERTEX
  8
0
  6
CONTINUOUS
 10
7.324947
 20
2.965874
  0
VERTEX
  8
0
  6
CONTINUOUS
 10
7.353445
 20
2.975917
  0
VERTEX
  8
0
  6
CONTINUOUS
 10
7.381713
 20
2.987369
  0
VERTEX
  8
0
  6
CONTINUOUS
 10
7.409697
 20
3.000186
  0
VERTEX
  8
0
  6
CONTINUOUS
 10
7.437344
 20
3.014322
  0
VERTEX
  8
0
  6
CONTINUOUS
 10
7.464600
 20
3.029731
  0
VERTEX
  8
0
  6
CONTINUOUS
 10
7.491410
 20
3.046368
  0
VERTEX
  8
0
  6
CONTINUOUS
 10
7.517721
 20
3.064186
  0
VERTEX
  8
0
  6
CONTINUOUS
 10
7.543478
 20
3.083142
  0
VERTEX
  8
0
  6
CONTINUOUS
 10
7.568628
 20
3.103188
  0
VERTEX
  8
0
  6
CONTINUOUS
 10
7.593116
 20
3.124280
  0
VERTEX
  8
0
  6
CONTINUOUS
 10
7.616888
 20
3.146371
  0
VERTEX
  8
0
  6
CONTINUOUS
 10
7.639891
 20
3.169417
  0
VERTEX
  8
0
  6
CONTINUOUS
 10
7.662070
 20
3.193372
  0
VERTEX
  8
0
  6
CONTINUOUS
 10
7.683372
 20
3.218190
  0
VERTEX
  8
0
  6
CONTINUOUS
 10
7.703742
 20
3.243826
  0
VERTEX
  8
0
  6
CONTINUOUS
 10
7.723126
 20
3.270234
  0
VERTEX
  8
0
  6
CONTINUOUS
 10
7.741471
 20
3.297369
  0
VERTEX
  8
0
  6
CONTINUOUS
 10
7.758722
 20
3.325184
  0
VERTEX
  8
0
  6
CONTINUOUS
 10
7.774825
 20
3.353636
  0
VERTEX
  8
0
  6
CONTINUOUS
 10
7.789727
 20
3.382677
  0
VERTEX
  8
0
  6
CONTINUOUS
 10
7.803372
 20
3.412262
  0
VERTEX
  8
0
  6
CONTINUOUS
 10
7.815708
 20
3.442347
  0
VERTEX
  8
0
  6
CONTINUOUS
 10
7.826681
 20
3.472884
  0
VERTEX
  8
0
  6
CONTINUOUS
 10
7.836235
 20
3.503830
  0
VERTEX
  8
0
  6
CONTINUOUS
 10
7.844318
 20
3.535138
  0
VERTEX
  8
0
  6
CONTINUOUS
 10
7.850874
 20
3.566762
  0
VERTEX
  8
0
  6
CONTINUOUS
 10
7.855851
 20
3.598658
  0
VERTEX
  8
0
  6
CONTINUOUS
 10
7.859194
 20
3.630779
  0
VERTEX
  8
0
  6
CONTINUOUS
 10
7.860849
 20
3.663080
  0
VERTEX
  8
0
  6
CONTINUOUS
 10
7.860763
 20
3.695516
  0
VERTEX
  8
0
  6
CONTINUOUS
 10
7.858880
 20
3.728040
  0
VERTEX
  8
0
  6
CONTINUOUS
 10
7.855147
 20
3.760608
  0
VERTEX
  8
0
  6
CONTINUOUS
 10
7.849511
 20
3.793174
  0
VERTEX
  8
0
  6
CONTINUOUS
 10
7.841916
 20
3.825692
  0
VERTEX
  8
0
  6
CONTINUOUS
 10
7.832310
 20
3.858116
  0
VERTEX
  8
0
  6
CONTINUOUS
 10
7.820637
 20
3.890402
  0
VERTEX
  8
0
  6
CONTINUOUS
 10
7.806844
 20
3.922504
  0
VERTEX
  8
0
  6
CONTINUOUS
 10
7.790878
 20
3.954375
  0
VERTEX
  8
0
  6
CONTINUOUS
 10
7.772683
 20
3.985971
  0
VERTEX
  8
0
  6
CONTINUOUS
 10
7.752206
 20
4.017247
  0
VERTEX
  8
0
  6
CONTINUOUS
 10
7.729393
 20
4.048155
  0
VERTEX
  8
0
  6
CONTINUOUS
 10
7.704190
 20
4.078651
  0
VERTEX
  8
0
  6
CONTINUOUS
 10
7.676543
 20
4.108690
  0
VERTEX
  8
0
  6
CONTINUOUS
 10
7.646398
 20
4.138226
  0
VERTEX
  8
0
  6
CONTINUOUS
 10
7.613700
 20
4.167212
  0
VERTEX
  8
0
  6
CONTINUOUS
 10
7.578397
 20
4.195605
  0
VERTEX
  8
0
  6
CONTINUOUS
 10
7.540433
 20
4.223357
  0
VERTEX
  8
0
  6
CONTINUOUS
 10
7.499755
 20
4.250424
  0
VERTEX
  8
0
  6
CONTINUOUS
 10
7.456309
 20
4.276760
  0
VERTEX
  8
0
  6
CONTINUOUS
 10
7.410040
 20
4.302320
  0
SEQEND
  8
0
  0
POLYLINE
  8
0
  6
CONTINUOUS
 66
     1
 40
0.013200
 41
0.013200
  0
VERTEX
  8
0
  6
CONTINUOUS
 10
7.410040
 20
4.302320
  0
VERTEX
  8
0
  6
CONTINUOUS
 10
7.336944
 20
4.340542
  0
VERTEX
  8
0
  6
CONTINUOUS
 10
7.267136
 20
4.374128
  0
VERTEX
  8
0
  6
CONTINUOUS
 10
7.200577
 20
4.403386
  0
VERTEX
  8
0
  6
CONTINUOUS
 10
7.137230
 20
4.428624
  0
VERTEX
  8
0
  6
CONTINUOUS
 10
7.077054
 20
4.450150
  0
VERTEX
  8
0
  6
CONTINUOUS
 10
7.020012
 20
4.468273
  0
VERTEX
  8
0
  6
CONTINUOUS
 10
6.966064
 20
4.483299
  0
VERTEX
  8
0
  6
CONTINUOUS
 10
6.915171
 20
4.495537
  0
VERTEX
  8
0
  6
CONTINUOUS
 10
6.867294
 20
4.505295
  0
VERTEX
  8
0
  6
CONTINUOUS
 10
6.822395
 20
4.512880
  0
VERTEX
  8
0
  6
CONTINUOUS
 10
6.780435
 20
4.518601
  0
VERTEX
  8
0
  6
CONTINUOUS
 10
6.741374
 20
4.522766
  0
VERTEX
  8
0
  6
CONTINUOUS
 10
6.705175
 20
4.525682
  0
VERTEX
  8
0
  6
CONTINUOUS
 10
6.671797
 20
4.527657
  0
VERTEX
  8
0
  6
CONTINUOUS
 10
6.641203
 20
4.529000
  0
VERTEX
  8
0
  6
CONTINUOUS
 10
6.613353
 20
4.530017
  0
VERTEX
  8
0
  6
CONTINUOUS
 10
6.588208
 20
4.531018
  0
VERTEX
  8
0
  6
CONTINUOUS
 10
6.565730
 20
4.532309
  0
VERTEX
  8
0
  6
CONTINUOUS
 10
6.545880
 20
4.534200
  0
SEQEND
  8
0
  0
POLYLINE
  8
0
  6
CONTINUOUS
 66
     1
 40
0.013200
 41
0.013200
  0
VERTEX
  8
0
  6
CONTINUOUS
 10
6.544560
 20
4.531560
  0
VERTEX
  8
0
  6
CONTINUOUS
 10
6.544560
 20
3.780920
  0
SEQEND
  8
0
  0
POLYLINE
  8
0
  6
CONTINUOUS
 66
     1
 40
0.013200
 41
0.013200
  0
VERTEX
  8
0
  6
CONTINUOUS
 10
6.547200
 20
3.779600
  0
VERTEX
  8
0
  6
CONTINUOUS
 10
6.607480
 20
3.779600
  0
SEQEND
  8
0
  0
POLYLINE
  8
0
  6
CONTINUOUS
 66
     1
 40
0.013200
 41
0.013200
  0
VERTEX
  8
0
  6
CONTINUOUS
 10
6.608800
 20
3.778280
  0
VERTEX
  8
0
  6
CONTINUOUS
 10
6.608800
 20
3.546400
  0
SEQEND
  8
0
  0
POLYLINE
  8
0
  6
CONTINUOUS
 66
     1
 40
0.013200
 41
0.013200
  0
VERTEX
  8
0
  6
CONTINUOUS
 10
6.608800
 20
3.546400
  0
VERTEX
  8
0
  6
CONTINUOUS
 10
6.608800
 20
3.541120
  0
SEQEND
  8
0
  0
POLYLINE
  8
0
  6
CONTINUOUS
 66
     1
 40
0.013200
 41
0.013200
  0
VERTEX
  8
0
  6
CONTINUOUS
 10
6.608800
 20
3.541120
  0
VERTEX
  8
0
  6
CONTINUOUS
 10
6.546320
 20
3.541120
  0
SEQEND
  8
0
  0
POLYLINE
  8
0
  6
CONTINUOUS
 66
     1
 40
0.013200
 41
0.013200
  0
VERTEX
  8
0
  6
CONTINUOUS
 10
6.545880
 20
3.541120
  0
VERTEX
  8
0
  6
CONTINUOUS
 10
6.545880
 20
3.535840
  0
SEQEND
  8
0
  0
POLYLINE
  8
0
  6
CONTINUOUS
 66
     1
 40
0.013200
 41
0.013200
  0
VERTEX
  8
0
  6
CONTINUOUS
 10
6.545880
 20
3.537160
  0
VERTEX
  8
0
  6
CONTINUOUS
 10
6.545880
 20
2.845040
  0
SEQEND
  8
0
  0
POLYLINE
  8
0
  6
CONTINUOUS
 66
     1
 40
0.013200
 41
0.013200
  0
VERTEX
  8
0
  6
CONTINUOUS
 10
6.807240
 20
2.845040
  0
VERTEX
  8
0
  6
CONTINUOUS
 10
6.807240
 20
3.541120
  0
SEQEND
  8
0
  0
POLYLINE
  8
0
  6
CONTINUOUS
 66
     1
 40
0.013200
 41
0.013200
  0
VERTEX
  8
0
  6
CONTINUOUS
 10
6.807240
 20
3.541120
  0
VERTEX
  8
0
  6
CONTINUOUS
 10
6.870160
 20
3.541120
  0
SEQEND
  8
0
  0
POLYLINE
  8
0
  6
CONTINUOUS
 66
     1
 40
0.013200
 41
0.013200
  0
VERTEX
  8
0
  6
CONTINUOUS
 10
6.874120
 20
3.541120
  0
VERTEX
  8
0
  6
CONTINUOUS
 10
6.864880
 20
3.541120
  0
SEQEND
  8
0
  0
POLYLINE
  8
0
  6
CONTINUOUS
 66
     1
 40
0.013200
 41
0.013200
  0
VERTEX
  8
0
  6
CONTINUOUS
 10
6.874120
 20
3.541120
  0
VERTEX
  8
0
  6
CONTINUOUS
 10
6.874120
 20
3.545080
  0
SEQEND
  8
0
  0
POLYLINE
  8
0
  6
CONTINUOUS
 66
     1
 40
0.013200
 41
0.013200
  0
VERTEX
  8
0
  6
CONTINUOUS
 10
6.874120
 20
3.546400
  0
VERTEX
  8
0
  6
CONTINUOUS
 10
6.874120
 20
3.774320
  0
SEQEND
  8
0
  0
POLYLINE
  8
0
  6
CONTINUOUS
 66
     1
 40
0.013200
 41
0.013200
  0
VERTEX
  8
0
  6
CONTINUOUS
 10
6.874120
 20
3.778280
  0
VERTEX
  8
0
  6
CONTINUOUS
 10
6.807240
 20
3.778280
  0
SEQEND
  8
0
  0
POLYLINE
  8
0
  6
CONTINUOUS
 66
     1
 40
0.013200
 41
0.013200
  0
VERTEX
  8
0
  6
CONTINUOUS
 10
6.807240
 20
3.778280
  0
VERTEX
  8
0
  6
CONTINUOUS
 10
6.807240
 20
4.510440
  0
SEQEND
  8
0
  0
POLYLINE
  8
0
  6
CONTINUOUS
 66
     1
 40
0.013200
 41
0.013200
  0
VERTEX
  8
0
  6
CONTINUOUS
 10
6.807240
 20
4.506480
  0
VERTEX
  8
0
  6
CONTINUOUS
 10
6.807240
 20
4.514400
  0
SEQEND
  8
0
  0
POLYLINE
  8
0
  6
CONTINUOUS
 66
     1
 40
0.013200
 41
0.013200
  0
VERTEX
  8
0
  6
CONTINUOUS
 10
7.072560
 20
4.448840
  0
VERTEX
  8
0
  6
CONTINUOUS
 10
7.072560
 20
3.778280
  0
SEQEND
  8
0
  0
POLYLINE
  8
0
  6
CONTINUOUS
 66
     1
 40
0.013200
 41
0.013200
  0
VERTEX
  8
0
  6
CONTINUOUS
 10
7.072560
 20
3.778280
  0
VERTEX
  8
0
  6
CONTINUOUS
 10
7.146040
 20
3.778280
  0
SEQEND
  8
0
  0
POLYLINE
  8
0
  6
CONTINUOUS
 66
     1
 40
0.013200
 41
0.013200
  0
VERTEX
  8
0
  6
CONTINUOUS
 10
7.146040
 20
3.778280
  0
VERTEX
  8
0
  6
CONTINUOUS
 10
7.146040
 20
3.541120
  0
SEQEND
  8
0
  0
POLYLINE
  8
0
  6
CONTINUOUS
 66
     1
 40
0.013200
 41
0.013200
  0
VERTEX
  8
0
  6
CONTINUOUS
 10
7.146040
 20
3.541120
  0
VERTEX
  8
0
  6
CONTINUOUS
 10
7.072560
 20
3.541120
  0
SEQEND
  8
0
  0
POLYLINE
  8
0
  6
CONTINUOUS
 66
     1
 40
0.013200
 41
0.013200
  0
VERTEX
  8
0
  6
CONTINUOUS
 10
7.072560
 20
3.541120
  0
VERTEX
  8
0
  6
CONTINUOUS
 10
7.072560
 20
3.533200
  0
SEQEND
  8
0
  0
POLYLINE
  8
0
  6
CONTINUOUS
 66
     1
 40
0.013200
 41
0.013200
  0
VERTEX
  8
0
  6
CONTINUOUS
 10
7.072560
 20
3.537160
  0
VERTEX
  8
0
  6
CONTINUOUS
 10
7.072560
 20
2.845040
  0
SEQEND
  8
0
  0
POLYLINE
  8
0
  6
CONTINUOUS
 66
     1
 40
0.013200
 41
0.013200
  0
VERTEX
  8
0
  6
CONTINUOUS
 10
7.344920
 20
2.970440
  0
VERTEX
  8
0
  6
CONTINUOUS
 10
7.344920
 20
3.541120
  0
SEQEND
  8
0
  0
POLYLINE
  8
0
  6
CONTINUOUS
 66
     1
 40
0.013200
 41
0.013200
  0
VERTEX
  8
0
  6
CONTINUOUS
 10
7.344920
 20
3.541120
  0
VERTEX
  8
0
  6
CONTINUOUS
 10
7.407400
 20
3.541120
  0
SEQEND
  8
0
  0
POLYLINE
  8
0
  6
CONTINUOUS
 66
     1
 40
0.013200
 41
0.013200
  0
VERTEX
  8
0
  6
CONTINUOUS
 10
7.411360
 20
3.541120
  0
VERTEX
  8
0
  6
CONTINUOUS
 10
7.411360
 20
3.778280
  0
SEQEND
  8
0
  0
POLYLINE
  8
0
  6
CONTINUOUS
 66
     1
 40
0.013200
 41
0.013200
  0
VERTEX
  8
0
  6
CONTINUOUS
 10
7.411360
 20
3.778280
  0
VERTEX
  8
0
  6
CONTINUOUS
 10
7.344920
 20
3.778280
  0
SEQEND
  8
0
  0
POLYLINE
  8
0
  6
CONTINUOUS
 66
     1
 40
0.013200
 41
0.013200
  0
VERTEX
  8
0
  6
CONTINUOUS
 10
7.344920
 20
3.778280
  0
VERTEX
  8
0
  6
CONTINUOUS
 10
7.344920
 20
4.335760
  0
SEQEND
  8
0
  0
POLYLINE
  8
0
  6
CONTINUOUS
 66
     1
 40
0.013200
 41
0.013200
  0
VERTEX
  8
0
  6
CONTINUOUS
 10
7.601880
 20
4.175600
  0
VERTEX
  8
0
  6
CONTINUOUS
 10
7.601880
 20
3.779600
  0
SEQEND
  8
0
  0
POLYLINE
  8
0
  6
CONTINUOUS
 66
     1
 40
0.013200
 41
0.013200
  0
VERTEX
  8
0
  6
CONTINUOUS
 10
7.600560
 20
3.778280
  0
VERTEX
  8
0
  6
CONTINUOUS
 10
7.667440
 20
3.778280
  0
SEQEND
  8
0
  0
POLYLINE
  8
0
  6
CONTINUOUS
 66
     1
 40
0.013200
 41
0.013200
  0
VERTEX
  8
0
  6
CONTINUOUS
 10
7.670080
 20
3.778280
  0
VERTEX
  8
0
  6
CONTINUOUS
 10
7.670080
 20
3.542440
  0
SEQEND
  8
0
  0
POLYLINE
  8
0
  6
CONTINUOUS
 66
     1
 40
0.013200
 41
0.013200
  0
VERTEX
  8
0
  6
CONTINUOUS
 10
7.670080
 20
3.539800
  0
VERTEX
  8
0
  6
CONTINUOUS
 10
7.601880
 20
3.539800
  0
SEQEND
  8
0
  0
POLYLINE
  8
0
  6
CONTINUOUS
 66
     1
 40
0.013200
 41
0.013200
  0
VERTEX
  8
0
  6
CONTINUOUS
 10
7.600560
 20
3.541120
  0
VERTEX
  8
0
  6
CONTINUOUS
 10
7.600560
 20
3.130160
  0
SEQEND
  8
0
  0
TEXT
  8
0
 10
6.071560
 20
2.634720
 40
0.138164
  1
195 Bending
 41
1.000000
  7
SN0
 71
     0
 72
     5
 11
7.005198
 21
2.634720
  0
POLYLINE
  8
0
  6
CONTINUOUS
 66
     1
 40
0.014080
 41
0.014080
  0
VERTEX
  8
0
  6
CONTINUOUS
 10
2.272160
 20
5.050320
  0
VERTEX
  8
0
  6
CONTINUOUS
 10
2.205720
 20
5.045920
  0
VERTEX
  8
0
  6
CONTINUOUS
 10
2.094400
 20
5.040200
  0
VERTEX
  8
0
  6
CONTINUOUS
 10
2.024880
 20
5.032720
  0
VERTEX
  8
0
  6
CONTINUOUS
 10
1.946560
 20
5.020400
  0
VERTEX
  8
0
  6
CONTINUOUS
 10
1.858560
 20
5.000600
  0
VERTEX
  8
0
  6
CONTINUOUS
 10
1.794760
 20
4.983000
  0
VERTEX
  8
0
  6
CONTINUOUS
 10
1.690480
 20
4.948240
  0
VERTEX
  8
0
  6
CONTINUOUS
 10
1.576520
 20
4.901600
  0
VERTEX
  8
0
  6
CONTINUOUS
 10
1.494680
 20
4.863320
  0
VERTEX
  8
0
  6
CONTINUOUS
 10
1.370600
 20
4.797760
  0
VERTEX
  8
0
  6
CONTINUOUS
 10
1.334520
 20
4.776640
  0
VERTEX
  8
0
  6
CONTINUOUS
 10
1.268520
 20
4.732640
  0
VERTEX
  8
0
  6
CONTINUOUS
 10
1.209120
 20
4.686880
  0
VERTEX
  8
0
  6
CONTINUOUS
 10
1.156760
 20
4.639800
  0
VERTEX
  8
0
  6
CONTINUOUS
 10
1.111000
 20
4.590960
  0
VERTEX
  8
0
  6
CONTINUOUS
 10
1.071840
 20
4.541240
  0
VERTEX
  8
0
  6
CONTINUOUS
 10
1.038840
 20
4.490200
  0
VERTEX
  8
0
  6
CONTINUOUS
 10
1.011560
 20
4.438720
  0
VERTEX
  8
0
  6
CONTINUOUS
 10
0.990440
 20
4.386360
  0
VERTEX
  8
0
  6
CONTINUOUS
 10
0.981640
 20
4.359960
  0
VERTEX
  8
0
  6
CONTINUOUS
 10
0.968440
 20
4.307160
  0
VERTEX
  8
0
  6
CONTINUOUS
 10
0.960520
 20
4.254360
  0
VERTEX
  8
0
  6
CONTINUOUS
 10
0.957440
 20
4.201560
  0
VERTEX
  8
0
  6
CONTINUOUS
 10
0.959200
 20
4.148760
  0
VERTEX
  8
0
  6
CONTINUOUS
 10
0.965360
 20
4.096840
  0
VERTEX
  8
0
  6
CONTINUOUS
 10
0.975480
 20
4.045360
  0
VERTEX
  8
0
  6
CONTINUOUS
 10
0.990000
 20
3.994760
  0
VERTEX
  8
0
  6
CONTINUOUS
 10
1.008040
 20
3.945040
  0
VERTEX
  8
0
  6
CONTINUOUS
 10
1.029600
 20
3.896640
  0
VERTEX
  8
0
  6
CONTINUOUS
 10
1.068320
 20
3.827120
  0
VERTEX
  8
0
  6
CONTINUOUS
 10
1.097800
 20
3.782680
  0
VERTEX
  8
0
  6
CONTINUOUS
 10
1.129920
 20
3.740440
  0
VERTEX
  8
0
  6
CONTINUOUS
 10
1.182720
 20
3.681040
  0
VERTEX
  8
0
  6
CONTINUOUS
 10
1.221000
 20
3.644080
  0
VERTEX
  8
0
  6
CONTINUOUS
 10
1.260600
 20
3.610200
  0
VERTEX
  8
0
  6
CONTINUOUS
 10
1.323960
 20
3.564440
  0
VERTEX
  8
0
  6
CONTINUOUS
 10
1.389520
 20
3.525720
  0
VERTEX
  8
0
  6
CONTINUOUS
 10
1.458160
 20
3.494480
  0
VERTEX
  8
0
  6
CONTINUOUS
 10
1.504360
 20
3.478640
  0
VERTEX
  8
0
  6
CONTINUOUS
 10
1.551000
 20
3.466320
  0
VERTEX
  8
0
  6
CONTINUOUS
 10
1.609080
 20
3.438600
  0
VERTEX
  8
0
  6
CONTINUOUS
 10
1.628880
 20
3.423200
  0
VERTEX
  8
0
  6
CONTINUOUS
 10
1.638560
 20
3.410440
  0
VERTEX
  8
0
  6
CONTINUOUS
 10
1.645600
 20
3.393720
  0
VERTEX
  8
0
  6
CONTINUOUS
 10
1.650000
 20
3.372160
  0
VERTEX
  8
0
  6
CONTINUOUS
 10
1.650880
 20
3.359400
  0
VERTEX
  8
0
  6
CONTINUOUS
 10
2.893880
 20
3.359400
  0
VERTEX
  8
0
  6
CONTINUOUS
 10
2.894760
 20
3.376120
  0
VERTEX
  8
0
  6
CONTINUOUS
 10
2.899160
 20
3.396800
  0
VERTEX
  8
0
  6
CONTINUOUS
 10
2.906640
 20
3.413080
  0
VERTEX
  8
0
  6
CONTINUOUS
 10
2.916320
 20
3.424960
  0
VERTEX
  8
0
  6
CONTINUOUS
 10
2.936560
 20
3.439040
  0
VERTEX
  8
0
  6
CONTINUOUS
 10
2.995080
 20
3.465000
  0
VERTEX
  8
0
  6
CONTINUOUS
 10
3.041720
 20
3.477320
  0
VERTEX
  8
0
  6
CONTINUOUS
 10
3.087920
 20
3.493160
  0
VERTEX
  8
0
  6
CONTINUOUS
 10
3.156560
 20
3.524400
  0
VERTEX
  8
0
  6
CONTINUOUS
 10
3.222120
 20
3.563120
  0
VERTEX
  8
0
  6
CONTINUOUS
 10
3.285480
 20
3.608880
  0
VERTEX
  8
0
  6
CONTINUOUS
 10
3.344440
 20
3.660800
  0
VERTEX
  8
0
  6
CONTINUOUS
 10
3.399000
 20
3.718880
  0
VERTEX
  8
0
  6
CONTINUOUS
 10
3.432440
 20
3.760240
  0
VERTEX
  8
0
  6
CONTINUOUS
 10
3.463240
 20
3.803360
  0
VERTEX
  8
0
  6
CONTINUOUS
 10
3.491400
 20
3.848680
  0
VERTEX
  8
0
  6
CONTINUOUS
 10
3.516480
 20
3.895320
  0
VERTEX
  8
0
  6
CONTINUOUS
 10
3.547720
 20
3.968360
  0
VERTEX
  8
0
  6
CONTINUOUS
 10
3.564000
 20
4.018520
  0
VERTEX
  8
0
  6
CONTINUOUS
 10
3.576320
 20
4.069560
  0
VERTEX
  8
0
  6
CONTINUOUS
 10
3.584240
 20
4.121040
  0
VERTEX
  8
0
  6
CONTINUOUS
 10
3.588200
 20
4.173400
  0
VERTEX
  8
0
  6
CONTINUOUS
 10
3.588640
 20
4.199800
  0
VERTEX
  8
0
  6
CONTINUOUS
 10
3.585560
 20
4.252600
  0
VERTEX
  8
0
  6
CONTINUOUS
 10
3.577640
 20
4.305840
  0
VERTEX
  8
0
  6
CONTINUOUS
 10
3.564440
 20
4.358640
  0
VERTEX
  8
0
  6
CONTINUOUS
 10
3.545960
 20
4.411000
  0
VERTEX
  8
0
  6
CONTINUOUS
 10
3.521760
 20
4.462920
  0
VERTEX
  8
0
  6
CONTINUOUS
 10
3.491400
 20
4.514400
  0
VERTEX
  8
0
  6
CONTINUOUS
 10
3.455320
 20
4.564560
  0
VERTEX
  8
0
  6
CONTINUOUS
 10
3.413080
 20
4.613840
  0
VERTEX
  8
0
  6
CONTINUOUS
 10
3.364240
 20
4.661800
  0
VERTEX
  8
0
  6
CONTINUOUS
 10
3.308360
 20
4.708440
  0
VERTEX
  8
0
  6
CONTINUOUS
 10
3.245440
 20
4.752880
  0
VERTEX
  8
0
  6
CONTINUOUS
 10
3.211560
 20
4.774880
  0
VERTEX
  8
0
  6
CONTINUOUS
 10
3.137640
 20
4.816680
  0
VERTEX
  8
0
  6
CONTINUOUS
 10
3.051400
 20
4.861560
  0
VERTEX
  8
0
  6
CONTINUOUS
 10
2.930400
 20
4.917000
  0
VERTEX
  8
0
  6
CONTINUOUS
 10
2.819520
 20
4.959680
  0
VERTEX
  8
0
  6
CONTINUOUS
 10
2.718760
 20
4.990920
  0
VERTEX
  8
0
  6
CONTINUOUS
 10
2.627680
 20
5.013360
  0
VERTEX
  8
0
  6
CONTINUOUS
 10
2.545840
 20
5.027880
  0
VERTEX
  8
0
  6
CONTINUOUS
 10
2.473680
 20
5.036680
  0
VERTEX
  8
0
  6
CONTINUOUS
 10
2.391400
 20
5.042400
  0
VERTEX
  8
0
  6
CONTINUOUS
 10
2.284920
 20
5.047680
  0
VERTEX
  8
0
  6
CONTINUOUS
 10
2.273480
 20
5.049000
  0
VERTEX
  8
0
  6
CONTINUOUS
 10
2.272160
 20
5.050320
  0
SEQEND
  8
0
  0
SOLID
  8
0
 62
    15
 10
3.202320
 20
1.424280
 11
3.848240
 21
1.798720
 12
3.152160
 22
1.330560
 13
3.798080
 23
1.705000
  0
POLYLINE
  8
0
  6
CONTINUOUS
 66
     1
 40
0.000000
 41
0.000000
  0
VERTEX
  8
0
  6
CONTINUOUS
 10
3.202320
 20
1.424280
  0
VERTEX
  8
0
  6
CONTINUOUS
 10
3.848240
 20
1.798720
  0
VERTEX
  8
0
  6
CONTINUOUS
 10
3.798080
 20
1.705000
  0
VERTEX
  8
0
  6
CONTINUOUS
 10
3.152160
 20
1.330560
  0
VERTEX
  8
0
  6
CONTINUOUS
 10
3.202320
 20
1.424280
  0
SEQEND
  8
0
  0
SOLID
  8
0
 62
    15
 10
1.999800
 20
2.549800
 11
2.645720
 21
2.924680
 12
2.031040
 22
2.548480
 13
2.676960
 23
2.923360
  0
POLYLINE
  8
0
  6
CONTINUOUS
 66
     1
 40
0.000000
 41
0.000000
  0
VERTEX
  8
0
  6
CONTINUOUS
 10
1.999800
 20
2.549800
  0
VERTEX
  8
0
  6
CONTINUOUS
 10
2.645720
 20
2.924680
  0
VERTEX
  8
0
  6
CONTINUOUS
 10
2.676960
 20
2.923360
  0
VERTEX
  8
0
  6
CONTINUOUS
 10
2.031040
 20
2.548480
  0
VERTEX
  8
0
  6
CONTINUOUS
 10
1.999800
 20
2.549800
  0
SEQEND
  8
0
  0
SOLID
  8
0
 62
    15
 10
2.031040
 20
2.548480
 11
2.676960
 21
2.923360
 12
2.066240
 22
2.547160
 13
2.712160
 23
2.922040
  0
POLYLINE
  8
0
  6
CONTINUOUS
 66
     1
 40
0.000000
 41
0.000000
  0
VERTEX
  8
0
  6
CONTINUOUS
 10
2.031040
 20
2.548480
  0
VERTEX
  8
0
  6
CONTINUOUS
 10
2.676960
 20
2.923360
  0
VERTEX
  8
0
  6
CONTINUOUS
 10
2.712160
 20
2.922040
  0
VERTEX
  8
0
  6
CONTINUOUS
 10
2.066240
 20
2.547160
  0
VERTEX
  8
0
  6
CONTINUOUS
 10
2.031040
 20
2.548480
  0
SEQEND
  8
0
  0
SOLID
  8
0
 62
    15
 10
2.066240
 20
2.547160
 11
2.712160
 21
2.922040
 12
2.148520
 22
2.541440
 13
2.794440
 23
2.916320
  0
POLYLINE
  8
0
  6
CONTINUOUS
 66
     1
 40
0.000000
 41
0.000000
  0
VERTEX
  8
0
  6
CONTINUOUS
 10
2.066240
 20
2.547160
  0
VERTEX
  8
0
  6
CONTINUOUS
 10
2.712160
 20
2.922040
  0
VERTEX
  8
0
  6
CONTINUOUS
 10
2.794440
 20
2.916320
  0
VERTEX
  8
0
  6
CONTINUOUS
 10
2.148520
 20
2.541440
  0
VERTEX
  8
0
  6
CONTINUOUS
 10
2.066240
 20
2.547160
  0
SEQEND
  8
0
  0
SOLID
  8
0
 62
    15
 10
2.148520
 20
2.541440
 11
2.794440
 21
2.916320
 12
2.246640
 22
2.528680
 13
2.892560
 23
2.903120
  0
POLYLINE
  8
0
  6
CONTINUOUS
 66
     1
 40
0.000000
 41
0.000000
  0
VERTEX
  8
0
  6
CONTINUOUS
 10
2.148520
 20
2.541440
  0
VERTEX
  8
0
  6
CONTINUOUS
 10
2.794440
 20
2.916320
  0
VERTEX
  8
0
  6
CONTINUOUS
 10
2.892560
 20
2.903120
  0
VERTEX
  8
0
  6
CONTINUOUS
 10
2.246640
 20
2.528680
  0
VERTEX
  8
0
  6
CONTINUOUS
 10
2.148520
 20
2.541440
  0
SEQEND
  8
0
  0
SOLID
  8
0
 62
    15
 10
2.246640
 20
2.528680
 11
2.892560
 21
2.903120
 12
2.361920
 22
2.504040
 13
3.007840
 23
2.878920
  0
POLYLINE
  8
0
  6
CONTINUOUS
 66
     1
 40
0.000000
 41
0.000000
  0
VERTEX
  8
0
  6
CONTINUOUS
 10
2.246640
 20
2.528680
  0
VERTEX
  8
0
  6
CONTINUOUS
 10
2.892560
 20
2.903120
  0
VERTEX
  8
0
  6
CONTINUOUS
 10
3.007840
 20
2.878920
  0
VERTEX
  8
0
  6
CONTINUOUS
 10
2.361920
 20
2.504040
  0
VERTEX
  8
0
  6
CONTINUOUS
 10
2.246640
 20
2.528680
  0
SEQEND
  8
0
  0
SOLID
  8
0
 62
    15
 10
2.361920
 20
2.504040
 11
3.007840
 21
2.878920
 12
2.493920
 22
2.464000
 13
3.139840
 23
2.838880
  0
POLYLINE
  8
0
  6
CONTINUOUS
 66
     1
 40
0.000000
 41
0.000000
  0
VERTEX
  8
0
  6
CONTINUOUS
 10
2.361920
 20
2.504040
  0
VERTEX
  8
0
  6
CONTINUOUS
 10
3.007840
 20
2.878920
  0
VERTEX
  8
0
  6
CONTINUOUS
 10
3.139840
 20
2.838880
  0
VERTEX
  8
0
  6
CONTINUOUS
 10
2.493920
 20
2.464000
  0
VERTEX
  8
0
  6
CONTINUOUS
 10
2.361920
 20
2.504040
  0
SEQEND
  8
0
  0
SOLID
  8
0
 62
    15
 10
2.493920
 20
2.464000
 11
3.139840
 21
2.838880
 12
2.643960
 22
2.404600
 13
3.289880
 23
2.779480
  0
POLYLINE
  8
0
  6
CONTINUOUS
 66
     1
 40
0.000000
 41
0.000000
  0
VERTEX
  8
0
  6
CONTINUOUS
 10
2.493920
 20
2.464000
  0
VERTEX
  8
0
  6
CONTINUOUS
 10
3.139840
 20
2.838880
  0
VERTEX
  8
0
  6
CONTINUOUS
 10
3.289880
 20
2.779480
  0
VERTEX
  8
0
  6
CONTINUOUS
 10
2.643960
 20
2.404600
  0
VERTEX
  8
0
  6
CONTINUOUS
 10
2.493920
 20
2.464000
  0
SEQEND
  8
0
  0
SOLID
  8
0
 62
    15
 10
2.643960
 20
2.404600
 11
3.289880
 21
2.779480
 12
2.725800
 22
2.366320
 13
3.371720
 23
2.741200
  0
POLYLINE
  8
0
  6
CONTINUOUS
 66
     1
 40
0.000000
 41
0.000000
  0
VERTEX
  8
0
  6
CONTINUOUS
 10
2.643960
 20
2.404600
  0
VERTEX
  8
0
  6
CONTINUOUS
 10
3.289880
 20
2.779480
  0
VERTEX
  8
0
  6
CONTINUOUS
 10
3.371720
 20
2.741200
  0
VERTEX
  8
0
  6
CONTINUOUS
 10
2.725800
 20
2.366320
  0
VERTEX
  8
0
  6
CONTINUOUS
 10
2.643960
 20
2.404600
  0
SEQEND
  8
0
  0
SOLID
  8
0
 62
    15
 10
2.725800
 20
2.366320
 11
3.371720
 21
2.741200
 12
2.812480
 22
2.321440
 13
3.457960
 23
2.696320
  0
POLYLINE
  8
0
  6
CONTINUOUS
 66
     1
 40
0.000000
 41
0.000000
  0
VERTEX
  8
0
  6
CONTINUOUS
 10
2.725800
 20
2.366320
  0
VERTEX
  8
0
  6
CONTINUOUS
 10
3.371720
 20
2.741200
  0
VERTEX
  8
0
  6
CONTINUOUS
 10
3.457960
 20
2.696320
  0
VERTEX
  8
0
  6
CONTINUOUS
 10
2.812480
 20
2.321440
  0
VERTEX
  8
0
  6
CONTINUOUS
 10
2.725800
 20
2.366320
  0
SEQEND
  8
0
  0
SOLID
  8
0
 62
    15
 10
2.812480
 20
2.321440
 11
3.457960
 21
2.696320
 12
2.952400
 22
2.235640
 13
3.598320
 23
2.610520
  0
POLYLINE
  8
0
  6
CONTINUOUS
 66
     1
 40
0.000000
 41
0.000000
  0
VERTEX
  8
0
  6
CONTINUOUS
 10
2.812480
 20
2.321440
  0
VERTEX
  8
0
  6
CONTINUOUS
 10
3.457960
 20
2.696320
  0
VERTEX
  8
0
  6
CONTINUOUS
 10
3.598320
 20
2.610520
  0
VERTEX
  8
0
  6
CONTINUOUS
 10
2.952400
 20
2.235640
  0
VERTEX
  8
0
  6
CONTINUOUS
 10
2.812480
 20
2.321440
  0
SEQEND
  8
0
  0
SOLID
  8
0
 62
    15
 10
2.952400
 20
2.235640
 11
3.598320
 21
2.610520
 12
3.063720
 22
2.142800
 13
3.709640
 23
2.517240
  0
POLYLINE
  8
0
  6
CONTINUOUS
 66
     1
 40
0.000000
 41
0.000000
  0
VERTEX
  8
0
  6
CONTINUOUS
 10
2.952400
 20
2.235640
  0
VERTEX
  8
0
  6
CONTINUOUS
 10
3.598320
 20
2.610520
  0
VERTEX
  8
0
  6
CONTINUOUS
 10
3.709640
 20
2.517240
  0
VERTEX
  8
0
  6
CONTINUOUS
 10
3.063720
 20
2.142800
  0
VERTEX
  8
0
  6
CONTINUOUS
 10
2.952400
 20
2.235640
  0
SEQEND
  8
0
  0
SOLID
  8
0
 62
    15
 10
3.063720
 20
2.142800
 11
3.709640
 21
2.517240
 12
3.148640
 22
2.044240
 13
3.794560
 23
2.419120
  0
POLYLINE
  8
0
  6
CONTINUOUS
 66
     1
 40
0.000000
 41
0.000000
  0
VERTEX
  8
0
  6
CONTINUOUS
 10
3.063720
 20
2.142800
  0
VERTEX
  8
0
  6
CONTINUOUS
 10
3.709640
 20
2.517240
  0
VERTEX
  8
0
  6
CONTINUOUS
 10
3.794560
 20
2.419120
  0
VERTEX
  8
0
  6
CONTINUOUS
 10
3.148640
 20
2.044240
  0
VERTEX
  8
0
  6
CONTINUOUS
 10
3.063720
 20
2.142800
  0
SEQEND
  8
0
  0
SOLID
  8
0
 62
    15
 10
3.148640
 20
2.044240
 11
3.794560
 21
2.419120
 12
3.208920
 22
1.941720
 13
3.854840
 23
2.316160
  0
POLYLINE
  8
0
  6
CONTINUOUS
 66
     1
 40
0.000000
 41
0.000000
  0
VERTEX
  8
0
  6
CONTINUOUS
 10
3.148640
 20
2.044240
  0
VERTEX
  8
0
  6
CONTINUOUS
 10
3.794560
 20
2.419120
  0
VERTEX
  8
0
  6
CONTINUOUS
 10
3.854840
 20
2.316160
  0
VERTEX
  8
0
  6
CONTINUOUS
 10
3.208920
 20
1.941720
  0
VERTEX
  8
0
  6
CONTINUOUS
 10
3.148640
 20
2.044240
  0
SEQEND
  8
0
  0
SOLID
  8
0
 62
    15
 10
3.208920
 20
1.941720
 11
3.854840
 21
2.316160
 12
3.246320
 22
1.837000
 13
3.891800
 23
2.211440
  0
POLYLINE
  8
0
  6
CONTINUOUS
 66
     1
 40
0.000000
 41
0.000000
  0
VERTEX
  8
0
  6
CONTINUOUS
 10
3.208920
 20
1.941720
  0
VERTEX
  8
0
  6
CONTINUOUS
 10
3.854840
 20
2.316160
  0
VERTEX
  8
0
  6
CONTINUOUS
 10
3.891800
 20
2.211440
  0
VERTEX
  8
0
  6
CONTINUOUS
 10
3.246320
 20
1.837000
  0
VERTEX
  8
0
  6
CONTINUOUS
 10
3.208920
 20
1.941720
  0
SEQEND
  8
0
  0
SOLID
  8
0
 62
    15
 10
3.246320
 20
1.837000
 11
3.891800
 21
2.211440
 12
3.262160
 22
1.730960
 13
3.908080
 23
2.105840
  0
POLYLINE
  8
0
  6
CONTINUOUS
 66
     1
 40
0.000000
 41
0.000000
  0
VERTEX
  8
0
  6
CONTINUOUS
 10
3.246320
 20
1.837000
  0
VERTEX
  8
0
  6
CONTINUOUS
 10
3.891800
 20
2.211440
  0
VERTEX
  8
0
  6
CONTINUOUS
 10
3.908080
 20
2.105840
  0
VERTEX
  8
0
  6
CONTINUOUS
 10
3.262160
 20
1.730960
  0
VERTEX
  8
0
  6
CONTINUOUS
 10
3.246320
 20
1.837000
  0
SEQEND
  8
0
  0
SOLID
  8
0
 62
    15
 10
3.262160
 20
1.730960
 11
3.908080
 21
2.105840
 12
3.259080
 22
1.625800
 13
3.905000
 23
2.000680
  0
POLYLINE
  8
0
  6
CONTINUOUS
 66
     1
 40
0.000000
 41
0.000000
  0
VERTEX
  8
0
  6
CONTINUOUS
 10
3.262160
 20
1.730960
  0
VERTEX
  8
0
  6
CONTINUOUS
 10
3.908080
 20
2.105840
  0
VERTEX
  8
0
  6
CONTINUOUS
 10
3.905000
 20
2.000680
  0
VERTEX
  8
0
  6
CONTINUOUS
 10
3.259080
 20
1.625800
  0
VERTEX
  8
0
  6
CONTINUOUS
 10
3.262160
 20
1.730960
  0
SEQEND
  8
0
  0
SOLID
  8
0
 62
    15
 10
3.259080
 20
1.625800
 11
3.905000
 21
2.000680
 12
3.238400
 22
1.522840
 13
3.884320
 23
1.897720
  0
POLYLINE
  8
0
  6
CONTINUOUS
 66
     1
 40
0.000000
 41
0.000000
  0
VERTEX
  8
0
  6
CONTINUOUS
 10
3.259080
 20
1.625800
  0
VERTEX
  8
0
  6
CONTINUOUS
 10
3.905000
 20
2.000680
  0
VERTEX
  8
0
  6
CONTINUOUS
 10
3.884320
 20
1.897720
  0
VERTEX
  8
0
  6
CONTINUOUS
 10
3.238400
 20
1.522840
  0
VERTEX
  8
0
  6
CONTINUOUS
 10
3.259080
 20
1.625800
  0
SEQEND
  8
0
  0
SOLID
  8
0
 62
    15
 10
3.238400
 20
1.522840
 11
3.884320
 21
1.897720
 12
3.202320
 22
1.424280
 13
3.848240
 23
1.798720
  0
POLYLINE
  8
0
  6
CONTINUOUS
 66
     1
 40
0.000000
 41
0.000000
  0
VERTEX
  8
0
  6
CONTINUOUS
 10
3.238400
 20
1.522840
  0
VERTEX
  8
0
  6
CONTINUOUS
 10
3.884320
 20
1.897720
  0
VERTEX
  8
0
  6
CONTINUOUS
 10
3.848240
 20
1.798720
  0
VERTEX
  8
0
  6
CONTINUOUS
 10
3.202320
 20
1.424280
  0
VERTEX
  8
0
  6
CONTINUOUS
 10
3.238400
 20
1.522840
  0
SEQEND
  8
0
  0
SOLID
  8
0
 62
    15
 10
1.948320
 20
2.553320
 11
2.594240
 21
2.928200
 12
1.999800
 22
2.549800
 13
2.645720
 23
2.924680
  0
POLYLINE
  8
0
  6
CONTINUOUS
 66
     1
 40
0.000000
 41
0.000000
  0
VERTEX
  8
0
  6
CONTINUOUS
 10
1.948320
 20
2.553320
  0
VERTEX
  8
0
  6
CONTINUOUS
 10
2.594240
 20
2.928200
  0
VERTEX
  8
0
  6
CONTINUOUS
 10
2.645720
 20
2.924680
  0
VERTEX
  8
0
  6
CONTINUOUS
 10
1.999800
 20
2.549800
  0
VERTEX
  8
0
  6
CONTINUOUS
 10
1.948320
 20
2.553320
  0
SEQEND
  8
0
  0
SOLID
  8
0
 62
    15
 10
3.152160
 20
1.330560
 11
3.798080
 21
1.705000
 12
3.090560
 22
1.243880
 13
3.736480
 23
1.618320
  0
POLYLINE
  8
0
  6
CONTINUOUS
 66
     1
 40
0.000000
 41
0.000000
  0
VERTEX
  8
0
  6
CONTINUOUS
 10
3.152160
 20
1.330560
  0
VERTEX
  8
0
  6
CONTINUOUS
 10
3.798080
 20
1.705000
  0
VERTEX
  8
0
  6
CONTINUOUS
 10
3.736480
 20
1.618320
  0
VERTEX
  8
0
  6
CONTINUOUS
 10
3.090560
 20
1.243880
  0
VERTEX
  8
0
  6
CONTINUOUS
 10
3.152160
 20
1.330560
  0
SEQEND
  8
0
  0
SOLID
  8
0
 62
    15
 10
2.596880
 20
0.935000
 11
3.242800
 21
1.309440
 12
2.577080
 22
0.910360
 13
3.223000
 23
1.284800
  0
POLYLINE
  8
0
  6
CONTINUOUS
 66
     1
 40
0.000000
 41
0.000000
  0
VERTEX
  8
0
  6
CONTINUOUS
 10
2.596880
 20
0.935000
  0
VERTEX
  8
0
  6
CONTINUOUS
 10
3.242800
 20
1.309440
  0
VERTEX
  8
0
  6
CONTINUOUS
 10
3.223000
 20
1.284800
  0
VERTEX
  8
0
  6
CONTINUOUS
 10
2.577080
 20
0.910360
  0
VERTEX
  8
0
  6
CONTINUOUS
 10
2.596880
 20
0.935000
  0
SEQEND
  8
0
  0
SOLID
  8
0
 62
    15
 10
2.939200
 20
1.097800
 11
3.585120
 21
1.472240
 12
2.852960
 22
1.041040
 13
3.498880
 23
1.415920
  0
POLYLINE
  8
0
  6
CONTINUOUS
 66
     1
 40
0.000000
 41
0.000000
  0
VERTEX
  8
0
  6
CONTINUOUS
 10
2.939200
 20
1.097800
  0
VERTEX
  8
0
  6
CONTINUOUS
 10
3.585120
 20
1.472240
  0
VERTEX
  8
0
  6
CONTINUOUS
 10
3.498880
 20
1.415920
  0
VERTEX
  8
0
  6
CONTINUOUS
 10
2.852960
 20
1.041040
  0
VERTEX
  8
0
  6
CONTINUOUS
 10
2.939200
 20
1.097800
  0
SEQEND
  8
0
  0
SOLID
  8
0
 62
    15
 10
2.577080
 20
0.910360
 11
3.223000
 21
1.284800
 12
2.568280
 22
0.868120
 13
3.214200
 23
1.243000
  0
POLYLINE
  8
0
  6
CONTINUOUS
 66
     1
 40
0.000000
 41
0.000000
  0
VERTEX
  8
0
  6
CONTINUOUS
 10
2.577080
 20
0.910360
  0
VERTEX
  8
0
  6
CONTINUOUS
 10
3.223000
 20
1.284800
  0
VERTEX
  8
0
  6
CONTINUOUS
 10
3.214200
 20
1.243000
  0
VERTEX
  8
0
  6
CONTINUOUS
 10
2.568280
 20
0.868120
  0
VERTEX
  8
0
  6
CONTINUOUS
 10
2.577080
 20
0.910360
  0
SEQEND
  8
0
  0
SOLID
  8
0
 62
    15
 10
3.090560
 20
1.243880
 11
3.736480
 21
1.618320
 12
3.018840
 22
1.165560
 13
3.664760
 23
1.540440
  0
POLYLINE
  8
0
  6
CONTINUOUS
 66
     1
 40
0.000000
 41
0.000000
  0
VERTEX
  8
0
  6
CONTINUOUS
 10
3.090560
 20
1.243880
  0
VERTEX
  8
0
  6
CONTINUOUS
 10
3.736480
 20
1.618320
  0
VERTEX
  8
0
  6
CONTINUOUS
 10
3.664760
 20
1.540440
  0
VERTEX
  8
0
  6
CONTINUOUS
 10
3.018840
 20
1.165560
  0
VERTEX
  8
0
  6
CONTINUOUS
 10
3.090560
 20
1.243880
  0
SEQEND
  8
0
  0
SOLID
  8
0
 62
    15
 10
3.018840
 20
1.165560
 11
3.664760
 21
1.540440
 12
2.939200
 22
1.097800
 13
3.585120
 23
1.472240
  0
POLYLINE
  8
0
  6
CONTINUOUS
 66
     1
 40
0.000000
 41
0.000000
  0
VERTEX
  8
0
  6
CONTINUOUS
 10
3.018840
 20
1.165560
  0
VERTEX
  8
0
  6
CONTINUOUS
 10
3.664760
 20
1.540440
  0
VERTEX
  8
0
  6
CONTINUOUS
 10
3.585120
 20
1.472240
  0
VERTEX
  8
0
  6
CONTINUOUS
 10
2.939200
 20
1.097800
  0
VERTEX
  8
0
  6
CONTINUOUS
 10
3.018840
 20
1.165560
  0
SEQEND
  8
0
  0
SOLID
  8
0
 62
    15
 10
2.568280
 20
0.868120
 11
3.214200
 21
1.243000
 12
2.568280
 22
0.864160
 13
3.214200
 23
1.238600
  0
POLYLINE
  8
0
  6
CONTINUOUS
 66
     1
 40
0.000000
 41
0.000000
  0
VERTEX
  8
0
  6
CONTINUOUS
 10
2.568280
 20
0.868120
  0
VERTEX
  8
0
  6
CONTINUOUS
 10
3.214200
 20
1.243000
  0
VERTEX
  8
0
  6
CONTINUOUS
 10
3.214200
 20
1.238600
  0
VERTEX
  8
0
  6
CONTINUOUS
 10
2.568280
 20
0.864160
  0
VERTEX
  8
0
  6
CONTINUOUS
 10
2.568280
 20
0.868120
  0
SEQEND
  8
0
  0
SOLID
  8
0
 62
    15
 10
1.082840
 20
2.322760
 11
1.728760
 21
2.697640
 12
1.169520
 22
2.367640
 13
1.815000
 23
2.742520
  0
POLYLINE
  8
0
  6
CONTINUOUS
 66
     1
 40
0.000000
 41
0.000000
  0
VERTEX
  8
0
  6
CONTINUOUS
 10
1.082840
 20
2.322760
  0
VERTEX
  8
0
  6
CONTINUOUS
 10
1.728760
 20
2.697640
  0
VERTEX
  8
0
  6
CONTINUOUS
 10
1.815000
 20
2.742520
  0
VERTEX
  8
0
  6
CONTINUOUS
 10
1.169520
 20
2.367640
  0
VERTEX
  8
0
  6
CONTINUOUS
 10
1.082840
 20
2.322760
  0
SEQEND
  8
0
  0
SOLID
  8
0
 62
    15
 10
1.169520
 20
2.367640
 11
1.815000
 21
2.742520
 12
1.251360
 22
2.405920
 13
1.896840
 23
2.780800
  0
POLYLINE
  8
0
  6
CONTINUOUS
 66
     1
 40
0.000000
 41
0.000000
  0
VERTEX
  8
0
  6
CONTINUOUS
 10
1.169520
 20
2.367640
  0
VERTEX
  8
0
  6
CONTINUOUS
 10
1.815000
 20
2.742520
  0
VERTEX
  8
0
  6
CONTINUOUS
 10
1.896840
 20
2.780800
  0
VERTEX
  8
0
  6
CONTINUOUS
 10
1.251360
 20
2.405920
  0
VERTEX
  8
0
  6
CONTINUOUS
 10
1.169520
 20
2.367640
  0
SEQEND
  8
0
  0
SOLID
  8
0
 62
    15
 10
1.251360
 20
2.405920
 11
1.896840
 21
2.780800
 12
1.400960
 22
2.465760
 13
2.046880
 23
2.840200
  0
POLYLINE
  8
0
  6
CONTINUOUS
 66
     1
 40
0.000000
 41
0.000000
  0
VERTEX
  8
0
  6
CONTINUOUS
 10
1.251360
 20
2.405920
  0
VERTEX
  8
0
  6
CONTINUOUS
 10
1.896840
 20
2.780800
  0
VERTEX
  8
0
  6
CONTINUOUS
 10
2.046880
 20
2.840200
  0
VERTEX
  8
0
  6
CONTINUOUS
 10
1.400960
 20
2.465760
  0
VERTEX
  8
0
  6
CONTINUOUS
 10
1.251360
 20
2.405920
  0
SEQEND
  8
0
  0
SOLID
  8
0
 62
    15
 10
1.400960
 20
2.465760
 11
2.046880
 21
2.840200
 12
1.533400
 22
2.505360
 13
2.179320
 23
2.880240
  0
POLYLINE
  8
0
  6
CONTINUOUS
 66
     1
 40
0.000000
 41
0.000000
  0
VERTEX
  8
0
  6
CONTINUOUS
 10
1.400960
 20
2.465760
  0
VERTEX
  8
0
  6
CONTINUOUS
 10
2.046880
 20
2.840200
  0
VERTEX
  8
0
  6
CONTINUOUS
 10
2.179320
 20
2.880240
  0
VERTEX
  8
0
  6
CONTINUOUS
 10
1.533400
 20
2.505360
  0
VERTEX
  8
0
  6
CONTINUOUS
 10
1.400960
 20
2.465760
  0
SEQEND
  8
0
  0
SOLID
  8
0
 62
    15
 10
1.533400
 20
2.505360
 11
2.179320
 21
2.880240
 12
1.648680
 22
2.530000
 13
2.294160
 23
2.904440
  0
POLYLINE
  8
0
  6
CONTINUOUS
 66
     1
 40
0.000000
 41
0.000000
  0
VERTEX
  8
0
  6
CONTINUOUS
 10
1.533400
 20
2.505360
  0
VERTEX
  8
0
  6
CONTINUOUS
 10
2.179320
 20
2.880240
  0
VERTEX
  8
0
  6
CONTINUOUS
 10
2.294160
 20
2.904440
  0
VERTEX
  8
0
  6
CONTINUOUS
 10
1.648680
 20
2.530000
  0
VERTEX
  8
0
  6
CONTINUOUS
 10
1.533400
 20
2.505360
  0
SEQEND
  8
0
  0
SOLID
  8
0
 62
    15
 10
1.648680
 20
2.530000
 11
2.294160
 21
2.904440
 12
1.746800
 22
2.542760
 13
2.392720
 23
2.917640
  0
POLYLINE
  8
0
  6
CONTINUOUS
 66
     1
 40
0.000000
 41
0.000000
  0
VERTEX
  8
0
  6
CONTINUOUS
 10
1.648680
 20
2.530000
  0
VERTEX
  8
0
  6
CONTINUOUS
 10
2.294160
 20
2.904440
  0
VERTEX
  8
0
  6
CONTINUOUS
 10
2.392720
 20
2.917640
  0
VERTEX
  8
0
  6
CONTINUOUS
 10
1.746800
 20
2.542760
  0
VERTEX
  8
0
  6
CONTINUOUS
 10
1.648680
 20
2.530000
  0
SEQEND
  8
0
  0
SOLID
  8
0
 62
    15
 10
1.746800
 20
2.542760
 11
2.392720
 21
2.917640
 12
1.829080
 22
2.548480
 13
2.475000
 23
2.923360
  0
POLYLINE
  8
0
  6
CONTINUOUS
 66
     1
 40
0.000000
 41
0.000000
  0
VERTEX
  8
0
  6
CONTINUOUS
 10
1.746800
 20
2.542760
  0
VERTEX
  8
0
  6
CONTINUOUS
 10
2.392720
 20
2.917640
  0
VERTEX
  8
0
  6
CONTINUOUS
 10
2.475000
 20
2.923360
  0
VERTEX
  8
0
  6
CONTINUOUS
 10
1.829080
 20
2.548480
  0
VERTEX
  8
0
  6
CONTINUOUS
 10
1.746800
 20
2.542760
  0
SEQEND
  8
0
  0
SOLID
  8
0
 62
    15
 10
1.829080
 20
2.548480
 11
2.475000
 21
2.923360
 12
1.864280
 22
2.549800
 13
2.510200
 23
2.924680
  0
POLYLINE
  8
0
  6
CONTINUOUS
 66
     1
 40
0.000000
 41
0.000000
  0
VERTEX
  8
0
  6
CONTINUOUS
 10
1.829080
 20
2.548480
  0
VERTEX
  8
0
  6
CONTINUOUS
 10
2.475000
 20
2.923360
  0
VERTEX
  8
0
  6
CONTINUOUS
 10
2.510200
 20
2.924680
  0
VERTEX
  8
0
  6
CONTINUOUS
 10
1.864280
 20
2.549800
  0
VERTEX
  8
0
  6
CONTINUOUS
 10
1.829080
 20
2.548480
  0
SEQEND
  8
0
  0
SOLID
  8
0
 62
    15
 10
1.864280
 20
2.549800
 11
2.510200
 21
2.924680
 12
1.895520
 22
2.551120
 13
2.541440
 23
2.926000
  0
POLYLINE
  8
0
  6
CONTINUOUS
 66
     1
 40
0.000000
 41
0.000000
  0
VERTEX
  8
0
  6
CONTINUOUS
 10
1.864280
 20
2.549800
  0
VERTEX
  8
0
  6
CONTINUOUS
 10
2.510200
 20
2.924680
  0
VERTEX
  8
0
  6
CONTINUOUS
 10
2.541440
 20
2.926000
  0
VERTEX
  8
0
  6
CONTINUOUS
 10
1.895520
 20
2.551120
  0
VERTEX
  8
0
  6
CONTINUOUS
 10
1.864280
 20
2.549800
  0
SEQEND
  8
0
  0
SOLID
  8
0
 62
    15
 10
1.895520
 20
2.551120
 11
2.541440
 21
2.926000
 12
1.947000
 22
2.554640
 13
2.592920
 23
2.929520
  0
POLYLINE
  8
0
  6
CONTINUOUS
 66
     1
 40
0.000000
 41
0.000000
  0
VERTEX
  8
0
  6
CONTINUOUS
 10
1.895520
 20
2.551120
  0
VERTEX
  8
0
  6
CONTINUOUS
 10
2.541440
 20
2.926000
  0
VERTEX
  8
0
  6
CONTINUOUS
 10
2.592920
 20
2.929520
  0
VERTEX
  8
0
  6
CONTINUOUS
 10
1.947000
 20
2.554640
  0
VERTEX
  8
0
  6
CONTINUOUS
 10
1.895520
 20
2.551120
  0
SEQEND
  8
0
  0
SOLID
  8
0
 62
    15
 10
1.947000
 20
2.554640
 11
2.592920
 21
2.929520
 12
1.948320
 22
2.553320
 13
2.594240
 23
2.928200
  0
POLYLINE
  8
0
  6
CONTINUOUS
 66
     1
 40
0.000000
 41
0.000000
  0
VERTEX
  8
0
  6
CONTINUOUS
 10
1.947000
 20
2.554640
  0
VERTEX
  8
0
  6
CONTINUOUS
 10
2.592920
 20
2.929520
  0
VERTEX
  8
0
  6
CONTINUOUS
 10
2.594240
 20
2.928200
  0
VERTEX
  8
0
  6
CONTINUOUS
 10
1.948320
 20
2.553320
  0
VERTEX
  8
0
  6
CONTINUOUS
 10
1.947000
 20
2.554640
  0
SEQEND
  8
0
  0
POLYLINE
  8
0
  6
CONTINUOUS
 66
     1
 40
0.000000
 41
0.000000
  0
VERTEX
  8
0
  6
CONTINUOUS
 10
1.948320
 20
2.553320
  0
VERTEX
  8
0
  6
CONTINUOUS
 10
2.031040
 20
2.548480
  0
VERTEX
  8
0
  6
CONTINUOUS
 10
2.066240
 20
2.547160
  0
VERTEX
  8
0
  6
CONTINUOUS
 10
2.148520
 20
2.541440
  0
VERTEX
  8
0
  6
CONTINUOUS
 10
2.246640
 20
2.528680
  0
VERTEX
  8
0
  6
CONTINUOUS
 10
2.361920
 20
2.504040
  0
VERTEX
  8
0
  6
CONTINUOUS
 10
2.493920
 20
2.464000
  0
VERTEX
  8
0
  6
CONTINUOUS
 10
2.643960
 20
2.404600
  0
VERTEX
  8
0
  6
CONTINUOUS
 10
2.725800
 20
2.366320
  0
VERTEX
  8
0
  6
CONTINUOUS
 10
2.812480
 20
2.321440
  0
VERTEX
  8
0
  6
CONTINUOUS
 10
2.952400
 20
2.235640
  0
VERTEX
  8
0
  6
CONTINUOUS
 10
3.063720
 20
2.142800
  0
VERTEX
  8
0
  6
CONTINUOUS
 10
3.148640
 20
2.044240
  0
VERTEX
  8
0
  6
CONTINUOUS
 10
3.208920
 20
1.941720
  0
VERTEX
  8
0
  6
CONTINUOUS
 10
3.246320
 20
1.837000
  0
VERTEX
  8
0
  6
CONTINUOUS
 10
3.262160
 20
1.730960
  0
VERTEX
  8
0
  6
CONTINUOUS
 10
3.259080
 20
1.625800
  0
VERTEX
  8
0
  6
CONTINUOUS
 10
3.238400
 20
1.522840
  0
VERTEX
  8
0
  6
CONTINUOUS
 10
3.202320
 20
1.424280
  0
VERTEX
  8
0
  6
CONTINUOUS
 10
3.152160
 20
1.330560
  0
VERTEX
  8
0
  6
CONTINUOUS
 10
3.090560
 20
1.243880
  0
VERTEX
  8
0
  6
CONTINUOUS
 10
3.018840
 20
1.165560
  0
VERTEX
  8
0
  6
CONTINUOUS
 10
2.939200
 20
1.097800
  0
VERTEX
  8
0
  6
CONTINUOUS
 10
2.852960
 20
1.041040
  0
VERTEX
  8
0
  6
CONTINUOUS
 10
2.762760
 20
0.997920
  0
VERTEX
  8
0
  6
CONTINUOUS
 10
2.669480
 20
0.969320
  0
VERTEX
  8
0
  6
CONTINUOUS
 10
2.628120
 20
0.951280
  0
VERTEX
  8
0
  6
CONTINUOUS
 10
2.596880
 20
0.935000
  0
VERTEX
  8
0
  6
CONTINUOUS
 10
2.577080
 20
0.910360
  0
VERTEX
  8
0
  6
CONTINUOUS
 10
2.568280
 20
0.864160
  0
VERTEX
  8
0
  6
CONTINUOUS
 10
1.325720
 20
0.864160
  0
VERTEX
  8
0
  6
CONTINUOUS
 10
1.316920
 20
0.907280
  0
VERTEX
  8
0
  6
CONTINUOUS
 10
1.297560
 20
0.933680
  0
VERTEX
  8
0
  6
CONTINUOUS
 10
1.267200
 20
0.951720
  0
VERTEX
  8
0
  6
CONTINUOUS
 10
1.225840
 20
0.970640
  0
VERTEX
  8
0
  6
CONTINUOUS
 10
1.132560
 20
0.999240
  0
VERTEX
  8
0
  6
CONTINUOUS
 10
1.041920
 20
1.042360
  0
VERTEX
  8
0
  6
CONTINUOUS
 10
0.955680
 20
1.099120
  0
VERTEX
  8
0
  6
CONTINUOUS
 10
0.876040
 20
1.166880
  0
VERTEX
  8
0
  6
CONTINUOUS
 10
0.804320
 20
1.245200
  0
VERTEX
  8
0
  6
CONTINUOUS
 10
0.742720
 20
1.331880
  0
VERTEX
  8
0
  6
CONTINUOUS
 10
0.693000
 20
1.425600
  0
VERTEX
  8
0
  6
CONTINUOUS
 10
0.656920
 20
1.524160
  0
VERTEX
  8
0
  6
CONTINUOUS
 10
0.636240
 20
1.627120
  0
VERTEX
  8
0
  6
CONTINUOUS
 10
0.633160
 20
1.732280
  0
VERTEX
  8
0
  6
CONTINUOUS
 10
0.649000
 20
1.838320
  0
VERTEX
  8
0
  6
CONTINUOUS
 10
0.686400
 20
1.943040
  0
VERTEX
  8
0
  6
CONTINUOUS
 10
0.746240
 20
2.045560
  0
VERTEX
  8
0
  6
CONTINUOUS
 10
0.831160
 20
2.144120
  0
VERTEX
  8
0
  6
CONTINUOUS
 10
0.942920
 20
2.236960
  0
VERTEX
  8
0
  6
CONTINUOUS
 10
1.082840
 20
2.322760
  0
VERTEX
  8
0
  6
CONTINUOUS
 10
1.169520
 20
2.367640
  0
VERTEX
  8
0
  6
CONTINUOUS
 10
1.251360
 20
2.405920
  0
VERTEX
  8
0
  6
CONTINUOUS
 10
1.400960
 20
2.465760
  0
VERTEX
  8
0
  6
CONTINUOUS
 10
1.533400
 20
2.505360
  0
VERTEX
  8
0
  6
CONTINUOUS
 10
1.648680
 20
2.530000
  0
VERTEX
  8
0
  6
CONTINUOUS
 10
1.746800
 20
2.542760
  0
VERTEX
  8
0
  6
CONTINUOUS
 10
1.829080
 20
2.548480
  0
VERTEX
  8
0
  6
CONTINUOUS
 10
1.895520
 20
2.551120
  0
VERTEX
  8
0
  6
CONTINUOUS
 10
1.947000
 20
2.554640
  0
VERTEX
  8
0
  6
CONTINUOUS
 10
1.948320
 20
2.553320
  0
SEQEND
  8
0
  0
TEXT
  8
0
 10
1.921920
 20
0.629640
 40
0.138164
  1
BA  195A
 41
1.000000
  7
SN1
 71
     0
 72
     5
 11
2.621685
 21
0.629640
  0
TEXT
  8
0
 10
1.655280
 20
0.438240
 40
0.138164
  1
1-11/16" x 2-5/8"
 41
1.000000
  7
SN1
 71
     0
 72
     5
 11
2.884787
 21
0.438240
  0
TEXT
  8
0
 10
7.326000
 20
5.159880
 40
0.138164
  1
handrail
 41
1.000000
  7
SN1
 71
     0
 72
     5
 11
7.915139
 21
5.159880
  0
TEXT
  8
0
 10
7.187400
 20
4.968040
 40
0.138164
  1
195 & 195A
 41
1.000000
  7
SN1
 71
     0
 72
     5
 11
8.052732
 21
4.968040
  0
ENDSEC
  0
EOF
