  0
SECTION
  2
HEADER
  9
$ACADVER
  1
AC1006
  9
$EXTMIN
 10
0.697400
 20
0.364320
  9
$EXTMAX
 10
8.091160
 20
7.843880
  9
$LTSCALE
 40
0.044000
  9
$PDMODE
 70
    35
  9
$PDSIZE
 40
0.035200
  0
ENDSEC
  0
SECTION
  2
TABLES
  0
TABLE
  2
LTYPE
 70
     9
  0
LTYPE
  2
CONTINUOUS
 70
    64
  3
Solid line
 72
    65
 73
     0
 40
0.000000
  0
LTYPE
  2
DASHED
 70
    64
  3
__ __ __ __ __ __ __ __ __ __ __ __ __ __ __
 72
    65
 73
     2
 40
0.000330
 49
0.000220
 49
-0.000110
  0
LTYPE
  2
HIDDEN
 70
    64
  3
 _ _ _ _ _ _ _ _ _ _ _ _ _ _ _ _ _ _ _ _ _ _
 72
    65
 73
     2
 40
0.000165
 49
0.000110
 49
-0.000055
  0
LTYPE
  2
CENTER
 70
    64
  3
____ _ ____ _ ____ _ ____ _ ____ _ ____ _ ____
 72
    65
 73
     4
 40
0.000880
 49
0.000550
 49
-0.000110
 49
0.000110
 49
-0.000110
  0
LTYPE
  2
PHANTOM
 70
    64
  3
_____ _ _ _____ _ _ _____ _ _ _____ _ _ ____
 72
    65
 73
     6
 40
0.001100
 49
0.000550
 49
-0.000110
 49
0.000110
 49
-0.000110
 49
0.000110
 49
-0.000110
  0
LTYPE
  2
DOT
 70
    64
  3
...............................................
 72
    65
 73
     2
 40
0.000110
 49
0.000000
 49
-0.000110
  0
LTYPE
  2
DASHDOT
 70
    64
  3
__ . __ . __ . __ . __ . __ . __ . __ . __ . __
 72
    65
 73
     4
 40
0.000440
 49
0.000220
 49
-0.000110
 49
0.000000
 49
-0.000110
  0
LTYPE
  2
BORDER
 70
    64
  3
__ __ . __ __ . __ __ . __ __ . __ __ . __ __
 72
    65
 73
     6
 40
0.000770
 49
0.000220
 49
-0.000110
 49
0.000220
 49
-0.000110
 49
0.000000
 49
-0.000110
  0
LTYPE
  2
DIVIDE
 70
    64
  3
__ . . __ . . __ . . __ . . __ . . __ . . __
 72
    65
 73
     6
 40
0.000550
 49
0.000220
 49
-0.000110
 49
0.000000
 49
-0.000110
 49
0.000000
 49
-0.000110
  0
LTYPE
  2
DOTDOT
 70
    64
  3
 . .  . .  . .  . .  . .  . . 
 72
    65
 73
     5
 40
0.000242
 49
-0.000110
 49
0.000000
 49
-0.000110
 49
0.000000
 49
-0.000110
  0
ENDTAB
  0
TABLE
  2
STYLE
 70
     2
  0
STYLE
 70
     0
  2
SN0
 40
0.000000
 41
0.000440
 50
0.000000
 71
     0
 42
0.000000
  3
ROMAND
  0
STYLE
 70
    68
  2
SV0
 40
0.000000
 41
0.000440
 50
0.000000
 71
     0
 42
0.000000
  3
ROMAND
  0
ENDTAB
  0
TABLE
  2
LAYER
 70
     3
  0
LAYER
  2
FOREGROUND
 70
    64
 62
     7
  6
CONTINUOUS
  0
LAYER
  2
BACKGROUND
 70
    65
 62
    -7
  6
CONTINUOUS
  0
LAYER
  2
0
 70
    64
 62
     7
  6
CONTINUOUS
  0
ENDTAB
  0
ENDSEC
  0
SECTION
  2
ENTITIES
  0
POLYLINE
  8
FOREGROUND
  6
CONTINUOUS
 66
     1
 40
0.000000
 41
0.000000
  0
VERTEX
  8
FOREGROUND
  6
CONTINUOUS
 10
0.000000
 20
8.208200
  0
VERTEX
  8
FOREGROUND
  6
CONTINUOUS
 10
8.499920
 20
8.208200
  0
VERTEX
  8
FOREGROUND
  6
CONTINUOUS
 10
8.499920
 20
-2.791800
  0
VERTEX
  8
FOREGROUND
  6
CONTINUOUS
 10
0.000000
 20
-2.791800
  0
VERTEX
  8
FOREGROUND
  6
CONTINUOUS
 10
0.000000
 20
8.208200
  0
SEQEND
  8
0
  0
POLYLINE
  8
FOREGROUND
  6
CONTINUOUS
 66
     1
 40
0.000000
 41
0.000000
  0
VERTEX
  8
FOREGROUND
  6
CONTINUOUS
 10
0.000000
 20
8.208200
  0
VERTEX
  8
FOREGROUND
  6
CONTINUOUS
 10
8.499920
 20
8.208200
  0
VERTEX
  8
FOREGROUND
  6
CONTINUOUS
 10
8.499920
 20
-2.791800
  0
VERTEX
  8
FOREGROUND
  6
CONTINUOUS
 10
0.000000
 20
-2.791800
  0
VERTEX
  8
FOREGROUND
  6
CONTINUOUS
 10
0.000000
 20
8.208200
  0
SEQEND
  8
0
  0
POLYLINE
  8
0
  6
CONTINUOUS
 66
     1
 40
0.014080
 41
0.014080
  0
VERTEX
  8
0
  6
CONTINUOUS
 10
6.916800
 20
7.499800
  0
VERTEX
  8
0
  6
CONTINUOUS
 10
6.723640
 20
7.499800
  0
VERTEX
  8
0
  6
CONTINUOUS
 10
6.723640
 20
7.497160
  0
VERTEX
  8
0
  6
CONTINUOUS
 10
6.723640
 20
6.593400
  0
VERTEX
  8
0
  6
CONTINUOUS
 10
7.338320
 20
6.593400
  0
VERTEX
  8
0
  6
CONTINUOUS
 10
7.338320
 20
6.838480
  0
VERTEX
  8
0
  6
CONTINUOUS
 10
7.258240
 20
6.882480
  0
VERTEX
  8
0
  6
CONTINUOUS
 10
7.258240
 20
6.886880
  0
VERTEX
  8
0
  6
CONTINUOUS
 10
7.257800
 20
6.901840
  0
VERTEX
  8
0
  6
CONTINUOUS
 10
7.256920
 20
6.916360
  0
VERTEX
  8
0
  6
CONTINUOUS
 10
7.255600
 20
6.930000
  0
VERTEX
  8
0
  6
CONTINUOUS
 10
7.254280
 20
6.942760
  0
VERTEX
  8
0
  6
CONTINUOUS
 10
7.252080
 20
6.955520
  0
VERTEX
  8
0
  6
CONTINUOUS
 10
7.249880
 20
6.967400
  0
VERTEX
  8
0
  6
CONTINUOUS
 10
7.247240
 20
6.978400
  0
VERTEX
  8
0
  6
CONTINUOUS
 10
7.244160
 20
6.989400
  0
VERTEX
  8
0
  6
CONTINUOUS
 10
7.237120
 20
7.009200
  0
VERTEX
  8
0
  6
CONTINUOUS
 10
7.228760
 20
7.027240
  0
VERTEX
  8
0
  6
CONTINUOUS
 10
7.219080
 20
7.043960
  0
VERTEX
  8
0
  6
CONTINUOUS
 10
7.208520
 20
7.058920
  0
VERTEX
  8
0
  6
CONTINUOUS
 10
7.197080
 20
7.072560
  0
VERTEX
  8
0
  6
CONTINUOUS
 10
7.185200
 20
7.085320
  0
VERTEX
  8
0
  6
CONTINUOUS
 10
7.172000
 20
7.097200
  0
VERTEX
  8
0
  6
CONTINUOUS
 10
7.158800
 20
7.108200
  0
VERTEX
  8
0
  6
CONTINUOUS
 10
7.130200
 20
7.129320
  0
VERTEX
  8
0
  6
CONTINUOUS
 10
7.100720
 20
7.150440
  0
VERTEX
  8
0
  6
CONTINUOUS
 10
7.070360
 20
7.172440
  0
VERTEX
  8
0
  6
CONTINUOUS
 10
7.055840
 20
7.184320
  0
VERTEX
  8
0
  6
CONTINUOUS
 10
7.040880
 20
7.197520
  0
VERTEX
  8
0
  6
CONTINUOUS
 10
7.026360
 20
7.211600
  0
VERTEX
  8
0
  6
CONTINUOUS
 10
7.012280
 20
7.227000
  0
VERTEX
  8
0
  6
CONTINUOUS
 10
6.999080
 20
7.243720
  0
VERTEX
  8
0
  6
CONTINUOUS
 10
6.986320
 20
7.262200
  0
VERTEX
  8
0
  6
CONTINUOUS
 10
6.974000
 20
7.282880
  0
VERTEX
  8
0
  6
CONTINUOUS
 10
6.962560
 20
7.305320
  0
VERTEX
  8
0
  6
CONTINUOUS
 10
6.957280
 20
7.317640
  0
VERTEX
  8
0
  6
CONTINUOUS
 10
6.952000
 20
7.330400
  0
VERTEX
  8
0
  6
CONTINUOUS
 10
6.947160
 20
7.343600
  0
VERTEX
  8
0
  6
CONTINUOUS
 10
6.942760
 20
7.357680
  0
VERTEX
  8
0
  6
CONTINUOUS
 10
6.938360
 20
7.372200
  0
VERTEX
  8
0
  6
CONTINUOUS
 10
6.934400
 20
7.387600
  0
VERTEX
  8
0
  6
CONTINUOUS
 10
6.930880
 20
7.403880
  0
VERTEX
  8
0
  6
CONTINUOUS
 10
6.927360
 20
7.420600
  0
VERTEX
  8
0
  6
CONTINUOUS
 10
6.924280
 20
7.438200
  0
VERTEX
  8
0
  6
CONTINUOUS
 10
6.921640
 20
7.456680
  0
VERTEX
  8
0
  6
CONTINUOUS
 10
6.919440
 20
7.475600
  0
VERTEX
  8
0
  6
CONTINUOUS
 10
6.917240
 20
7.495840
  0
VERTEX
  8
0
  6
CONTINUOUS
 10
6.916800
 20
7.499800
  0
SEQEND
  8
0
  0
POLYLINE
  8
0
  6
CONTINUOUS
 66
     1
 40
0.014080
 41
0.014080
  0
VERTEX
  8
0
  6
CONTINUOUS
 10
3.475560
 20
4.139520
  0
VERTEX
  8
0
  6
CONTINUOUS
 10
3.499320
 20
4.169880
  0
VERTEX
  8
0
  6
CONTINUOUS
 10
3.523080
 20
4.191880
  0
VERTEX
  8
0
  6
CONTINUOUS
 10
3.534960
 20
4.199800
  0
VERTEX
  8
0
  6
CONTINUOUS
 10
3.547280
 20
4.205520
  0
VERTEX
  8
0
  6
CONTINUOUS
 10
3.560040
 20
4.209480
  0
VERTEX
  8
0
  6
CONTINUOUS
 10
3.573240
 20
4.211240
  0
VERTEX
  8
0
  6
CONTINUOUS
 10
3.587320
 20
4.210800
  0
VERTEX
  8
0
  6
CONTINUOUS
 10
3.610200
 20
4.205960
  0
VERTEX
  8
0
  6
CONTINUOUS
 10
3.635720
 20
4.196280
  0
VERTEX
  8
0
  6
CONTINUOUS
 10
3.674440
 20
4.175600
  0
VERTEX
  8
0
  6
CONTINUOUS
 10
3.768160
 20
4.114880
  0
VERTEX
  8
0
  6
CONTINUOUS
 10
3.814800
 20
4.089800
  0
VERTEX
  8
0
  6
CONTINUOUS
 10
3.860560
 20
4.070000
  0
VERTEX
  8
0
  6
CONTINUOUS
 10
3.905000
 20
4.055480
  0
VERTEX
  8
0
  6
CONTINUOUS
 10
3.947680
 20
4.044920
  0
VERTEX
  8
0
  6
CONTINUOUS
 10
3.989480
 20
4.038320
  0
VERTEX
  8
0
  6
CONTINUOUS
 10
4.029520
 20
4.035240
  0
VERTEX
  8
0
  6
CONTINUOUS
 10
4.068240
 20
4.035240
  0
VERTEX
  8
0
  6
CONTINUOUS
 10
4.068240
 20
3.950760
  0
VERTEX
  8
0
  6
CONTINUOUS
 10
5.565120
 20
3.950760
  0
VERTEX
  8
0
  6
CONTINUOUS
 10
5.596800
 20
3.857040
  0
VERTEX
  8
0
  6
CONTINUOUS
 10
5.692280
 20
3.857040
  0
VERTEX
  8
0
  6
CONTINUOUS
 10
5.698440
 20
3.883880
  0
VERTEX
  8
0
  6
CONTINUOUS
 10
5.709000
 20
3.906760
  0
VERTEX
  8
0
  6
CONTINUOUS
 10
5.723080
 20
3.925240
  0
VERTEX
  8
0
  6
CONTINUOUS
 10
5.740240
 20
3.938880
  0
VERTEX
  8
0
  6
CONTINUOUS
 10
5.759160
 20
3.949000
  0
VERTEX
  8
0
  6
CONTINUOUS
 10
5.780280
 20
3.954280
  0
VERTEX
  8
0
  6
CONTINUOUS
 10
5.801840
 20
3.956040
  0
VERTEX
  8
0
  6
CONTINUOUS
 10
5.823840
 20
3.952960
  0
VERTEX
  8
0
  6
CONTINUOUS
 10
5.845840
 20
3.946360
  0
VERTEX
  8
0
  6
CONTINUOUS
 10
5.866960
 20
3.935360
  0
VERTEX
  8
0
  6
CONTINUOUS
 10
5.895120
 20
3.911600
  0
VERTEX
  8
0
  6
CONTINUOUS
 10
5.910960
 20
3.890480
  0
VERTEX
  8
0
  6
CONTINUOUS
 10
5.923280
 20
3.865400
  0
VERTEX
  8
0
  6
CONTINUOUS
 10
5.932080
 20
3.836800
  0
VERTEX
  8
0
  6
CONTINUOUS
 10
5.935160
 20
3.820960
  0
VERTEX
  8
0
  6
CONTINUOUS
 10
5.936920
 20
3.786200
  0
VERTEX
  8
0
  6
CONTINUOUS
 10
5.936920
 20
3.555640
  0
VERTEX
  8
0
  6
CONTINUOUS
 10
1.469160
 20
3.555640
  0
VERTEX
  8
0
  6
CONTINUOUS
 10
1.469160
 20
4.242920
  0
VERTEX
  8
0
  6
CONTINUOUS
 10
3.366440
 20
4.242920
  0
VERTEX
  8
0
  6
CONTINUOUS
 10
3.366440
 20
4.137760
  0
VERTEX
  8
0
  6
CONTINUOUS
 10
3.475560
 20
4.137760
  0
SEQEND
  8
0
  0
POLYLINE
  8
0
  6
CONTINUOUS
 66
     1
 40
0.014080
 41
0.014080
  0
VERTEX
  8
0
  6
CONTINUOUS
 10
0.807840
 20
4.855400
  0
VERTEX
  8
0
  6
CONTINUOUS
 10
0.807840
 20
3.558280
  0
VERTEX
  8
0
  6
CONTINUOUS
 10
1.472680
 20
3.558280
  0
VERTEX
  8
0
  6
CONTINUOUS
 10
1.472680
 20
4.239840
  0
VERTEX
  8
0
  6
CONTINUOUS
 10
1.718640
 20
4.239840
  0
VERTEX
  8
0
  6
CONTINUOUS
 10
1.717320
 20
4.240280
  0
VERTEX
  8
0
  6
CONTINUOUS
 10
1.717320
 20
4.433440
  0
VERTEX
  8
0
  6
CONTINUOUS
 10
1.655720
 20
4.440480
  0
VERTEX
  8
0
  6
CONTINUOUS
 10
1.589720
 20
4.454560
  0
VERTEX
  8
0
  6
CONTINUOUS
 10
1.535160
 20
4.473480
  0
VERTEX
  8
0
  6
CONTINUOUS
 10
1.500400
 20
4.490200
  0
VERTEX
  8
0
  6
CONTINUOUS
 10
1.461240
 20
4.515280
  0
VERTEX
  8
0
  6
CONTINUOUS
 10
1.429120
 20
4.543000
  0
VERTEX
  8
0
  6
CONTINUOUS
 10
1.401840
 20
4.572040
  0
VERTEX
  8
0
  6
CONTINUOUS
 10
1.314720
 20
4.688640
  0
VERTEX
  8
0
  6
CONTINUOUS
 10
1.290080
 20
4.713720
  0
VERTEX
  8
0
  6
CONTINUOUS
 10
1.261040
 20
4.735720
  0
VERTEX
  8
0
  6
CONTINUOUS
 10
1.244760
 20
4.745400
  0
VERTEX
  8
0
  6
CONTINUOUS
 10
1.206480
 20
4.760800
  0
VERTEX
  8
0
  6
CONTINUOUS
 10
1.172600
 20
4.768720
  0
VERTEX
  8
0
  6
CONTINUOUS
 10
1.133440
 20
4.773560
  0
VERTEX
  8
0
  6
CONTINUOUS
 10
1.100000
 20
4.774880
  0
VERTEX
  8
0
  6
CONTINUOUS
 10
1.056000
 20
4.854960
  0
VERTEX
  8
0
  6
CONTINUOUS
 10
0.807840
 20
4.855400
  0
SEQEND
  8
0
  0
TEXT
  8
0
 10
2.975720
 20
0.599280
 40
0.138159
  1
BA  191 15/16" x 1-5/16"
 41
1.000000
  7
SN0
 71
     0
 72
     5
 11
4.786895
 21
0.599280
  0
TEXT
  8
0
 10
2.975720
 20
0.407440
 40
0.138159
  1
BA  346 11/16" x 4-1/2"
 41
1.000000
  7
SN0
 71
     0
 72
     5
 11
4.694897
 21
0.407440
  0
SOLID
  8
0
 62
    15
 10
6.028880
 20
1.147960
 11
6.034600
 21
1.897280
 12
6.035040
 22
1.175240
 13
6.040760
 23
1.924560
  0
POLYLINE
  8
0
  6
CONTINUOUS
 66
     1
 40
0.000000
 41
0.000000
  0
VERTEX
  8
0
  6
CONTINUOUS
 10
6.028880
 20
1.147960
  0
VERTEX
  8
0
  6
CONTINUOUS
 10
6.034600
 20
1.897280
  0
VERTEX
  8
0
  6
CONTINUOUS
 10
6.040760
 20
1.924560
  0
VERTEX
  8
0
  6
CONTINUOUS
 10
6.035040
 20
1.175240
  0
VERTEX
  8
0
  6
CONTINUOUS
 10
6.028880
 20
1.147960
  0
SEQEND
  8
0
  0
SOLID
  8
0
 62
    15
 10
3.835480
 20
1.460800
 11
3.841640
 21
2.210120
 12
3.858800
 22
1.482800
 13
3.864960
 23
2.232560
  0
POLYLINE
  8
0
  6
CONTINUOUS
 66
     1
 40
0.000000
 41
0.000000
  0
VERTEX
  8
0
  6
CONTINUOUS
 10
3.835480
 20
1.460800
  0
VERTEX
  8
0
  6
CONTINUOUS
 10
3.841640
 20
2.210120
  0
VERTEX
  8
0
  6
CONTINUOUS
 10
3.864960
 20
2.232560
  0
VERTEX
  8
0
  6
CONTINUOUS
 10
3.858800
 20
1.482800
  0
VERTEX
  8
0
  6
CONTINUOUS
 10
3.835480
 20
1.460800
  0
SEQEND
  8
0
  0
SOLID
  8
0
 62
    15
 10
3.858800
 20
1.482800
 11
3.864960
 21
2.232560
 12
3.883000
 22
1.496880
 13
3.889160
 23
2.246200
  0
POLYLINE
  8
0
  6
CONTINUOUS
 66
     1
 40
0.000000
 41
0.000000
  0
VERTEX
  8
0
  6
CONTINUOUS
 10
3.858800
 20
1.482800
  0
VERTEX
  8
0
  6
CONTINUOUS
 10
3.864960
 20
2.232560
  0
VERTEX
  8
0
  6
CONTINUOUS
 10
3.889160
 20
2.246200
  0
VERTEX
  8
0
  6
CONTINUOUS
 10
3.883000
 20
1.496880
  0
VERTEX
  8
0
  6
CONTINUOUS
 10
3.858800
 20
1.482800
  0
SEQEND
  8
0
  0
SOLID
  8
0
 62
    15
 10
3.883000
 20
1.496880
 11
3.889160
 21
2.246200
 12
3.909400
 22
1.502160
 13
3.915120
 23
2.251480
  0
POLYLINE
  8
0
  6
CONTINUOUS
 66
     1
 40
0.000000
 41
0.000000
  0
VERTEX
  8
0
  6
CONTINUOUS
 10
3.883000
 20
1.496880
  0
VERTEX
  8
0
  6
CONTINUOUS
 10
3.889160
 20
2.246200
  0
VERTEX
  8
0
  6
CONTINUOUS
 10
3.915120
 20
2.251480
  0
VERTEX
  8
0
  6
CONTINUOUS
 10
3.909400
 20
1.502160
  0
VERTEX
  8
0
  6
CONTINUOUS
 10
3.883000
 20
1.496880
  0
SEQEND
  8
0
  0
SOLID
  8
0
 62
    15
 10
3.909400
 20
1.502160
 11
3.915120
 21
2.251480
 12
3.938440
 22
1.499080
 13
3.944600
 23
2.248400
  0
POLYLINE
  8
0
  6
CONTINUOUS
 66
     1
 40
0.000000
 41
0.000000
  0
VERTEX
  8
0
  6
CONTINUOUS
 10
3.909400
 20
1.502160
  0
VERTEX
  8
0
  6
CONTINUOUS
 10
3.915120
 20
2.251480
  0
VERTEX
  8
0
  6
CONTINUOUS
 10
3.944600
 20
2.248400
  0
VERTEX
  8
0
  6
CONTINUOUS
 10
3.938440
 20
1.499080
  0
VERTEX
  8
0
  6
CONTINUOUS
 10
3.909400
 20
1.502160
  0
SEQEND
  8
0
  0
SOLID
  8
0
 62
    15
 10
3.938440
 20
1.499080
 11
3.944600
 21
2.248400
 12
3.971880
 22
1.487200
 13
3.978040
 23
2.236960
  0
POLYLINE
  8
0
  6
CONTINUOUS
 66
     1
 40
0.000000
 41
0.000000
  0
VERTEX
  8
0
  6
CONTINUOUS
 10
3.938440
 20
1.499080
  0
VERTEX
  8
0
  6
CONTINUOUS
 10
3.944600
 20
2.248400
  0
VERTEX
  8
0
  6
CONTINUOUS
 10
3.978040
 20
2.236960
  0
VERTEX
  8
0
  6
CONTINUOUS
 10
3.971880
 20
1.487200
  0
VERTEX
  8
0
  6
CONTINUOUS
 10
3.938440
 20
1.499080
  0
SEQEND
  8
0
  0
SOLID
  8
0
 62
    15
 10
3.971880
 20
1.487200
 11
3.978040
 21
2.236960
 12
4.010600
 22
1.466960
 13
4.016760
 23
2.216280
  0
POLYLINE
  8
0
  6
CONTINUOUS
 66
     1
 40
0.000000
 41
0.000000
  0
VERTEX
  8
0
  6
CONTINUOUS
 10
3.971880
 20
1.487200
  0
VERTEX
  8
0
  6
CONTINUOUS
 10
3.978040
 20
2.236960
  0
VERTEX
  8
0
  6
CONTINUOUS
 10
4.016760
 20
2.216280
  0
VERTEX
  8
0
  6
CONTINUOUS
 10
4.010600
 20
1.466960
  0
VERTEX
  8
0
  6
CONTINUOUS
 10
3.971880
 20
1.487200
  0
SEQEND
  8
0
  0
SOLID
  8
0
 62
    15
 10
4.010600
 20
1.466960
 11
4.016760
 21
2.216280
 12
4.055920
 22
1.437040
 13
4.062080
 23
2.186360
  0
POLYLINE
  8
0
  6
CONTINUOUS
 66
     1
 40
0.000000
 41
0.000000
  0
VERTEX
  8
0
  6
CONTINUOUS
 10
4.010600
 20
1.466960
  0
VERTEX
  8
0
  6
CONTINUOUS
 10
4.016760
 20
2.216280
  0
VERTEX
  8
0
  6
CONTINUOUS
 10
4.062080
 20
2.186360
  0
VERTEX
  8
0
  6
CONTINUOUS
 10
4.055920
 20
1.437040
  0
VERTEX
  8
0
  6
CONTINUOUS
 10
4.010600
 20
1.466960
  0
SEQEND
  8
0
  0
SOLID
  8
0
 62
    15
 10
4.055920
 20
1.437040
 11
4.062080
 21
2.186360
 12
4.104320
 22
1.406240
 13
4.110040
 23
2.155560
  0
POLYLINE
  8
0
  6
CONTINUOUS
 66
     1
 40
0.000000
 41
0.000000
  0
VERTEX
  8
0
  6
CONTINUOUS
 10
4.055920
 20
1.437040
  0
VERTEX
  8
0
  6
CONTINUOUS
 10
4.062080
 20
2.186360
  0
VERTEX
  8
0
  6
CONTINUOUS
 10
4.110040
 20
2.155560
  0
VERTEX
  8
0
  6
CONTINUOUS
 10
4.104320
 20
1.406240
  0
VERTEX
  8
0
  6
CONTINUOUS
 10
4.055920
 20
1.437040
  0
SEQEND
  8
0
  0
SOLID
  8
0
 62
    15
 10
4.104320
 20
1.406240
 11
4.110040
 21
2.155560
 12
4.150960
 22
1.380720
 13
4.157120
 23
2.130480
  0
POLYLINE
  8
0
  6
CONTINUOUS
 66
     1
 40
0.000000
 41
0.000000
  0
VERTEX
  8
0
  6
CONTINUOUS
 10
4.104320
 20
1.406240
  0
VERTEX
  8
0
  6
CONTINUOUS
 10
4.110040
 20
2.155560
  0
VERTEX
  8
0
  6
CONTINUOUS
 10
4.157120
 20
2.130480
  0
VERTEX
  8
0
  6
CONTINUOUS
 10
4.150960
 20
1.380720
  0
VERTEX
  8
0
  6
CONTINUOUS
 10
4.104320
 20
1.406240
  0
SEQEND
  8
0
  0
SOLID
  8
0
 62
    15
 10
4.150960
 20
1.380720
 11
4.157120
 21
2.130480
 12
4.196720
 22
1.361360
 13
4.202880
 23
2.110680
  0
POLYLINE
  8
0
  6
CONTINUOUS
 66
     1
 40
0.000000
 41
0.000000
  0
VERTEX
  8
0
  6
CONTINUOUS
 10
4.150960
 20
1.380720
  0
VERTEX
  8
0
  6
CONTINUOUS
 10
4.157120
 20
2.130480
  0
VERTEX
  8
0
  6
CONTINUOUS
 10
4.202880
 20
2.110680
  0
VERTEX
  8
0
  6
CONTINUOUS
 10
4.196720
 20
1.361360
  0
VERTEX
  8
0
  6
CONTINUOUS
 10
4.150960
 20
1.380720
  0
SEQEND
  8
0
  0
SOLID
  8
0
 62
    15
 10
4.196720
 20
1.361360
 11
4.202880
 21
2.110680
 12
4.241160
 22
1.346400
 13
4.247320
 23
2.095720
  0
POLYLINE
  8
0
  6
CONTINUOUS
 66
     1
 40
0.000000
 41
0.000000
  0
VERTEX
  8
0
  6
CONTINUOUS
 10
4.196720
 20
1.361360
  0
VERTEX
  8
0
  6
CONTINUOUS
 10
4.202880
 20
2.110680
  0
VERTEX
  8
0
  6
CONTINUOUS
 10
4.247320
 20
2.095720
  0
VERTEX
  8
0
  6
CONTINUOUS
 10
4.241160
 20
1.346400
  0
VERTEX
  8
0
  6
CONTINUOUS
 10
4.196720
 20
1.361360
  0
SEQEND
  8
0
  0
SOLID
  8
0
 62
    15
 10
4.241160
 20
1.346400
 11
4.247320
 21
2.095720
 12
4.284280
 22
1.335840
 13
4.290000
 23
2.085160
  0
POLYLINE
  8
0
  6
CONTINUOUS
 66
     1
 40
0.000000
 41
0.000000
  0
VERTEX
  8
0
  6
CONTINUOUS
 10
4.241160
 20
1.346400
  0
VERTEX
  8
0
  6
CONTINUOUS
 10
4.247320
 20
2.095720
  0
VERTEX
  8
0
  6
CONTINUOUS
 10
4.290000
 20
2.085160
  0
VERTEX
  8
0
  6
CONTINUOUS
 10
4.284280
 20
1.335840
  0
VERTEX
  8
0
  6
CONTINUOUS
 10
4.241160
 20
1.346400
  0
SEQEND
  8
0
  0
SOLID
  8
0
 62
    15
 10
4.284280
 20
1.335840
 11
4.290000
 21
2.085160
 12
4.325640
 22
1.329240
 13
4.331800
 23
2.079000
  0
POLYLINE
  8
0
  6
CONTINUOUS
 66
     1
 40
0.000000
 41
0.000000
  0
VERTEX
  8
0
  6
CONTINUOUS
 10
4.284280
 20
1.335840
  0
VERTEX
  8
0
  6
CONTINUOUS
 10
4.290000
 20
2.085160
  0
VERTEX
  8
0
  6
CONTINUOUS
 10
4.331800
 20
2.079000
  0
VERTEX
  8
0
  6
CONTINUOUS
 10
4.325640
 20
1.329240
  0
VERTEX
  8
0
  6
CONTINUOUS
 10
4.284280
 20
1.335840
  0
SEQEND
  8
0
  0
SOLID
  8
0
 62
    15
 10
4.325640
 20
1.329240
 11
4.331800
 21
2.079000
 12
4.365680
 22
1.326600
 13
4.371840
 23
2.075920
  0
POLYLINE
  8
0
  6
CONTINUOUS
 66
     1
 40
0.000000
 41
0.000000
  0
VERTEX
  8
0
  6
CONTINUOUS
 10
4.325640
 20
1.329240
  0
VERTEX
  8
0
  6
CONTINUOUS
 10
4.331800
 20
2.079000
  0
VERTEX
  8
0
  6
CONTINUOUS
 10
4.371840
 20
2.075920
  0
VERTEX
  8
0
  6
CONTINUOUS
 10
4.365680
 20
1.326600
  0
VERTEX
  8
0
  6
CONTINUOUS
 10
4.325640
 20
1.329240
  0
SEQEND
  8
0
  0
SOLID
  8
0
 62
    15
 10
5.932960
 20
1.147960
 11
5.939120
 21
1.897280
 12
6.028880
 22
1.147960
 13
6.034600
 23
1.897280
  0
POLYLINE
  8
0
  6
CONTINUOUS
 66
     1
 40
0.000000
 41
0.000000
  0
VERTEX
  8
0
  6
CONTINUOUS
 10
5.932960
 20
1.147960
  0
VERTEX
  8
0
  6
CONTINUOUS
 10
5.939120
 20
1.897280
  0
VERTEX
  8
0
  6
CONTINUOUS
 10
6.034600
 20
1.897280
  0
VERTEX
  8
0
  6
CONTINUOUS
 10
6.028880
 20
1.147960
  0
VERTEX
  8
0
  6
CONTINUOUS
 10
5.932960
 20
1.147960
  0
SEQEND
  8
0
  0
SOLID
  8
0
 62
    15
 10
5.901280
 20
1.241680
 11
5.907440
 21
1.991000
 12
5.932960
 22
1.147960
 13
5.939120
 23
1.897280
  0
POLYLINE
  8
0
  6
CONTINUOUS
 66
     1
 40
0.000000
 41
0.000000
  0
VERTEX
  8
0
  6
CONTINUOUS
 10
5.901280
 20
1.241680
  0
VERTEX
  8
0
  6
CONTINUOUS
 10
5.907440
 20
1.991000
  0
VERTEX
  8
0
  6
CONTINUOUS
 10
5.939120
 20
1.897280
  0
VERTEX
  8
0
  6
CONTINUOUS
 10
5.932960
 20
1.147960
  0
VERTEX
  8
0
  6
CONTINUOUS
 10
5.901280
 20
1.241680
  0
SEQEND
  8
0
  0
SOLID
  8
0
 62
    15
 10
4.404400
 20
1.241680
 11
4.410560
 21
1.991000
 12
5.901280
 22
1.241680
 13
5.907440
 23
1.991000
  0
POLYLINE
  8
0
  6
CONTINUOUS
 66
     1
 40
0.000000
 41
0.000000
  0
VERTEX
  8
0
  6
CONTINUOUS
 10
4.404400
 20
1.241680
  0
VERTEX
  8
0
  6
CONTINUOUS
 10
4.410560
 20
1.991000
  0
VERTEX
  8
0
  6
CONTINUOUS
 10
5.907440
 20
1.991000
  0
VERTEX
  8
0
  6
CONTINUOUS
 10
5.901280
 20
1.241680
  0
VERTEX
  8
0
  6
CONTINUOUS
 10
4.404400
 20
1.241680
  0
SEQEND
  8
0
  0
SOLID
  8
0
 62
    15
 10
4.404400
 20
1.326160
 11
4.410560
 21
2.075920
 12
4.404400
 22
1.241680
 13
4.410560
 23
1.991000
  0
POLYLINE
  8
0
  6
CONTINUOUS
 66
     1
 40
0.000000
 41
0.000000
  0
VERTEX
  8
0
  6
CONTINUOUS
 10
4.404400
 20
1.326160
  0
VERTEX
  8
0
  6
CONTINUOUS
 10
4.410560
 20
2.075920
  0
VERTEX
  8
0
  6
CONTINUOUS
 10
4.410560
 20
1.991000
  0
VERTEX
  8
0
  6
CONTINUOUS
 10
4.404400
 20
1.241680
  0
VERTEX
  8
0
  6
CONTINUOUS
 10
4.404400
 20
1.326160
  0
SEQEND
  8
0
  0
SOLID
  8
0
 62
    15
 10
4.365680
 20
1.326600
 11
4.371840
 21
2.075920
 12
4.404400
 22
1.326160
 13
4.410560
 23
2.075920
  0
POLYLINE
  8
0
  6
CONTINUOUS
 66
     1
 40
0.000000
 41
0.000000
  0
VERTEX
  8
0
  6
CONTINUOUS
 10
4.365680
 20
1.326600
  0
VERTEX
  8
0
  6
CONTINUOUS
 10
4.371840
 20
2.075920
  0
VERTEX
  8
0
  6
CONTINUOUS
 10
4.410560
 20
2.075920
  0
VERTEX
  8
0
  6
CONTINUOUS
 10
4.404400
 20
1.326160
  0
VERTEX
  8
0
  6
CONTINUOUS
 10
4.365680
 20
1.326600
  0
SEQEND
  8
0
  0
SOLID
  8
0
 62
    15
 10
3.702600
 20
1.428680
 11
3.708760
 21
2.178440
 12
3.811720
 22
1.428680
 13
3.817440
 23
2.178440
  0
POLYLINE
  8
0
  6
CONTINUOUS
 66
     1
 40
0.000000
 41
0.000000
  0
VERTEX
  8
0
  6
CONTINUOUS
 10
3.702600
 20
1.428680
  0
VERTEX
  8
0
  6
CONTINUOUS
 10
3.708760
 20
2.178440
  0
VERTEX
  8
0
  6
CONTINUOUS
 10
3.817440
 20
2.178440
  0
VERTEX
  8
0
  6
CONTINUOUS
 10
3.811720
 20
1.428680
  0
VERTEX
  8
0
  6
CONTINUOUS
 10
3.702600
 20
1.428680
  0
SEQEND
  8
0
  0
SOLID
  8
0
 62
    15
 10
6.035040
 20
1.175240
 11
6.040760
 21
1.924560
 12
6.045600
 22
1.197680
 13
6.051320
 23
1.947000
  0
POLYLINE
  8
0
  6
CONTINUOUS
 66
     1
 40
0.000000
 41
0.000000
  0
VERTEX
  8
0
  6
CONTINUOUS
 10
6.035040
 20
1.175240
  0
VERTEX
  8
0
  6
CONTINUOUS
 10
6.040760
 20
1.924560
  0
VERTEX
  8
0
  6
CONTINUOUS
 10
6.051320
 20
1.947000
  0
VERTEX
  8
0
  6
CONTINUOUS
 10
6.045600
 20
1.197680
  0
VERTEX
  8
0
  6
CONTINUOUS
 10
6.035040
 20
1.175240
  0
SEQEND
  8
0
  0
SOLID
  8
0
 62
    15
 10
6.045600
 20
1.197680
 11
6.051320
 21
1.947000
 12
6.059240
 22
1.216160
 13
6.065400
 23
1.965480
  0
POLYLINE
  8
0
  6
CONTINUOUS
 66
     1
 40
0.000000
 41
0.000000
  0
VERTEX
  8
0
  6
CONTINUOUS
 10
6.045600
 20
1.197680
  0
VERTEX
  8
0
  6
CONTINUOUS
 10
6.051320
 20
1.947000
  0
VERTEX
  8
0
  6
CONTINUOUS
 10
6.065400
 20
1.965480
  0
VERTEX
  8
0
  6
CONTINUOUS
 10
6.059240
 20
1.216160
  0
VERTEX
  8
0
  6
CONTINUOUS
 10
6.045600
 20
1.197680
  0
SEQEND
  8
0
  0
SOLID
  8
0
 62
    15
 10
6.059240
 20
1.216160
 11
6.065400
 21
1.965480
 12
6.076400
 22
1.230240
 13
6.082120
 23
1.979560
  0
POLYLINE
  8
0
  6
CONTINUOUS
 66
     1
 40
0.000000
 41
0.000000
  0
VERTEX
  8
0
  6
CONTINUOUS
 10
6.059240
 20
1.216160
  0
VERTEX
  8
0
  6
CONTINUOUS
 10
6.065400
 20
1.965480
  0
VERTEX
  8
0
  6
CONTINUOUS
 10
6.082120
 20
1.979560
  0
VERTEX
  8
0
  6
CONTINUOUS
 10
6.076400
 20
1.230240
  0
VERTEX
  8
0
  6
CONTINUOUS
 10
6.059240
 20
1.216160
  0
SEQEND
  8
0
  0
SOLID
  8
0
 62
    15
 10
6.076400
 20
1.230240
 11
6.082120
 21
1.979560
 12
6.095320
 22
1.239920
 13
6.101480
 23
1.989240
  0
POLYLINE
  8
0
  6
CONTINUOUS
 66
     1
 40
0.000000
 41
0.000000
  0
VERTEX
  8
0
  6
CONTINUOUS
 10
6.076400
 20
1.230240
  0
VERTEX
  8
0
  6
CONTINUOUS
 10
6.082120
 20
1.979560
  0
VERTEX
  8
0
  6
CONTINUOUS
 10
6.101480
 20
1.989240
  0
VERTEX
  8
0
  6
CONTINUOUS
 10
6.095320
 20
1.239920
  0
VERTEX
  8
0
  6
CONTINUOUS
 10
6.076400
 20
1.230240
  0
SEQEND
  8
0
  0
SOLID
  8
0
 62
    15
 10
6.095320
 20
1.239920
 11
6.101480
 21
1.989240
 12
6.116440
 22
1.245640
 13
6.122160
 23
1.994960
  0
POLYLINE
  8
0
  6
CONTINUOUS
 66
     1
 40
0.000000
 41
0.000000
  0
VERTEX
  8
0
  6
CONTINUOUS
 10
6.095320
 20
1.239920
  0
VERTEX
  8
0
  6
CONTINUOUS
 10
6.101480
 20
1.989240
  0
VERTEX
  8
0
  6
CONTINUOUS
 10
6.122160
 20
1.994960
  0
VERTEX
  8
0
  6
CONTINUOUS
 10
6.116440
 20
1.245640
  0
VERTEX
  8
0
  6
CONTINUOUS
 10
6.095320
 20
1.239920
  0
SEQEND
  8
0
  0
SOLID
  8
0
 62
    15
 10
6.116440
 20
1.245640
 11
6.122160
 21
1.994960
 12
6.138000
 22
1.246960
 13
6.144160
 23
1.996280
  0
POLYLINE
  8
0
  6
CONTINUOUS
 66
     1
 40
0.000000
 41
0.000000
  0
VERTEX
  8
0
  6
CONTINUOUS
 10
6.116440
 20
1.245640
  0
VERTEX
  8
0
  6
CONTINUOUS
 10
6.122160
 20
1.994960
  0
VERTEX
  8
0
  6
CONTINUOUS
 10
6.144160
 20
1.996280
  0
VERTEX
  8
0
  6
CONTINUOUS
 10
6.138000
 20
1.246960
  0
VERTEX
  8
0
  6
CONTINUOUS
 10
6.116440
 20
1.245640
  0
SEQEND
  8
0
  0
SOLID
  8
0
 62
    15
 10
6.138000
 20
1.246960
 11
6.144160
 21
1.996280
 12
6.160440
 22
1.244320
 13
6.166160
 23
1.993640
  0
POLYLINE
  8
0
  6
CONTINUOUS
 66
     1
 40
0.000000
 41
0.000000
  0
VERTEX
  8
0
  6
CONTINUOUS
 10
6.138000
 20
1.246960
  0
VERTEX
  8
0
  6
CONTINUOUS
 10
6.144160
 20
1.996280
  0
VERTEX
  8
0
  6
CONTINUOUS
 10
6.166160
 20
1.993640
  0
VERTEX
  8
0
  6
CONTINUOUS
 10
6.160440
 20
1.244320
  0
VERTEX
  8
0
  6
CONTINUOUS
 10
6.138000
 20
1.246960
  0
SEQEND
  8
0
  0
SOLID
  8
0
 62
    15
 10
6.160440
 20
1.244320
 11
6.166160
 21
1.993640
 12
6.182000
 22
1.237280
 13
6.188160
 23
1.986600
  0
POLYLINE
  8
0
  6
CONTINUOUS
 66
     1
 40
0.000000
 41
0.000000
  0
VERTEX
  8
0
  6
CONTINUOUS
 10
6.160440
 20
1.244320
  0
VERTEX
  8
0
  6
CONTINUOUS
 10
6.166160
 20
1.993640
  0
VERTEX
  8
0
  6
CONTINUOUS
 10
6.188160
 20
1.986600
  0
VERTEX
  8
0
  6
CONTINUOUS
 10
6.182000
 20
1.237280
  0
VERTEX
  8
0
  6
CONTINUOUS
 10
6.160440
 20
1.244320
  0
SEQEND
  8
0
  0
SOLID
  8
0
 62
    15
 10
6.182000
 20
1.237280
 11
6.188160
 21
1.986600
 12
6.203120
 22
1.226280
 13
6.208840
 23
1.975600
  0
POLYLINE
  8
0
  6
CONTINUOUS
 66
     1
 40
0.000000
 41
0.000000
  0
VERTEX
  8
0
  6
CONTINUOUS
 10
6.182000
 20
1.237280
  0
VERTEX
  8
0
  6
CONTINUOUS
 10
6.188160
 20
1.986600
  0
VERTEX
  8
0
  6
CONTINUOUS
 10
6.208840
 20
1.975600
  0
VERTEX
  8
0
  6
CONTINUOUS
 10
6.203120
 20
1.226280
  0
VERTEX
  8
0
  6
CONTINUOUS
 10
6.182000
 20
1.237280
  0
SEQEND
  8
0
  0
SOLID
  8
0
 62
    15
 10
6.203120
 20
1.226280
 11
6.208840
 21
1.975600
 12
6.222480
 22
1.211320
 13
6.228200
 23
1.960640
  0
POLYLINE
  8
0
  6
CONTINUOUS
 66
     1
 40
0.000000
 41
0.000000
  0
VERTEX
  8
0
  6
CONTINUOUS
 10
6.203120
 20
1.226280
  0
VERTEX
  8
0
  6
CONTINUOUS
 10
6.208840
 20
1.975600
  0
VERTEX
  8
0
  6
CONTINUOUS
 10
6.228200
 20
1.960640
  0
VERTEX
  8
0
  6
CONTINUOUS
 10
6.222480
 20
1.211320
  0
VERTEX
  8
0
  6
CONTINUOUS
 10
6.203120
 20
1.226280
  0
SEQEND
  8
0
  0
SOLID
  8
0
 62
    15
 10
6.222480
 20
1.211320
 11
6.228200
 21
1.960640
 12
6.239640
 22
1.192400
 13
6.245360
 23
1.941720
  0
POLYLINE
  8
0
  6
CONTINUOUS
 66
     1
 40
0.000000
 41
0.000000
  0
VERTEX
  8
0
  6
CONTINUOUS
 10
6.222480
 20
1.211320
  0
VERTEX
  8
0
  6
CONTINUOUS
 10
6.228200
 20
1.960640
  0
VERTEX
  8
0
  6
CONTINUOUS
 10
6.245360
 20
1.941720
  0
VERTEX
  8
0
  6
CONTINUOUS
 10
6.239640
 20
1.192400
  0
VERTEX
  8
0
  6
CONTINUOUS
 10
6.222480
 20
1.211320
  0
SEQEND
  8
0
  0
SOLID
  8
0
 62
    15
 10
6.253720
 20
1.169520
 11
6.259880
 21
1.918840
 12
6.264720
 22
1.142680
 13
6.270440
 23
1.892000
  0
POLYLINE
  8
0
  6
CONTINUOUS
 66
     1
 40
0.000000
 41
0.000000
  0
VERTEX
  8
0
  6
CONTINUOUS
 10
6.253720
 20
1.169520
  0
VERTEX
  8
0
  6
CONTINUOUS
 10
6.259880
 20
1.918840
  0
VERTEX
  8
0
  6
CONTINUOUS
 10
6.270440
 20
1.892000
  0
VERTEX
  8
0
  6
CONTINUOUS
 10
6.264720
 20
1.142680
  0
VERTEX
  8
0
  6
CONTINUOUS
 10
6.253720
 20
1.169520
  0
SEQEND
  8
0
  0
SOLID
  8
0
 62
    15
 10
6.239640
 20
1.192400
 11
6.245360
 21
1.941720
 12
6.253720
 22
1.169520
 13
6.259880
 23
1.918840
  0
POLYLINE
  8
0
  6
CONTINUOUS
 66
     1
 40
0.000000
 41
0.000000
  0
VERTEX
  8
0
  6
CONTINUOUS
 10
6.239640
 20
1.192400
  0
VERTEX
  8
0
  6
CONTINUOUS
 10
6.245360
 20
1.941720
  0
VERTEX
  8
0
  6
CONTINUOUS
 10
6.259880
 20
1.918840
  0
VERTEX
  8
0
  6
CONTINUOUS
 10
6.253720
 20
1.169520
  0
VERTEX
  8
0
  6
CONTINUOUS
 10
6.239640
 20
1.192400
  0
SEQEND
  8
0
  0
SOLID
  8
0
 62
    15
 10
6.264720
 20
1.142680
 11
6.270440
 21
1.892000
 12
6.271320
 22
1.111880
 13
6.277040
 23
1.861200
  0
POLYLINE
  8
0
  6
CONTINUOUS
 66
     1
 40
0.000000
 41
0.000000
  0
VERTEX
  8
0
  6
CONTINUOUS
 10
6.264720
 20
1.142680
  0
VERTEX
  8
0
  6
CONTINUOUS
 10
6.270440
 20
1.892000
  0
VERTEX
  8
0
  6
CONTINUOUS
 10
6.277040
 20
1.861200
  0
VERTEX
  8
0
  6
CONTINUOUS
 10
6.271320
 20
1.111880
  0
VERTEX
  8
0
  6
CONTINUOUS
 10
6.264720
 20
1.142680
  0
SEQEND
  8
0
  0
SOLID
  8
0
 62
    15
 10
6.271320
 20
1.111880
 11
6.277040
 21
1.861200
 12
6.273080
 22
1.077120
 13
6.279240
 23
1.826440
  0
POLYLINE
  8
0
  6
CONTINUOUS
 66
     1
 40
0.000000
 41
0.000000
  0
VERTEX
  8
0
  6
CONTINUOUS
 10
6.271320
 20
1.111880
  0
VERTEX
  8
0
  6
CONTINUOUS
 10
6.277040
 20
1.861200
  0
VERTEX
  8
0
  6
CONTINUOUS
 10
6.279240
 20
1.826440
  0
VERTEX
  8
0
  6
CONTINUOUS
 10
6.273080
 20
1.077120
  0
VERTEX
  8
0
  6
CONTINUOUS
 10
6.271320
 20
1.111880
  0
SEQEND
  8
0
  0
SOLID
  8
0
 62
    15
 10
6.273080
 20
1.077120
 11
6.279240
 21
1.826440
 12
6.273080
 22
0.846560
 13
6.279240
 23
1.596320
  0
POLYLINE
  8
0
  6
CONTINUOUS
 66
     1
 40
0.000000
 41
0.000000
  0
VERTEX
  8
0
  6
CONTINUOUS
 10
6.273080
 20
1.077120
  0
VERTEX
  8
0
  6
CONTINUOUS
 10
6.279240
 20
1.826440
  0
VERTEX
  8
0
  6
CONTINUOUS
 10
6.279240
 20
1.596320
  0
VERTEX
  8
0
  6
CONTINUOUS
 10
6.273080
 20
0.846560
  0
VERTEX
  8
0
  6
CONTINUOUS
 10
6.273080
 20
1.077120
  0
SEQEND
  8
0
  0
SOLID
  8
0
 62
    15
 10
1.805320
 20
1.533840
 11
1.811040
 21
2.283600
 12
3.702600
 22
1.533840
 13
3.708760
 23
2.283600
  0
POLYLINE
  8
0
  6
CONTINUOUS
 66
     1
 40
0.000000
 41
0.000000
  0
VERTEX
  8
0
  6
CONTINUOUS
 10
1.805320
 20
1.533840
  0
VERTEX
  8
0
  6
CONTINUOUS
 10
1.811040
 20
2.283600
  0
VERTEX
  8
0
  6
CONTINUOUS
 10
3.708760
 20
2.283600
  0
VERTEX
  8
0
  6
CONTINUOUS
 10
3.702600
 20
1.533840
  0
VERTEX
  8
0
  6
CONTINUOUS
 10
1.805320
 20
1.533840
  0
SEQEND
  8
0
  0
SOLID
  8
0
 62
    15
 10
3.702600
 20
1.533840
 11
3.708760
 21
2.283600
 12
3.702600
 22
1.428680
 13
3.708760
 23
2.178440
  0
POLYLINE
  8
0
  6
CONTINUOUS
 66
     1
 40
0.000000
 41
0.000000
  0
VERTEX
  8
0
  6
CONTINUOUS
 10
3.702600
 20
1.533840
  0
VERTEX
  8
0
  6
CONTINUOUS
 10
3.708760
 20
2.283600
  0
VERTEX
  8
0
  6
CONTINUOUS
 10
3.708760
 20
2.178440
  0
VERTEX
  8
0
  6
CONTINUOUS
 10
3.702600
 20
1.428680
  0
VERTEX
  8
0
  6
CONTINUOUS
 10
3.702600
 20
1.533840
  0
SEQEND
  8
0
  0
SOLID
  8
0
 62
    15
 10
3.811720
 20
1.430440
 11
3.817440
 21
2.180200
 12
3.835480
 22
1.460800
 13
3.841640
 23
2.210120
  0
POLYLINE
  8
0
  6
CONTINUOUS
 66
     1
 40
0.000000
 41
0.000000
  0
VERTEX
  8
0
  6
CONTINUOUS
 10
3.811720
 20
1.430440
  0
VERTEX
  8
0
  6
CONTINUOUS
 10
3.817440
 20
2.180200
  0
VERTEX
  8
0
  6
CONTINUOUS
 10
3.841640
 20
2.210120
  0
VERTEX
  8
0
  6
CONTINUOUS
 10
3.835480
 20
1.460800
  0
VERTEX
  8
0
  6
CONTINUOUS
 10
3.811720
 20
1.430440
  0
SEQEND
  8
0
  0
POLYLINE
  8
0
  6
CONTINUOUS
 66
     1
 40
0.000000
 41
0.000000
  0
VERTEX
  8
0
  6
CONTINUOUS
 10
3.811720
 20
1.430440
  0
VERTEX
  8
0
  6
CONTINUOUS
 10
3.835480
 20
1.460800
  0
VERTEX
  8
0
  6
CONTINUOUS
 10
3.858800
 20
1.482800
  0
VERTEX
  8
0
  6
CONTINUOUS
 10
3.883000
 20
1.496880
  0
VERTEX
  8
0
  6
CONTINUOUS
 10
3.909400
 20
1.502160
  0
VERTEX
  8
0
  6
CONTINUOUS
 10
3.938440
 20
1.499080
  0
VERTEX
  8
0
  6
CONTINUOUS
 10
3.971880
 20
1.487200
  0
VERTEX
  8
0
  6
CONTINUOUS
 10
4.010600
 20
1.466960
  0
VERTEX
  8
0
  6
CONTINUOUS
 10
4.055920
 20
1.437040
  0
VERTEX
  8
0
  6
CONTINUOUS
 10
4.104320
 20
1.406240
  0
VERTEX
  8
0
  6
CONTINUOUS
 10
4.150960
 20
1.380720
  0
VERTEX
  8
0
  6
CONTINUOUS
 10
4.196720
 20
1.361360
  0
VERTEX
  8
0
  6
CONTINUOUS
 10
4.241160
 20
1.346400
  0
VERTEX
  8
0
  6
CONTINUOUS
 10
4.284280
 20
1.335840
  0
VERTEX
  8
0
  6
CONTINUOUS
 10
4.325640
 20
1.329240
  0
VERTEX
  8
0
  6
CONTINUOUS
 10
4.365680
 20
1.326600
  0
VERTEX
  8
0
  6
CONTINUOUS
 10
4.404400
 20
1.326160
  0
VERTEX
  8
0
  6
CONTINUOUS
 10
4.404400
 20
1.241680
  0
VERTEX
  8
0
  6
CONTINUOUS
 10
5.901280
 20
1.241680
  0
VERTEX
  8
0
  6
CONTINUOUS
 10
5.932960
 20
1.147960
  0
VERTEX
  8
0
  6
CONTINUOUS
 10
6.028880
 20
1.147960
  0
VERTEX
  8
0
  6
CONTINUOUS
 10
6.035040
 20
1.175240
  0
VERTEX
  8
0
  6
CONTINUOUS
 10
6.045600
 20
1.197680
  0
VERTEX
  8
0
  6
CONTINUOUS
 10
6.059240
 20
1.216160
  0
VERTEX
  8
0
  6
CONTINUOUS
 10
6.076400
 20
1.230240
  0
VERTEX
  8
0
  6
CONTINUOUS
 10
6.095320
 20
1.239920
  0
VERTEX
  8
0
  6
CONTINUOUS
 10
6.116440
 20
1.245640
  0
VERTEX
  8
0
  6
CONTINUOUS
 10
6.138000
 20
1.246960
  0
VERTEX
  8
0
  6
CONTINUOUS
 10
6.160440
 20
1.244320
  0
VERTEX
  8
0
  6
CONTINUOUS
 10
6.182000
 20
1.237280
  0
VERTEX
  8
0
  6
CONTINUOUS
 10
6.203120
 20
1.226280
  0
VERTEX
  8
0
  6
CONTINUOUS
 10
6.222480
 20
1.211320
  0
VERTEX
  8
0
  6
CONTINUOUS
 10
6.239640
 20
1.192400
  0
VERTEX
  8
0
  6
CONTINUOUS
 10
6.253720
 20
1.169520
  0
VERTEX
  8
0
  6
CONTINUOUS
 10
6.264720
 20
1.142680
  0
VERTEX
  8
0
  6
CONTINUOUS
 10
6.271320
 20
1.111880
  0
VERTEX
  8
0
  6
CONTINUOUS
 10
6.273080
 20
1.077120
  0
VERTEX
  8
0
  6
CONTINUOUS
 10
6.273080
 20
0.846560
  0
VERTEX
  8
0
  6
CONTINUOUS
 10
1.805320
 20
0.846560
  0
VERTEX
  8
0
  6
CONTINUOUS
 10
1.805320
 20
1.533840
  0
VERTEX
  8
0
  6
CONTINUOUS
 10
3.702600
 20
1.533840
  0
VERTEX
  8
0
  6
CONTINUOUS
 10
3.702600
 20
1.428680
  0
VERTEX
  8
0
  6
CONTINUOUS
 10
3.811720
 20
1.428680
  0
VERTEX
  8
0
  6
CONTINUOUS
 10
3.811720
 20
1.430440
  0
SEQEND
  8
0
  0
SOLID
  8
0
 62
    15
 10
1.734480
 20
1.912240
 11
1.736240
 21
2.653200
 12
1.781560
 22
1.852400
 13
1.783320
 23
2.592920
  0
POLYLINE
  8
0
  6
CONTINUOUS
 66
     1
 40
0.000000
 41
0.000000
  0
VERTEX
  8
0
  6
CONTINUOUS
 10
1.734480
 20
1.912240
  0
VERTEX
  8
0
  6
CONTINUOUS
 10
1.736240
 20
2.653200
  0
VERTEX
  8
0
  6
CONTINUOUS
 10
1.783320
 20
2.592920
  0
VERTEX
  8
0
  6
CONTINUOUS
 10
1.781560
 20
1.852400
  0
VERTEX
  8
0
  6
CONTINUOUS
 10
1.734480
 20
1.912240
  0
SEQEND
  8
0
  0
SOLID
  8
0
 62
    15
 10
1.422960
 20
2.151160
 11
1.424280
 21
2.892120
 12
1.466960
 22
2.070640
 13
1.468280
 23
2.811600
  0
POLYLINE
  8
0
  6
CONTINUOUS
 66
     1
 40
0.000000
 41
0.000000
  0
VERTEX
  8
0
  6
CONTINUOUS
 10
1.422960
 20
2.151160
  0
VERTEX
  8
0
  6
CONTINUOUS
 10
1.424280
 20
2.892120
  0
VERTEX
  8
0
  6
CONTINUOUS
 10
1.468280
 20
2.811600
  0
VERTEX
  8
0
  6
CONTINUOUS
 10
1.466960
 20
2.070640
  0
VERTEX
  8
0
  6
CONTINUOUS
 10
1.422960
 20
2.151160
  0
SEQEND
  8
0
  0
SOLID
  8
0
 62
    15
 10
1.466960
 20
2.070640
 11
1.468280
 21
2.811600
 12
1.470920
 22
2.070640
 13
1.472240
 23
2.811600
  0
POLYLINE
  8
0
  6
CONTINUOUS
 66
     1
 40
0.000000
 41
0.000000
  0
VERTEX
  8
0
  6
CONTINUOUS
 10
1.466960
 20
2.070640
  0
VERTEX
  8
0
  6
CONTINUOUS
 10
1.468280
 20
2.811600
  0
VERTEX
  8
0
  6
CONTINUOUS
 10
1.472240
 20
2.811600
  0
VERTEX
  8
0
  6
CONTINUOUS
 10
1.470920
 20
2.070640
  0
VERTEX
  8
0
  6
CONTINUOUS
 10
1.466960
 20
2.070640
  0
SEQEND
  8
0
  0
SOLID
  8
0
 62
    15
 10
1.470920
 20
2.070640
 11
1.472240
 21
2.811600
 12
1.527240
 22
2.066680
 13
1.528560
 23
2.807640
  0
POLYLINE
  8
0
  6
CONTINUOUS
 66
     1
 40
0.000000
 41
0.000000
  0
VERTEX
  8
0
  6
CONTINUOUS
 10
1.470920
 20
2.070640
  0
VERTEX
  8
0
  6
CONTINUOUS
 10
1.472240
 20
2.811600
  0
VERTEX
  8
0
  6
CONTINUOUS
 10
1.528560
 20
2.807640
  0
VERTEX
  8
0
  6
CONTINUOUS
 10
1.527240
 20
2.066680
  0
VERTEX
  8
0
  6
CONTINUOUS
 10
1.470920
 20
2.070640
  0
SEQEND
  8
0
  0
SOLID
  8
0
 62
    15
 10
1.527240
 20
2.066680
 11
1.528560
 21
2.807640
 12
1.573440
 22
2.056560
 13
1.574760
 23
2.797520
  0
POLYLINE
  8
0
  6
CONTINUOUS
 66
     1
 40
0.000000
 41
0.000000
  0
VERTEX
  8
0
  6
CONTINUOUS
 10
1.527240
 20
2.066680
  0
VERTEX
  8
0
  6
CONTINUOUS
 10
1.528560
 20
2.807640
  0
VERTEX
  8
0
  6
CONTINUOUS
 10
1.574760
 20
2.797520
  0
VERTEX
  8
0
  6
CONTINUOUS
 10
1.573440
 20
2.056560
  0
VERTEX
  8
0
  6
CONTINUOUS
 10
1.527240
 20
2.066680
  0
SEQEND
  8
0
  0
SOLID
  8
0
 62
     7
 10
1.573440
 20
2.056560
 11
1.574760
 21
2.797520
 12
1.611280
 22
2.041160
 13
1.613040
 23
2.781680
  0
POLYLINE
  8
0
  6
CONTINUOUS
 66
     1
 40
0.000000
 41
0.000000
  0
VERTEX
  8
0
  6
CONTINUOUS
 10
1.573440
 20
2.056560
  0
VERTEX
  8
0
  6
CONTINUOUS
 10
1.574760
 20
2.797520
  0
VERTEX
  8
0
  6
CONTINUOUS
 10
1.613040
 20
2.781680
  0
VERTEX
  8
0
  6
CONTINUOUS
 10
1.611280
 20
2.041160
  0
VERTEX
  8
0
  6
CONTINUOUS
 10
1.573440
 20
2.056560
  0
SEQEND
  8
0
  0
SOLID
  8
0
 62
     7
 10
1.611280
 20
2.041160
 11
1.613040
 21
2.781680
 12
1.642960
 22
2.020920
 13
1.644720
 23
2.761880
  0
POLYLINE
  8
0
  6
CONTINUOUS
 66
     1
 40
0.000000
 41
0.000000
  0
VERTEX
  8
0
  6
CONTINUOUS
 10
1.611280
 20
2.041160
  0
VERTEX
  8
0
  6
CONTINUOUS
 10
1.613040
 20
2.781680
  0
VERTEX
  8
0
  6
CONTINUOUS
 10
1.644720
 20
2.761880
  0
VERTEX
  8
0
  6
CONTINUOUS
 10
1.642960
 20
2.020920
  0
VERTEX
  8
0
  6
CONTINUOUS
 10
1.611280
 20
2.041160
  0
SEQEND
  8
0
  0
SOLID
  8
0
 62
     7
 10
1.642960
 20
2.020920
 11
1.644720
 21
2.761880
 12
1.669360
 22
1.997160
 13
1.671120
 23
2.738120
  0
POLYLINE
  8
0
  6
CONTINUOUS
 66
     1
 40
0.000000
 41
0.000000
  0
VERTEX
  8
0
  6
CONTINUOUS
 10
1.642960
 20
2.020920
  0
VERTEX
  8
0
  6
CONTINUOUS
 10
1.644720
 20
2.761880
  0
VERTEX
  8
0
  6
CONTINUOUS
 10
1.671120
 20
2.738120
  0
VERTEX
  8
0
  6
CONTINUOUS
 10
1.669360
 20
1.997160
  0
VERTEX
  8
0
  6
CONTINUOUS
 10
1.642960
 20
2.020920
  0
SEQEND
  8
0
  0
SOLID
  8
0
 62
    15
 10
1.669360
 20
1.997160
 11
1.671120
 21
2.738120
 12
1.692680
 22
1.970760
 13
1.694000
 23
2.711720
  0
POLYLINE
  8
0
  6
CONTINUOUS
 66
     1
 40
0.000000
 41
0.000000
  0
VERTEX
  8
0
  6
CONTINUOUS
 10
1.669360
 20
1.997160
  0
VERTEX
  8
0
  6
CONTINUOUS
 10
1.671120
 20
2.738120
  0
VERTEX
  8
0
  6
CONTINUOUS
 10
1.694000
 20
2.711720
  0
VERTEX
  8
0
  6
CONTINUOUS
 10
1.692680
 20
1.970760
  0
VERTEX
  8
0
  6
CONTINUOUS
 10
1.669360
 20
1.997160
  0
SEQEND
  8
0
  0
SOLID
  8
0
 62
    15
 10
1.692680
 20
1.970760
 11
1.694000
 21
2.711720
 12
1.713800
 22
1.942160
 13
1.715120
 23
2.683120
  0
POLYLINE
  8
0
  6
CONTINUOUS
 66
     1
 40
0.000000
 41
0.000000
  0
VERTEX
  8
0
  6
CONTINUOUS
 10
1.692680
 20
1.970760
  0
VERTEX
  8
0
  6
CONTINUOUS
 10
1.694000
 20
2.711720
  0
VERTEX
  8
0
  6
CONTINUOUS
 10
1.715120
 20
2.683120
  0
VERTEX
  8
0
  6
CONTINUOUS
 10
1.713800
 20
1.942160
  0
VERTEX
  8
0
  6
CONTINUOUS
 10
1.692680
 20
1.970760
  0
SEQEND
  8
0
  0
SOLID
  8
0
 62
    15
 10
1.713800
 20
1.942160
 11
1.715120
 21
2.683120
 12
1.734480
 22
1.912240
 13
1.736240
 23
2.653200
  0
POLYLINE
  8
0
  6
CONTINUOUS
 66
     1
 40
0.000000
 41
0.000000
  0
VERTEX
  8
0
  6
CONTINUOUS
 10
1.713800
 20
1.942160
  0
VERTEX
  8
0
  6
CONTINUOUS
 10
1.715120
 20
2.683120
  0
VERTEX
  8
0
  6
CONTINUOUS
 10
1.736240
 20
2.653200
  0
VERTEX
  8
0
  6
CONTINUOUS
 10
1.734480
 20
1.912240
  0
VERTEX
  8
0
  6
CONTINUOUS
 10
1.713800
 20
1.942160
  0
SEQEND
  8
0
  0
SOLID
  8
0
 62
    15
 10
1.177440
 20
2.151160
 11
1.179200
 21
2.892120
 12
1.422960
 22
2.151160
 13
1.424280
 23
2.892120
  0
POLYLINE
  8
0
  6
CONTINUOUS
 66
     1
 40
0.000000
 41
0.000000
  0
VERTEX
  8
0
  6
CONTINUOUS
 10
1.177440
 20
2.151160
  0
VERTEX
  8
0
  6
CONTINUOUS
 10
1.179200
 20
2.892120
  0
VERTEX
  8
0
  6
CONTINUOUS
 10
1.424280
 20
2.892120
  0
VERTEX
  8
0
  6
CONTINUOUS
 10
1.422960
 20
2.151160
  0
VERTEX
  8
0
  6
CONTINUOUS
 10
1.177440
 20
2.151160
  0
SEQEND
  8
0
  0
SOLID
  8
0
 62
     7
 10
1.781560
 20
1.852400
 11
1.783320
 21
2.592920
 12
1.811040
 22
1.823800
 13
1.812800
 23
2.564320
  0
POLYLINE
  8
0
  6
CONTINUOUS
 66
     1
 40
0.000000
 41
0.000000
  0
VERTEX
  8
0
  6
CONTINUOUS
 10
1.781560
 20
1.852400
  0
VERTEX
  8
0
  6
CONTINUOUS
 10
1.783320
 20
2.592920
  0
VERTEX
  8
0
  6
CONTINUOUS
 10
1.812800
 20
2.564320
  0
VERTEX
  8
0
  6
CONTINUOUS
 10
1.811040
 20
1.823800
  0
VERTEX
  8
0
  6
CONTINUOUS
 10
1.781560
 20
1.852400
  0
SEQEND
  8
0
  0
SOLID
  8
0
 62
    15
 10
1.839640
 20
1.532520
 11
1.840960
 21
2.273480
 12
1.839640
 22
0.847440
 13
1.840960
 23
1.588400
  0
POLYLINE
  8
0
  6
CONTINUOUS
 66
     1
 40
0.000000
 41
0.000000
  0
VERTEX
  8
0
  6
CONTINUOUS
 10
1.839640
 20
1.532520
  0
VERTEX
  8
0
  6
CONTINUOUS
 10
1.840960
 20
2.273480
  0
VERTEX
  8
0
  6
CONTINUOUS
 10
1.840960
 20
1.588400
  0
VERTEX
  8
0
  6
CONTINUOUS
 10
1.839640
 20
0.847440
  0
VERTEX
  8
0
  6
CONTINUOUS
 10
1.839640
 20
1.532520
  0
SEQEND
  8
0
  0
SOLID
  8
0
 62
     7
 10
1.846680
 20
1.796960
 11
1.848000
 21
2.537920
 12
1.889800
 22
1.773200
 13
1.891120
 23
2.514160
  0
POLYLINE
  8
0
  6
CONTINUOUS
 66
     1
 40
0.000000
 41
0.000000
  0
VERTEX
  8
0
  6
CONTINUOUS
 10
1.846680
 20
1.796960
  0
VERTEX
  8
0
  6
CONTINUOUS
 10
1.848000
 20
2.537920
  0
VERTEX
  8
0
  6
CONTINUOUS
 10
1.891120
 20
2.514160
  0
VERTEX
  8
0
  6
CONTINUOUS
 10
1.889800
 20
1.773200
  0
VERTEX
  8
0
  6
CONTINUOUS
 10
1.846680
 20
1.796960
  0
SEQEND
  8
0
  0
SOLID
  8
0
 62
     7
 10
1.889800
 20
1.773200
 11
1.891120
 21
2.514160
 12
1.942160
 22
1.753400
 13
1.943480
 23
2.494360
  0
POLYLINE
  8
0
  6
CONTINUOUS
 66
     1
 40
0.000000
 41
0.000000
  0
VERTEX
  8
0
  6
CONTINUOUS
 10
1.889800
 20
1.773200
  0
VERTEX
  8
0
  6
CONTINUOUS
 10
1.891120
 20
2.514160
  0
VERTEX
  8
0
  6
CONTINUOUS
 10
1.943480
 20
2.494360
  0
VERTEX
  8
0
  6
CONTINUOUS
 10
1.942160
 20
1.753400
  0
VERTEX
  8
0
  6
CONTINUOUS
 10
1.889800
 20
1.773200
  0
SEQEND
  8
0
  0
SOLID
  8
0
 62
     7
 10
1.942160
 20
1.753400
 11
1.943480
 21
2.494360
 12
2.005080
 22
1.738000
 13
2.006400
 23
2.478520
  0
POLYLINE
  8
0
  6
CONTINUOUS
 66
     1
 40
0.000000
 41
0.000000
  0
VERTEX
  8
0
  6
CONTINUOUS
 10
1.942160
 20
1.753400
  0
VERTEX
  8
0
  6
CONTINUOUS
 10
1.943480
 20
2.494360
  0
VERTEX
  8
0
  6
CONTINUOUS
 10
2.006400
 20
2.478520
  0
VERTEX
  8
0
  6
CONTINUOUS
 10
2.005080
 20
1.738000
  0
VERTEX
  8
0
  6
CONTINUOUS
 10
1.942160
 20
1.753400
  0
SEQEND
  8
0
  0
SOLID
  8
0
 62
     7
 10
2.005080
 20
1.738000
 11
2.006400
 21
2.478520
 12
2.080320
 22
1.727440
 13
2.081640
 23
2.468400
  0
POLYLINE
  8
0
  6
CONTINUOUS
 66
     1
 40
0.000000
 41
0.000000
  0
VERTEX
  8
0
  6
CONTINUOUS
 10
2.005080
 20
1.738000
  0
VERTEX
  8
0
  6
CONTINUOUS
 10
2.006400
 20
2.478520
  0
VERTEX
  8
0
  6
CONTINUOUS
 10
2.081640
 20
2.468400
  0
VERTEX
  8
0
  6
CONTINUOUS
 10
2.080320
 20
1.727440
  0
VERTEX
  8
0
  6
CONTINUOUS
 10
2.005080
 20
1.738000
  0
SEQEND
  8
0
  0
SOLID
  8
0
 62
     7
 10
2.084280
 20
1.532960
 11
2.085600
 21
2.273920
 12
2.085600
 22
1.532520
 13
2.087360
 23
2.273480
  0
POLYLINE
  8
0
  6
CONTINUOUS
 66
     1
 40
0.000000
 41
0.000000
  0
VERTEX
  8
0
  6
CONTINUOUS
 10
2.084280
 20
1.532960
  0
VERTEX
  8
0
  6
CONTINUOUS
 10
2.085600
 20
2.273920
  0
VERTEX
  8
0
  6
CONTINUOUS
 10
2.087360
 20
2.273480
  0
VERTEX
  8
0
  6
CONTINUOUS
 10
2.085600
 20
1.532520
  0
VERTEX
  8
0
  6
CONTINUOUS
 10
2.084280
 20
1.532960
  0
SEQEND
  8
0
  0
SOLID
  8
0
 62
    15
 10
2.084280
 20
1.727440
 11
2.085600
 21
2.468400
 12
2.084280
 22
1.532960
 13
2.085600
 23
2.273920
  0
POLYLINE
  8
0
  6
CONTINUOUS
 66
     1
 40
0.000000
 41
0.000000
  0
VERTEX
  8
0
  6
CONTINUOUS
 10
2.084280
 20
1.727440
  0
VERTEX
  8
0
  6
CONTINUOUS
 10
2.085600
 20
2.468400
  0
VERTEX
  8
0
  6
CONTINUOUS
 10
2.085600
 20
2.273920
  0
VERTEX
  8
0
  6
CONTINUOUS
 10
2.084280
 20
1.532960
  0
VERTEX
  8
0
  6
CONTINUOUS
 10
2.084280
 20
1.727440
  0
SEQEND
  8
0
  0
SOLID
  8
0
 62
    15
 10
2.080320
 20
1.727440
 11
2.081640
 21
2.468400
 12
2.084280
 22
1.727440
 13
2.085600
 23
2.468400
  0
POLYLINE
  8
0
  6
CONTINUOUS
 66
     1
 40
0.000000
 41
0.000000
  0
VERTEX
  8
0
  6
CONTINUOUS
 10
2.080320
 20
1.727440
  0
VERTEX
  8
0
  6
CONTINUOUS
 10
2.081640
 20
2.468400
  0
VERTEX
  8
0
  6
CONTINUOUS
 10
2.085600
 20
2.468400
  0
VERTEX
  8
0
  6
CONTINUOUS
 10
2.084280
 20
1.727440
  0
VERTEX
  8
0
  6
CONTINUOUS
 10
2.080320
 20
1.727440
  0
SEQEND
  8
0
  0
SOLID
  8
0
 62
     7
 10
1.811040
 20
1.823800
 11
1.812800
 21
2.564320
 12
1.846680
 22
1.796960
 13
1.848000
 23
2.537920
  0
POLYLINE
  8
0
  6
CONTINUOUS
 66
     1
 40
0.000000
 41
0.000000
  0
VERTEX
  8
0
  6
CONTINUOUS
 10
1.811040
 20
1.823800
  0
VERTEX
  8
0
  6
CONTINUOUS
 10
1.812800
 20
2.564320
  0
VERTEX
  8
0
  6
CONTINUOUS
 10
1.848000
 20
2.537920
  0
VERTEX
  8
0
  6
CONTINUOUS
 10
1.846680
 20
1.796960
  0
VERTEX
  8
0
  6
CONTINUOUS
 10
1.811040
 20
1.823800
  0
SEQEND
  8
0
  0
SOLID
  8
0
 62
    15
 10
1.174800
 20
2.151600
 11
1.176120
 21
2.892560
 12
1.177440
 22
2.151160
 13
1.179200
 23
2.892120
  0
POLYLINE
  8
0
  6
CONTINUOUS
 66
     1
 40
0.000000
 41
0.000000
  0
VERTEX
  8
0
  6
CONTINUOUS
 10
1.174800
 20
2.151600
  0
VERTEX
  8
0
  6
CONTINUOUS
 10
1.176120
 20
2.892560
  0
VERTEX
  8
0
  6
CONTINUOUS
 10
1.179200
 20
2.892120
  0
VERTEX
  8
0
  6
CONTINUOUS
 10
1.177440
 20
2.151160
  0
VERTEX
  8
0
  6
CONTINUOUS
 10
1.174800
 20
2.151600
  0
SEQEND
  8
0
  0
POLYLINE
  8
0
  6
CONTINUOUS
 66
     1
 40
0.000000
 41
0.000000
  0
VERTEX
  8
0
  6
CONTINUOUS
 10
1.177440
 20
2.151160
  0
VERTEX
  8
0
  6
CONTINUOUS
 10
1.422960
 20
2.151160
  0
VERTEX
  8
0
  6
CONTINUOUS
 10
1.466960
 20
2.070640
  0
VERTEX
  8
0
  6
CONTINUOUS
 10
1.470920
 20
2.070640
  0
VERTEX
  8
0
  6
CONTINUOUS
 10
1.527240
 20
2.066680
  0
VERTEX
  8
0
  6
CONTINUOUS
 10
1.573440
 20
2.056560
  0
VERTEX
  8
0
  6
CONTINUOUS
 10
1.611280
 20
2.041160
  0
VERTEX
  8
0
  6
CONTINUOUS
 10
1.642960
 20
2.020920
  0
VERTEX
  8
0
  6
CONTINUOUS
 10
1.669360
 20
1.997160
  0
VERTEX
  8
0
  6
CONTINUOUS
 10
1.692680
 20
1.970760
  0
VERTEX
  8
0
  6
CONTINUOUS
 10
1.713800
 20
1.942160
  0
VERTEX
  8
0
  6
CONTINUOUS
 10
1.734480
 20
1.912240
  0
VERTEX
  8
0
  6
CONTINUOUS
 10
1.781560
 20
1.852400
  0
VERTEX
  8
0
  6
CONTINUOUS
 10
1.811040
 20
1.823800
  0
VERTEX
  8
0
  6
CONTINUOUS
 10
1.846680
 20
1.796960
  0
VERTEX
  8
0
  6
CONTINUOUS
 10
1.889800
 20
1.773200
  0
VERTEX
  8
0
  6
CONTINUOUS
 10
1.942160
 20
1.753400
  0
VERTEX
  8
0
  6
CONTINUOUS
 10
2.005080
 20
1.738000
  0
VERTEX
  8
0
  6
CONTINUOUS
 10
2.080320
 20
1.727440
  0
VERTEX
  8
0
  6
CONTINUOUS
 10
2.084280
 20
1.727440
  0
VERTEX
  8
0
  6
CONTINUOUS
 10
2.084280
 20
1.532960
  0
VERTEX
  8
0
  6
CONTINUOUS
 10
2.085600
 20
1.532520
  0
VERTEX
  8
0
  6
CONTINUOUS
 10
1.839640
 20
1.532520
  0
VERTEX
  8
0
  6
CONTINUOUS
 10
1.839640
 20
0.847440
  0
VERTEX
  8
0
  6
CONTINUOUS
 10
1.174800
 20
0.847440
  0
VERTEX
  8
0
  6
CONTINUOUS
 10
1.174800
 20
2.151600
  0
VERTEX
  8
0
  6
CONTINUOUS
 10
1.177440
 20
2.151160
  0
SEQEND
  8
0
  0
TEXT
  8
0
 10
1.228480
 20
0.949080
 40
0.138159
  1
191
 41
1.000000
  7
SN0
 71
     0
 72
     5
 11
1.504850
 21
0.949080
  0
TEXT
  8
0
 10
1.906960
 20
0.938520
 40
0.138159
  1
346
 41
1.000000
  7
SN0
 71
     0
 72
     5
 11
2.183330
 21
0.938520
  0
SOLID
  8
0
 62
    15
 10
3.599200
 20
6.604840
 11
3.600520
 21
7.345360
 12
3.646280
 22
6.544560
 13
3.647600
 23
7.285520
  0
POLYLINE
  8
0
  6
CONTINUOUS
 66
     1
 40
0.000000
 41
0.000000
  0
VERTEX
  8
0
  6
CONTINUOUS
 10
3.599200
 20
6.604840
  0
VERTEX
  8
0
  6
CONTINUOUS
 10
3.600520
 20
7.345360
  0
VERTEX
  8
0
  6
CONTINUOUS
 10
3.647600
 20
7.285520
  0
VERTEX
  8
0
  6
CONTINUOUS
 10
3.646280
 20
6.544560
  0
VERTEX
  8
0
  6
CONTINUOUS
 10
3.599200
 20
6.604840
  0
SEQEND
  8
0
  0
SOLID
  8
0
 62
    15
 10
3.287240
 20
6.843760
 11
3.289000
 21
7.584280
 12
3.331240
 22
6.763240
 13
3.333000
 23
7.504200
  0
POLYLINE
  8
0
  6
CONTINUOUS
 66
     1
 40
0.000000
 41
0.000000
  0
VERTEX
  8
0
  6
CONTINUOUS
 10
3.287240
 20
6.843760
  0
VERTEX
  8
0
  6
CONTINUOUS
 10
3.289000
 20
7.584280
  0
VERTEX
  8
0
  6
CONTINUOUS
 10
3.333000
 20
7.504200
  0
VERTEX
  8
0
  6
CONTINUOUS
 10
3.331240
 20
6.763240
  0
VERTEX
  8
0
  6
CONTINUOUS
 10
3.287240
 20
6.843760
  0
SEQEND
  8
0
  0
SOLID
  8
0
 62
    15
 10
3.331240
 20
6.763240
 11
3.333000
 21
7.504200
 12
3.335200
 22
6.763240
 13
3.336960
 23
7.504200
  0
POLYLINE
  8
0
  6
CONTINUOUS
 66
     1
 40
0.000000
 41
0.000000
  0
VERTEX
  8
0
  6
CONTINUOUS
 10
3.331240
 20
6.763240
  0
VERTEX
  8
0
  6
CONTINUOUS
 10
3.333000
 20
7.504200
  0
VERTEX
  8
0
  6
CONTINUOUS
 10
3.336960
 20
7.504200
  0
VERTEX
  8
0
  6
CONTINUOUS
 10
3.335200
 20
6.763240
  0
VERTEX
  8
0
  6
CONTINUOUS
 10
3.331240
 20
6.763240
  0
SEQEND
  8
0
  0
SOLID
  8
0
 62
    15
 10
3.335200
 20
6.763240
 11
3.336960
 21
7.504200
 12
3.391520
 22
6.759280
 13
3.392840
 23
7.499800
  0
POLYLINE
  8
0
  6
CONTINUOUS
 66
     1
 40
0.000000
 41
0.000000
  0
VERTEX
  8
0
  6
CONTINUOUS
 10
3.335200
 20
6.763240
  0
VERTEX
  8
0
  6
CONTINUOUS
 10
3.336960
 20
7.504200
  0
VERTEX
  8
0
  6
CONTINUOUS
 10
3.392840
 20
7.499800
  0
VERTEX
  8
0
  6
CONTINUOUS
 10
3.391520
 20
6.759280
  0
VERTEX
  8
0
  6
CONTINUOUS
 10
3.335200
 20
6.763240
  0
SEQEND
  8
0
  0
SOLID
  8
0
 62
    15
 10
3.391520
 20
6.759280
 11
3.392840
 21
7.499800
 12
3.437720
 22
6.748720
 13
3.439480
 23
7.489680
  0
POLYLINE
  8
0
  6
CONTINUOUS
 66
     1
 40
0.000000
 41
0.000000
  0
VERTEX
  8
0
  6
CONTINUOUS
 10
3.391520
 20
6.759280
  0
VERTEX
  8
0
  6
CONTINUOUS
 10
3.392840
 20
7.499800
  0
VERTEX
  8
0
  6
CONTINUOUS
 10
3.439480
 20
7.489680
  0
VERTEX
  8
0
  6
CONTINUOUS
 10
3.437720
 20
6.748720
  0
VERTEX
  8
0
  6
CONTINUOUS
 10
3.391520
 20
6.759280
  0
SEQEND
  8
0
  0
SOLID
  8
0
 62
    15
 10
3.437720
 20
6.748720
 11
3.439480
 21
7.489680
 12
3.476000
 22
6.733320
 13
3.477320
 23
7.474280
  0
POLYLINE
  8
0
  6
CONTINUOUS
 66
     1
 40
0.000000
 41
0.000000
  0
VERTEX
  8
0
  6
CONTINUOUS
 10
3.437720
 20
6.748720
  0
VERTEX
  8
0
  6
CONTINUOUS
 10
3.439480
 20
7.489680
  0
VERTEX
  8
0
  6
CONTINUOUS
 10
3.477320
 20
7.474280
  0
VERTEX
  8
0
  6
CONTINUOUS
 10
3.476000
 20
6.733320
  0
VERTEX
  8
0
  6
CONTINUOUS
 10
3.437720
 20
6.748720
  0
SEQEND
  8
0
  0
SOLID
  8
0
 62
    15
 10
3.476000
 20
6.733320
 11
3.477320
 21
7.474280
 12
3.507680
 22
6.713520
 13
3.509000
 23
7.454040
  0
POLYLINE
  8
0
  6
CONTINUOUS
 66
     1
 40
0.000000
 41
0.000000
  0
VERTEX
  8
0
  6
CONTINUOUS
 10
3.476000
 20
6.733320
  0
VERTEX
  8
0
  6
CONTINUOUS
 10
3.477320
 20
7.474280
  0
VERTEX
  8
0
  6
CONTINUOUS
 10
3.509000
 20
7.454040
  0
VERTEX
  8
0
  6
CONTINUOUS
 10
3.507680
 20
6.713520
  0
VERTEX
  8
0
  6
CONTINUOUS
 10
3.476000
 20
6.733320
  0
SEQEND
  8
0
  0
SOLID
  8
0
 62
    15
 10
3.507680
 20
6.713520
 11
3.509000
 21
7.454040
 12
3.534080
 22
6.689760
 13
3.535400
 23
7.430280
  0
POLYLINE
  8
0
  6
CONTINUOUS
 66
     1
 40
0.000000
 41
0.000000
  0
VERTEX
  8
0
  6
CONTINUOUS
 10
3.507680
 20
6.713520
  0
VERTEX
  8
0
  6
CONTINUOUS
 10
3.509000
 20
7.454040
  0
VERTEX
  8
0
  6
CONTINUOUS
 10
3.535400
 20
7.430280
  0
VERTEX
  8
0
  6
CONTINUOUS
 10
3.534080
 20
6.689760
  0
VERTEX
  8
0
  6
CONTINUOUS
 10
3.507680
 20
6.713520
  0
SEQEND
  8
0
  0
SOLID
  8
0
 62
    15
 10
3.534080
 20
6.689760
 11
3.535400
 21
7.430280
 12
3.556960
 22
6.662920
 13
3.558720
 23
7.403880
  0
POLYLINE
  8
0
  6
CONTINUOUS
 66
     1
 40
0.000000
 41
0.000000
  0
VERTEX
  8
0
  6
CONTINUOUS
 10
3.534080
 20
6.689760
  0
VERTEX
  8
0
  6
CONTINUOUS
 10
3.535400
 20
7.430280
  0
VERTEX
  8
0
  6
CONTINUOUS
 10
3.558720
 20
7.403880
  0
VERTEX
  8
0
  6
CONTINUOUS
 10
3.556960
 20
6.662920
  0
VERTEX
  8
0
  6
CONTINUOUS
 10
3.534080
 20
6.689760
  0
SEQEND
  8
0
  0
SOLID
  8
0
 62
    15
 10
3.556960
 20
6.662920
 11
3.558720
 21
7.403880
 12
3.578080
 22
6.634320
 13
3.579840
 23
7.375280
  0
POLYLINE
  8
0
  6
CONTINUOUS
 66
     1
 40
0.000000
 41
0.000000
  0
VERTEX
  8
0
  6
CONTINUOUS
 10
3.556960
 20
6.662920
  0
VERTEX
  8
0
  6
CONTINUOUS
 10
3.558720
 20
7.403880
  0
VERTEX
  8
0
  6
CONTINUOUS
 10
3.579840
 20
7.375280
  0
VERTEX
  8
0
  6
CONTINUOUS
 10
3.578080
 20
6.634320
  0
VERTEX
  8
0
  6
CONTINUOUS
 10
3.556960
 20
6.662920
  0
SEQEND
  8
0
  0
SOLID
  8
0
 62
    15
 10
3.578080
 20
6.634320
 11
3.579840
 21
7.375280
 12
3.599200
 22
6.604840
 13
3.600520
 23
7.345360
  0
POLYLINE
  8
0
  6
CONTINUOUS
 66
     1
 40
0.000000
 41
0.000000
  0
VERTEX
  8
0
  6
CONTINUOUS
 10
3.578080
 20
6.634320
  0
VERTEX
  8
0
  6
CONTINUOUS
 10
3.579840
 20
7.375280
  0
VERTEX
  8
0
  6
CONTINUOUS
 10
3.600520
 20
7.345360
  0
VERTEX
  8
0
  6
CONTINUOUS
 10
3.599200
 20
6.604840
  0
VERTEX
  8
0
  6
CONTINUOUS
 10
3.578080
 20
6.634320
  0
SEQEND
  8
0
  0
SOLID
  8
0
 62
    15
 10
3.042160
 20
6.843760
 11
3.043480
 21
7.584280
 12
3.287240
 22
6.843760
 13
3.289000
 23
7.584280
  0
POLYLINE
  8
0
  6
CONTINUOUS
 66
     1
 40
0.000000
 41
0.000000
  0
VERTEX
  8
0
  6
CONTINUOUS
 10
3.042160
 20
6.843760
  0
VERTEX
  8
0
  6
CONTINUOUS
 10
3.043480
 20
7.584280
  0
VERTEX
  8
0
  6
CONTINUOUS
 10
3.289000
 20
7.584280
  0
VERTEX
  8
0
  6
CONTINUOUS
 10
3.287240
 20
6.843760
  0
VERTEX
  8
0
  6
CONTINUOUS
 10
3.042160
 20
6.843760
  0
SEQEND
  8
0
  0
SOLID
  8
0
 62
    15
 10
3.646280
 20
6.544560
 11
3.647600
 21
7.285520
 12
3.675760
 22
6.515960
 13
3.677080
 23
7.256920
  0
POLYLINE
  8
0
  6
CONTINUOUS
 66
     1
 40
0.000000
 41
0.000000
  0
VERTEX
  8
0
  6
CONTINUOUS
 10
3.646280
 20
6.544560
  0
VERTEX
  8
0
  6
CONTINUOUS
 10
3.647600
 20
7.285520
  0
VERTEX
  8
0
  6
CONTINUOUS
 10
3.677080
 20
7.256920
  0
VERTEX
  8
0
  6
CONTINUOUS
 10
3.675760
 20
6.515960
  0
VERTEX
  8
0
  6
CONTINUOUS
 10
3.646280
 20
6.544560
  0
SEQEND
  8
0
  0
SOLID
  8
0
 62
    15
 10
3.703920
 20
6.225120
 11
3.705240
 21
6.965640
 12
3.703920
 22
5.539600
 13
3.705240
 23
6.280560
  0
POLYLINE
  8
0
  6
CONTINUOUS
 66
     1
 40
0.000000
 41
0.000000
  0
VERTEX
  8
0
  6
CONTINUOUS
 10
3.703920
 20
6.225120
  0
VERTEX
  8
0
  6
CONTINUOUS
 10
3.705240
 20
6.965640
  0
VERTEX
  8
0
  6
CONTINUOUS
 10
3.705240
 20
6.280560
  0
VERTEX
  8
0
  6
CONTINUOUS
 10
3.703920
 20
5.539600
  0
VERTEX
  8
0
  6
CONTINUOUS
 10
3.703920
 20
6.225120
  0
SEQEND
  8
0
  0
SOLID
  8
0
 62
    15
 10
3.710960
 20
6.489560
 11
3.712720
 21
7.230080
 12
3.754080
 22
6.465800
 13
3.755840
 23
7.206760
  0
POLYLINE
  8
0
  6
CONTINUOUS
 66
     1
 40
0.000000
 41
0.000000
  0
VERTEX
  8
0
  6
CONTINUOUS
 10
3.710960
 20
6.489560
  0
VERTEX
  8
0
  6
CONTINUOUS
 10
3.712720
 20
7.230080
  0
VERTEX
  8
0
  6
CONTINUOUS
 10
3.755840
 20
7.206760
  0
VERTEX
  8
0
  6
CONTINUOUS
 10
3.754080
 20
6.465800
  0
VERTEX
  8
0
  6
CONTINUOUS
 10
3.710960
 20
6.489560
  0
SEQEND
  8
0
  0
SOLID
  8
0
 62
    15
 10
3.754080
 20
6.465800
 11
3.755840
 21
7.206760
 12
3.806440
 22
6.445560
 13
3.807760
 23
7.186520
  0
POLYLINE
  8
0
  6
CONTINUOUS
 66
     1
 40
0.000000
 41
0.000000
  0
VERTEX
  8
0
  6
CONTINUOUS
 10
3.754080
 20
6.465800
  0
VERTEX
  8
0
  6
CONTINUOUS
 10
3.755840
 20
7.206760
  0
VERTEX
  8
0
  6
CONTINUOUS
 10
3.807760
 20
7.186520
  0
VERTEX
  8
0
  6
CONTINUOUS
 10
3.806440
 20
6.445560
  0
VERTEX
  8
0
  6
CONTINUOUS
 10
3.754080
 20
6.465800
  0
SEQEND
  8
0
  0
SOLID
  8
0
 62
    15
 10
3.806440
 20
6.445560
 11
3.807760
 21
7.186520
 12
3.869360
 22
6.430160
 13
3.871120
 23
7.171120
  0
POLYLINE
  8
0
  6
CONTINUOUS
 66
     1
 40
0.000000
 41
0.000000
  0
VERTEX
  8
0
  6
CONTINUOUS
 10
3.806440
 20
6.445560
  0
VERTEX
  8
0
  6
CONTINUOUS
 10
3.807760
 20
7.186520
  0
VERTEX
  8
0
  6
CONTINUOUS
 10
3.871120
 20
7.171120
  0
VERTEX
  8
0
  6
CONTINUOUS
 10
3.869360
 20
6.430160
  0
VERTEX
  8
0
  6
CONTINUOUS
 10
3.806440
 20
6.445560
  0
SEQEND
  8
0
  0
SOLID
  8
0
 62
    15
 10
3.869360
 20
6.430160
 11
3.871120
 21
7.171120
 12
3.944600
 22
6.420040
 13
3.946360
 23
7.161000
  0
POLYLINE
  8
0
  6
CONTINUOUS
 66
     1
 40
0.000000
 41
0.000000
  0
VERTEX
  8
0
  6
CONTINUOUS
 10
3.869360
 20
6.430160
  0
VERTEX
  8
0
  6
CONTINUOUS
 10
3.871120
 20
7.171120
  0
VERTEX
  8
0
  6
CONTINUOUS
 10
3.946360
 20
7.161000
  0
VERTEX
  8
0
  6
CONTINUOUS
 10
3.944600
 20
6.420040
  0
VERTEX
  8
0
  6
CONTINUOUS
 10
3.869360
 20
6.430160
  0
SEQEND
  8
0
  0
SOLID
  8
0
 62
    15
 10
3.948560
 20
6.225560
 11
3.950320
 21
6.966520
 12
3.950320
 22
6.225120
 13
3.951640
 23
6.965640
  0
POLYLINE
  8
0
  6
CONTINUOUS
 66
     1
 40
0.000000
 41
0.000000
  0
VERTEX
  8
0
  6
CONTINUOUS
 10
3.948560
 20
6.225560
  0
VERTEX
  8
0
  6
CONTINUOUS
 10
3.950320
 20
6.966520
  0
VERTEX
  8
0
  6
CONTINUOUS
 10
3.951640
 20
6.965640
  0
VERTEX
  8
0
  6
CONTINUOUS
 10
3.950320
 20
6.225120
  0
VERTEX
  8
0
  6
CONTINUOUS
 10
3.948560
 20
6.225560
  0
SEQEND
  8
0
  0
SOLID
  8
0
 62
    15
 10
3.948560
 20
6.420040
 11
3.950320
 21
7.160560
 12
3.948560
 22
6.225560
 13
3.950320
 23
6.966520
  0
POLYLINE
  8
0
  6
CONTINUOUS
 66
     1
 40
0.000000
 41
0.000000
  0
VERTEX
  8
0
  6
CONTINUOUS
 10
3.948560
 20
6.420040
  0
VERTEX
  8
0
  6
CONTINUOUS
 10
3.950320
 20
7.160560
  0
VERTEX
  8
0
  6
CONTINUOUS
 10
3.950320
 20
6.966520
  0
VERTEX
  8
0
  6
CONTINUOUS
 10
3.948560
 20
6.225560
  0
VERTEX
  8
0
  6
CONTINUOUS
 10
3.948560
 20
6.420040
  0
SEQEND
  8
0
  0
SOLID
  8
0
 62
    15
 10
3.944600
 20
6.420040
 11
3.946360
 21
7.161000
 12
3.948560
 22
6.420040
 13
3.950320
 23
7.160560
  0
POLYLINE
  8
0
  6
CONTINUOUS
 66
     1
 40
0.000000
 41
0.000000
  0
VERTEX
  8
0
  6
CONTINUOUS
 10
3.944600
 20
6.420040
  0
VERTEX
  8
0
  6
CONTINUOUS
 10
3.946360
 20
7.161000
  0
VERTEX
  8
0
  6
CONTINUOUS
 10
3.950320
 20
7.160560
  0
VERTEX
  8
0
  6
CONTINUOUS
 10
3.948560
 20
6.420040
  0
VERTEX
  8
0
  6
CONTINUOUS
 10
3.944600
 20
6.420040
  0
SEQEND
  8
0
  0
SOLID
  8
0
 62
    15
 10
3.675760
 20
6.515960
 11
3.677080
 21
7.256920
 12
3.710960
 22
6.489560
 13
3.712720
 23
7.230080
  0
POLYLINE
  8
0
  6
CONTINUOUS
 66
     1
 40
0.000000
 41
0.000000
  0
VERTEX
  8
0
  6
CONTINUOUS
 10
3.675760
 20
6.515960
  0
VERTEX
  8
0
  6
CONTINUOUS
 10
3.677080
 20
7.256920
  0
VERTEX
  8
0
  6
CONTINUOUS
 10
3.712720
 20
7.230080
  0
VERTEX
  8
0
  6
CONTINUOUS
 10
3.710960
 20
6.489560
  0
VERTEX
  8
0
  6
CONTINUOUS
 10
3.675760
 20
6.515960
  0
SEQEND
  8
0
  0
SOLID
  8
0
 62
    15
 10
3.039080
 20
6.844200
 11
3.040400
 21
7.584720
 12
3.042160
 22
6.843760
 13
3.043480
 23
7.584280
  0
POLYLINE
  8
0
  6
CONTINUOUS
 66
     1
 40
0.000000
 41
0.000000
  0
VERTEX
  8
0
  6
CONTINUOUS
 10
3.039080
 20
6.844200
  0
VERTEX
  8
0
  6
CONTINUOUS
 10
3.040400
 20
7.584720
  0
VERTEX
  8
0
  6
CONTINUOUS
 10
3.043480
 20
7.584280
  0
VERTEX
  8
0
  6
CONTINUOUS
 10
3.042160
 20
6.843760
  0
VERTEX
  8
0
  6
CONTINUOUS
 10
3.039080
 20
6.844200
  0
SEQEND
  8
0
  0
POLYLINE
  8
0
  6
CONTINUOUS
 66
     1
 40
0.000000
 41
0.000000
  0
VERTEX
  8
0
  6
CONTINUOUS
 10
3.042160
 20
6.843760
  0
VERTEX
  8
0
  6
CONTINUOUS
 10
3.287240
 20
6.843760
  0
VERTEX
  8
0
  6
CONTINUOUS
 10
3.331240
 20
6.763240
  0
VERTEX
  8
0
  6
CONTINUOUS
 10
3.335200
 20
6.763240
  0
VERTEX
  8
0
  6
CONTINUOUS
 10
3.391520
 20
6.759280
  0
VERTEX
  8
0
  6
CONTINUOUS
 10
3.437720
 20
6.748720
  0
VERTEX
  8
0
  6
CONTINUOUS
 10
3.476000
 20
6.733320
  0
VERTEX
  8
0
  6
CONTINUOUS
 10
3.507680
 20
6.713520
  0
VERTEX
  8
0
  6
CONTINUOUS
 10
3.534080
 20
6.689760
  0
VERTEX
  8
0
  6
CONTINUOUS
 10
3.556960
 20
6.662920
  0
VERTEX
  8
0
  6
CONTINUOUS
 10
3.578080
 20
6.634320
  0
VERTEX
  8
0
  6
CONTINUOUS
 10
3.599200
 20
6.604840
  0
VERTEX
  8
0
  6
CONTINUOUS
 10
3.646280
 20
6.544560
  0
VERTEX
  8
0
  6
CONTINUOUS
 10
3.675760
 20
6.515960
  0
VERTEX
  8
0
  6
CONTINUOUS
 10
3.710960
 20
6.489560
  0
VERTEX
  8
0
  6
CONTINUOUS
 10
3.754080
 20
6.465800
  0
VERTEX
  8
0
  6
CONTINUOUS
 10
3.806440
 20
6.445560
  0
VERTEX
  8
0
  6
CONTINUOUS
 10
3.869360
 20
6.430160
  0
VERTEX
  8
0
  6
CONTINUOUS
 10
3.944600
 20
6.420040
  0
VERTEX
  8
0
  6
CONTINUOUS
 10
3.948560
 20
6.420040
  0
VERTEX
  8
0
  6
CONTINUOUS
 10
3.948560
 20
6.225560
  0
VERTEX
  8
0
  6
CONTINUOUS
 10
3.950320
 20
6.225120
  0
VERTEX
  8
0
  6
CONTINUOUS
 10
3.703920
 20
6.225120
  0
VERTEX
  8
0
  6
CONTINUOUS
 10
3.703920
 20
5.539600
  0
VERTEX
  8
0
  6
CONTINUOUS
 10
3.039080
 20
5.539600
  0
VERTEX
  8
0
  6
CONTINUOUS
 10
3.039080
 20
6.844200
  0
VERTEX
  8
0
  6
CONTINUOUS
 10
3.042160
 20
6.843760
  0
SEQEND
  8
0
  0
TEXT
  8
0
 10
3.356760
 20
5.304200
 40
0.138159
  1
191
 41
1.000000
  7
SN0
 71
     0
 72
     5
 11
3.633130
 21
5.304200
  0
TEXT
  8
0
 10
2.905760
 20
5.112360
 40
0.138159
  1
15/16" x 1-5/16"
 41
1.000000
  7
SN0
 71
     0
 72
     5
 11
4.081547
 21
5.112360
  0
TEXT
  8
0
 10
7.324240
 20
7.691640
 40
0.138159
  1
back band
 41
1.000000
  7
SN0
 71
     0
 72
     5
 11
8.088651
 21
7.691640
  0
TEXT
  8
0
 10
7.568880
 20
7.499800
 40
0.138159
  1
191
 41
1.000000
  7
SN0
 71
     0
 72
     5
 11
7.845250
 21
7.499800
  0
TEXT
  8
0
 10
7.522680
 20
7.308400
 40
0.138159
  1
band
 41
1.000000
  7
SN0
 71
     0
 72
     5
 11
7.891048
 21
7.308400
  0
TEXT
  8
0
 10
7.568880
 20
7.116560
 40
0.138159
  1
191
 41
1.000000
  7
SN0
 71
     0
 72
     5
 11
7.845250
 21
7.116560
  0
SOLID
  8
0
 62
    15
 10
1.268960
 20
6.739480
 11
1.272920
 21
7.488800
 12
1.290080
 22
6.711320
 13
1.294040
 23
7.460200
  0
POLYLINE
  8
0
  6
CONTINUOUS
 66
     1
 40
0.000000
 41
0.000000
  0
VERTEX
  8
0
  6
CONTINUOUS
 10
1.268960
 20
6.739480
  0
VERTEX
  8
0
  6
CONTINUOUS
 10
1.272920
 20
7.488800
  0
VERTEX
  8
0
  6
CONTINUOUS
 10
1.294040
 20
7.460200
  0
VERTEX
  8
0
  6
CONTINUOUS
 10
1.290080
 20
6.711320
  0
VERTEX
  8
0
  6
CONTINUOUS
 10
1.268960
 20
6.739480
  0
SEQEND
  8
0
  0
SOLID
  8
0
 62
    15
 10
0.754160
 20
6.919440
 11
0.757680
 21
7.668320
 12
0.999240
 22
6.919440
 13
1.003200
 23
7.668320
  0
POLYLINE
  8
0
  6
CONTINUOUS
 66
     1
 40
0.000000
 41
0.000000
  0
VERTEX
  8
0
  6
CONTINUOUS
 10
0.754160
 20
6.919440
  0
VERTEX
  8
0
  6
CONTINUOUS
 10
0.757680
 20
7.668320
  0
VERTEX
  8
0
  6
CONTINUOUS
 10
1.003200
 20
7.668320
  0
VERTEX
  8
0
  6
CONTINUOUS
 10
0.999240
 20
6.919440
  0
VERTEX
  8
0
  6
CONTINUOUS
 10
0.754160
 20
6.919440
  0
SEQEND
  8
0
  0
SOLID
  8
0
 62
    15
 10
0.999240
 20
6.919440
 11
1.003200
 21
7.668320
 12
1.043240
 22
6.839360
 13
1.047200
 23
7.588240
  0
POLYLINE
  8
0
  6
CONTINUOUS
 66
     1
 40
0.000000
 41
0.000000
  0
VERTEX
  8
0
  6
CONTINUOUS
 10
0.999240
 20
6.919440
  0
VERTEX
  8
0
  6
CONTINUOUS
 10
1.003200
 20
7.668320
  0
VERTEX
  8
0
  6
CONTINUOUS
 10
1.047200
 20
7.588240
  0
VERTEX
  8
0
  6
CONTINUOUS
 10
1.043240
 20
6.839360
  0
VERTEX
  8
0
  6
CONTINUOUS
 10
0.999240
 20
6.919440
  0
SEQEND
  8
0
  0
SOLID
  8
0
 62
    15
 10
1.043240
 20
6.839360
 11
1.047200
 21
7.588240
 12
1.047200
 22
6.839360
 13
1.051160
 23
7.588240
  0
POLYLINE
  8
0
  6
CONTINUOUS
 66
     1
 40
0.000000
 41
0.000000
  0
VERTEX
  8
0
  6
CONTINUOUS
 10
1.043240
 20
6.839360
  0
VERTEX
  8
0
  6
CONTINUOUS
 10
1.047200
 20
7.588240
  0
VERTEX
  8
0
  6
CONTINUOUS
 10
1.051160
 20
7.588240
  0
VERTEX
  8
0
  6
CONTINUOUS
 10
1.047200
 20
6.839360
  0
VERTEX
  8
0
  6
CONTINUOUS
 10
1.043240
 20
6.839360
  0
SEQEND
  8
0
  0
SOLID
  8
0
 62
     7
 10
1.047200
 20
6.839360
 11
1.051160
 21
7.588240
 12
1.076680
 22
6.838040
 13
1.080640
 23
7.586920
  0
POLYLINE
  8
0
  6
CONTINUOUS
 66
     1
 40
0.000000
 41
0.000000
  0
VERTEX
  8
0
  6
CONTINUOUS
 10
1.047200
 20
6.839360
  0
VERTEX
  8
0
  6
CONTINUOUS
 10
1.051160
 20
7.588240
  0
VERTEX
  8
0
  6
CONTINUOUS
 10
1.080640
 20
7.586920
  0
VERTEX
  8
0
  6
CONTINUOUS
 10
1.076680
 20
6.838040
  0
VERTEX
  8
0
  6
CONTINUOUS
 10
1.047200
 20
6.839360
  0
SEQEND
  8
0
  0
SOLID
  8
0
 62
     7
 10
1.076680
 20
6.838040
 11
1.080640
 21
7.586920
 12
1.103520
 22
6.834960
 13
1.107040
 23
7.584280
  0
POLYLINE
  8
0
  6
CONTINUOUS
 66
     1
 40
0.000000
 41
0.000000
  0
VERTEX
  8
0
  6
CONTINUOUS
 10
1.076680
 20
6.838040
  0
VERTEX
  8
0
  6
CONTINUOUS
 10
1.080640
 20
7.586920
  0
VERTEX
  8
0
  6
CONTINUOUS
 10
1.107040
 20
7.584280
  0
VERTEX
  8
0
  6
CONTINUOUS
 10
1.103520
 20
6.834960
  0
VERTEX
  8
0
  6
CONTINUOUS
 10
1.076680
 20
6.838040
  0
SEQEND
  8
0
  0
SOLID
  8
0
 62
     7
 10
1.103520
 20
6.834960
 11
1.107040
 21
7.584280
 12
1.149720
 22
6.824840
 13
1.153680
 23
7.573720
  0
POLYLINE
  8
0
  6
CONTINUOUS
 66
     1
 40
0.000000
 41
0.000000
  0
VERTEX
  8
0
  6
CONTINUOUS
 10
1.103520
 20
6.834960
  0
VERTEX
  8
0
  6
CONTINUOUS
 10
1.107040
 20
7.584280
  0
VERTEX
  8
0
  6
CONTINUOUS
 10
1.153680
 20
7.573720
  0
VERTEX
  8
0
  6
CONTINUOUS
 10
1.149720
 20
6.824840
  0
VERTEX
  8
0
  6
CONTINUOUS
 10
1.103520
 20
6.834960
  0
SEQEND
  8
0
  0
SOLID
  8
0
 62
     7
 10
1.149720
 20
6.824840
 11
1.153680
 21
7.573720
 12
1.188000
 22
6.809440
 13
1.191520
 23
7.558320
  0
POLYLINE
  8
0
  6
CONTINUOUS
 66
     1
 40
0.000000
 41
0.000000
  0
VERTEX
  8
0
  6
CONTINUOUS
 10
1.149720
 20
6.824840
  0
VERTEX
  8
0
  6
CONTINUOUS
 10
1.153680
 20
7.573720
  0
VERTEX
  8
0
  6
CONTINUOUS
 10
1.191520
 20
7.558320
  0
VERTEX
  8
0
  6
CONTINUOUS
 10
1.188000
 20
6.809440
  0
VERTEX
  8
0
  6
CONTINUOUS
 10
1.149720
 20
6.824840
  0
SEQEND
  8
0
  0
SOLID
  8
0
 62
     7
 10
1.188000
 20
6.809440
 11
1.191520
 21
7.558320
 12
1.219240
 22
6.789640
 13
1.223200
 23
7.538520
  0
POLYLINE
  8
0
  6
CONTINUOUS
 66
     1
 40
0.000000
 41
0.000000
  0
VERTEX
  8
0
  6
CONTINUOUS
 10
1.188000
 20
6.809440
  0
VERTEX
  8
0
  6
CONTINUOUS
 10
1.191520
 20
7.558320
  0
VERTEX
  8
0
  6
CONTINUOUS
 10
1.223200
 20
7.538520
  0
VERTEX
  8
0
  6
CONTINUOUS
 10
1.219240
 20
6.789640
  0
VERTEX
  8
0
  6
CONTINUOUS
 10
1.188000
 20
6.809440
  0
SEQEND
  8
0
  0
SOLID
  8
0
 62
     7
 10
1.219240
 20
6.789640
 11
1.223200
 21
7.538520
 12
1.246080
 22
6.765880
 13
1.249600
 23
7.514760
  0
POLYLINE
  8
0
  6
CONTINUOUS
 66
     1
 40
0.000000
 41
0.000000
  0
VERTEX
  8
0
  6
CONTINUOUS
 10
1.219240
 20
6.789640
  0
VERTEX
  8
0
  6
CONTINUOUS
 10
1.223200
 20
7.538520
  0
VERTEX
  8
0
  6
CONTINUOUS
 10
1.249600
 20
7.514760
  0
VERTEX
  8
0
  6
CONTINUOUS
 10
1.246080
 20
6.765880
  0
VERTEX
  8
0
  6
CONTINUOUS
 10
1.219240
 20
6.789640
  0
SEQEND
  8
0
  0
SOLID
  8
0
 62
    15
 10
1.246080
 20
6.765880
 11
1.249600
 21
7.514760
 12
1.268960
 22
6.739480
 13
1.272920
 23
7.488800
  0
POLYLINE
  8
0
  6
CONTINUOUS
 66
     1
 40
0.000000
 41
0.000000
  0
VERTEX
  8
0
  6
CONTINUOUS
 10
1.246080
 20
6.765880
  0
VERTEX
  8
0
  6
CONTINUOUS
 10
1.249600
 20
7.514760
  0
VERTEX
  8
0
  6
CONTINUOUS
 10
1.272920
 20
7.488800
  0
VERTEX
  8
0
  6
CONTINUOUS
 10
1.268960
 20
6.739480
  0
VERTEX
  8
0
  6
CONTINUOUS
 10
1.246080
 20
6.765880
  0
SEQEND
  8
0
  0
SOLID
  8
0
 62
    15
 10
1.660560
 20
6.497920
 11
1.664520
 21
7.246800
 12
1.660560
 22
6.304760
 13
1.664520
 23
7.053640
  0
POLYLINE
  8
0
  6
CONTINUOUS
 66
     1
 40
0.000000
 41
0.000000
  0
VERTEX
  8
0
  6
CONTINUOUS
 10
1.660560
 20
6.497920
  0
VERTEX
  8
0
  6
CONTINUOUS
 10
1.664520
 20
7.246800
  0
VERTEX
  8
0
  6
CONTINUOUS
 10
1.664520
 20
7.053640
  0
VERTEX
  8
0
  6
CONTINUOUS
 10
1.660560
 20
6.304760
  0
VERTEX
  8
0
  6
CONTINUOUS
 10
1.660560
 20
6.497920
  0
SEQEND
  8
0
  0
SOLID
  8
0
 62
    15
 10
1.290080
 20
6.711320
 11
1.294040
 21
7.460200
 12
1.311200
 22
6.681400
 13
1.314720
 23
7.430280
  0
POLYLINE
  8
0
  6
CONTINUOUS
 66
     1
 40
0.000000
 41
0.000000
  0
VERTEX
  8
0
  6
CONTINUOUS
 10
1.290080
 20
6.711320
  0
VERTEX
  8
0
  6
CONTINUOUS
 10
1.294040
 20
7.460200
  0
VERTEX
  8
0
  6
CONTINUOUS
 10
1.314720
 20
7.430280
  0
VERTEX
  8
0
  6
CONTINUOUS
 10
1.311200
 20
6.681400
  0
VERTEX
  8
0
  6
CONTINUOUS
 10
1.290080
 20
6.711320
  0
SEQEND
  8
0
  0
SOLID
  8
0
 62
    15
 10
1.311200
 20
6.681400
 11
1.314720
 21
7.430280
 12
1.358280
 22
6.622000
 13
1.361800
 23
7.370880
  0
POLYLINE
  8
0
  6
CONTINUOUS
 66
     1
 40
0.000000
 41
0.000000
  0
VERTEX
  8
0
  6
CONTINUOUS
 10
1.311200
 20
6.681400
  0
VERTEX
  8
0
  6
CONTINUOUS
 10
1.314720
 20
7.430280
  0
VERTEX
  8
0
  6
CONTINUOUS
 10
1.361800
 20
7.370880
  0
VERTEX
  8
0
  6
CONTINUOUS
 10
1.358280
 20
6.622000
  0
VERTEX
  8
0
  6
CONTINUOUS
 10
1.311200
 20
6.681400
  0
SEQEND
  8
0
  0
SOLID
  8
0
 62
     7
 10
1.358280
 20
6.622000
 11
1.361800
 21
7.370880
 12
1.387760
 22
6.593400
 13
1.391280
 23
7.342280
  0
POLYLINE
  8
0
  6
CONTINUOUS
 66
     1
 40
0.000000
 41
0.000000
  0
VERTEX
  8
0
  6
CONTINUOUS
 10
1.358280
 20
6.622000
  0
VERTEX
  8
0
  6
CONTINUOUS
 10
1.361800
 20
7.370880
  0
VERTEX
  8
0
  6
CONTINUOUS
 10
1.391280
 20
7.342280
  0
VERTEX
  8
0
  6
CONTINUOUS
 10
1.387760
 20
6.593400
  0
VERTEX
  8
0
  6
CONTINUOUS
 10
1.358280
 20
6.622000
  0
SEQEND
  8
0
  0
SOLID
  8
0
 62
     7
 10
1.387760
 20
6.593400
 11
1.391280
 21
7.342280
 12
1.422960
 22
6.567000
 13
1.426920
 23
7.315880
  0
POLYLINE
  8
0
  6
CONTINUOUS
 66
     1
 40
0.000000
 41
0.000000
  0
VERTEX
  8
0
  6
CONTINUOUS
 10
1.387760
 20
6.593400
  0
VERTEX
  8
0
  6
CONTINUOUS
 10
1.391280
 20
7.342280
  0
VERTEX
  8
0
  6
CONTINUOUS
 10
1.426920
 20
7.315880
  0
VERTEX
  8
0
  6
CONTINUOUS
 10
1.422960
 20
6.567000
  0
VERTEX
  8
0
  6
CONTINUOUS
 10
1.387760
 20
6.593400
  0
SEQEND
  8
0
  0
SOLID
  8
0
 62
     7
 10
1.422960
 20
6.567000
 11
1.426920
 21
7.315880
 12
1.466080
 22
6.543240
 13
1.470040
 23
7.292120
  0
POLYLINE
  8
0
  6
CONTINUOUS
 66
     1
 40
0.000000
 41
0.000000
  0
VERTEX
  8
0
  6
CONTINUOUS
 10
1.422960
 20
6.567000
  0
VERTEX
  8
0
  6
CONTINUOUS
 10
1.426920
 20
7.315880
  0
VERTEX
  8
0
  6
CONTINUOUS
 10
1.470040
 20
7.292120
  0
VERTEX
  8
0
  6
CONTINUOUS
 10
1.466080
 20
6.543240
  0
VERTEX
  8
0
  6
CONTINUOUS
 10
1.422960
 20
6.567000
  0
SEQEND
  8
0
  0
SOLID
  8
0
 62
     7
 10
1.466080
 20
6.543240
 11
1.470040
 21
7.292120
 12
1.518440
 22
6.523440
 13
1.521960
 23
7.272320
  0
POLYLINE
  8
0
  6
CONTINUOUS
 66
     1
 40
0.000000
 41
0.000000
  0
VERTEX
  8
0
  6
CONTINUOUS
 10
1.466080
 20
6.543240
  0
VERTEX
  8
0
  6
CONTINUOUS
 10
1.470040
 20
7.292120
  0
VERTEX
  8
0
  6
CONTINUOUS
 10
1.521960
 20
7.272320
  0
VERTEX
  8
0
  6
CONTINUOUS
 10
1.518440
 20
6.523440
  0
VERTEX
  8
0
  6
CONTINUOUS
 10
1.466080
 20
6.543240
  0
SEQEND
  8
0
  0
SOLID
  8
0
 62
     7
 10
1.518440
 20
6.523440
 11
1.521960
 21
7.272320
 12
1.548360
 22
6.515080
 13
1.552320
 23
7.263960
  0
POLYLINE
  8
0
  6
CONTINUOUS
 66
     1
 40
0.000000
 41
0.000000
  0
VERTEX
  8
0
  6
CONTINUOUS
 10
1.518440
 20
6.523440
  0
VERTEX
  8
0
  6
CONTINUOUS
 10
1.521960
 20
7.272320
  0
VERTEX
  8
0
  6
CONTINUOUS
 10
1.552320
 20
7.263960
  0
VERTEX
  8
0
  6
CONTINUOUS
 10
1.548360
 20
6.515080
  0
VERTEX
  8
0
  6
CONTINUOUS
 10
1.518440
 20
6.523440
  0
SEQEND
  8
0
  0
SOLID
  8
0
 62
     7
 10
1.548360
 20
6.515080
 11
1.552320
 21
7.263960
 12
1.581360
 22
6.508040
 13
1.585320
 23
7.256920
  0
POLYLINE
  8
0
  6
CONTINUOUS
 66
     1
 40
0.000000
 41
0.000000
  0
VERTEX
  8
0
  6
CONTINUOUS
 10
1.548360
 20
6.515080
  0
VERTEX
  8
0
  6
CONTINUOUS
 10
1.552320
 20
7.263960
  0
VERTEX
  8
0
  6
CONTINUOUS
 10
1.585320
 20
7.256920
  0
VERTEX
  8
0
  6
CONTINUOUS
 10
1.581360
 20
6.508040
  0
VERTEX
  8
0
  6
CONTINUOUS
 10
1.548360
 20
6.515080
  0
SEQEND
  8
0
  0
SOLID
  8
0
 62
     7
 10
1.581360
 20
6.508040
 11
1.585320
 21
7.256920
 12
1.617440
 22
6.502320
 13
1.621400
 23
7.251200
  0
POLYLINE
  8
0
  6
CONTINUOUS
 66
     1
 40
0.000000
 41
0.000000
  0
VERTEX
  8
0
  6
CONTINUOUS
 10
1.581360
 20
6.508040
  0
VERTEX
  8
0
  6
CONTINUOUS
 10
1.585320
 20
7.256920
  0
VERTEX
  8
0
  6
CONTINUOUS
 10
1.621400
 20
7.251200
  0
VERTEX
  8
0
  6
CONTINUOUS
 10
1.617440
 20
6.502320
  0
VERTEX
  8
0
  6
CONTINUOUS
 10
1.581360
 20
6.508040
  0
SEQEND
  8
0
  0
SOLID
  8
0
 62
     7
 10
1.617440
 20
6.502320
 11
1.621400
 21
7.251200
 12
1.656600
 22
6.497920
 13
1.660560
 23
7.246800
  0
POLYLINE
  8
0
  6
CONTINUOUS
 66
     1
 40
0.000000
 41
0.000000
  0
VERTEX
  8
0
  6
CONTINUOUS
 10
1.617440
 20
6.502320
  0
VERTEX
  8
0
  6
CONTINUOUS
 10
1.621400
 20
7.251200
  0
VERTEX
  8
0
  6
CONTINUOUS
 10
1.660560
 20
7.246800
  0
VERTEX
  8
0
  6
CONTINUOUS
 10
1.656600
 20
6.497920
  0
VERTEX
  8
0
  6
CONTINUOUS
 10
1.617440
 20
6.502320
  0
SEQEND
  8
0
  0
SOLID
  8
0
 62
     7
 10
1.656600
 20
6.497920
 11
1.660560
 21
7.246800
 12
1.660560
 22
6.497920
 13
1.664520
 23
7.246800
  0
POLYLINE
  8
0
  6
CONTINUOUS
 66
     1
 40
0.000000
 41
0.000000
  0
VERTEX
  8
0
  6
CONTINUOUS
 10
1.656600
 20
6.497920
  0
VERTEX
  8
0
  6
CONTINUOUS
 10
1.660560
 20
7.246800
  0
VERTEX
  8
0
  6
CONTINUOUS
 10
1.664520
 20
7.246800
  0
VERTEX
  8
0
  6
CONTINUOUS
 10
1.660560
 20
6.497920
  0
VERTEX
  8
0
  6
CONTINUOUS
 10
1.656600
 20
6.497920
  0
SEQEND
  8
0
  0
POLYLINE
  8
0
  6
CONTINUOUS
 66
     1
 40
0.000000
 41
0.000000
  0
VERTEX
  8
0
  6
CONTINUOUS
 10
1.660560
 20
6.497920
  0
VERTEX
  8
0
  6
CONTINUOUS
 10
1.660560
 20
6.304760
  0
VERTEX
  8
0
  6
CONTINUOUS
 10
0.754160
 20
6.304320
  0
VERTEX
  8
0
  6
CONTINUOUS
 10
0.754160
 20
6.919440
  0
VERTEX
  8
0
  6
CONTINUOUS
 10
0.999240
 20
6.919440
  0
VERTEX
  8
0
  6
CONTINUOUS
 10
1.043240
 20
6.839360
  0
VERTEX
  8
0
  6
CONTINUOUS
 10
1.047200
 20
6.839360
  0
VERTEX
  8
0
  6
CONTINUOUS
 10
1.076680
 20
6.838040
  0
VERTEX
  8
0
  6
CONTINUOUS
 10
1.103520
 20
6.834960
  0
VERTEX
  8
0
  6
CONTINUOUS
 10
1.149720
 20
6.824840
  0
VERTEX
  8
0
  6
CONTINUOUS
 10
1.188000
 20
6.809440
  0
VERTEX
  8
0
  6
CONTINUOUS
 10
1.219240
 20
6.789640
  0
VERTEX
  8
0
  6
CONTINUOUS
 10
1.246080
 20
6.765880
  0
VERTEX
  8
0
  6
CONTINUOUS
 10
1.268960
 20
6.739480
  0
VERTEX
  8
0
  6
CONTINUOUS
 10
1.290080
 20
6.711320
  0
VERTEX
  8
0
  6
CONTINUOUS
 10
1.311200
 20
6.681400
  0
VERTEX
  8
0
  6
CONTINUOUS
 10
1.358280
 20
6.622000
  0
VERTEX
  8
0
  6
CONTINUOUS
 10
1.387760
 20
6.593400
  0
VERTEX
  8
0
  6
CONTINUOUS
 10
1.422960
 20
6.567000
  0
VERTEX
  8
0
  6
CONTINUOUS
 10
1.466080
 20
6.543240
  0
VERTEX
  8
0
  6
CONTINUOUS
 10
1.518440
 20
6.523440
  0
VERTEX
  8
0
  6
CONTINUOUS
 10
1.548360
 20
6.515080
  0
VERTEX
  8
0
  6
CONTINUOUS
 10
1.581360
 20
6.508040
  0
VERTEX
  8
0
  6
CONTINUOUS
 10
1.617440
 20
6.502320
  0
VERTEX
  8
0
  6
CONTINUOUS
 10
1.656600
 20
6.497920
  0
VERTEX
  8
0
  6
CONTINUOUS
 10
1.660560
 20
6.497920
  0
SEQEND
  8
0
  0
TEXT
  8
0
 10
1.132120
 20
6.083000
 40
0.138159
  1
191
 41
1.000000
  7
SN0
 71
     0
 72
     5
 11
1.408490
 21
6.083000
  0
TEXT
  8
0
 10
0.801240
 20
5.891160
 40
0.138159
  1
5/8" x 15/16"
 41
1.000000
  7
SN0
 71
     0
 72
     5
 11
1.738055
 21
5.891160
  0
ENDSEC
  0
EOF
