  0
SECTION
  2
HEADER
  9
$ACADVER
  1
AC1006
  9
$EXTMIN
 10
4.436080
 20
0.394240
  9
$EXTMAX
 10
7.770400
 20
2.231680
  9
$LTSCALE
 40
0.044000
  9
$PDMODE
 70
    35
  9
$PDSIZE
 40
0.035200
  0
ENDSEC
  0
SECTION
  2
TABLES
  0
TABLE
  2
LTYPE
 70
     9
  0
LTYPE
  2
CONTINUOUS
 70
    64
  3
Solid line
 72
    65
 73
     0
 40
0.000000
  0
LTYPE
  2
DASHED
 70
    64
  3
__ __ __ __ __ __ __ __ __ __ __ __ __ __ __
 72
    65
 73
     2
 40
0.000330
 49
0.000220
 49
-0.000110
  0
LTYPE
  2
HIDDEN
 70
    64
  3
 _ _ _ _ _ _ _ _ _ _ _ _ _ _ _ _ _ _ _ _ _ _
 72
    65
 73
     2
 40
0.000165
 49
0.000110
 49
-0.000055
  0
LTYPE
  2
CENTER
 70
    64
  3
____ _ ____ _ ____ _ ____ _ ____ _ ____ _ ____
 72
    65
 73
     4
 40
0.000880
 49
0.000550
 49
-0.000110
 49
0.000110
 49
-0.000110
  0
LTYPE
  2
PHANTOM
 70
    64
  3
_____ _ _ _____ _ _ _____ _ _ _____ _ _ ____
 72
    65
 73
     6
 40
0.001100
 49
0.000550
 49
-0.000110
 49
0.000110
 49
-0.000110
 49
0.000110
 49
-0.000110
  0
LTYPE
  2
DOT
 70
    64
  3
...............................................
 72
    65
 73
     2
 40
0.000110
 49
0.000000
 49
-0.000110
  0
LTYPE
  2
DASHDOT
 70
    64
  3
__ . __ . __ . __ . __ . __ . __ . __ . __ . __
 72
    65
 73
     4
 40
0.000440
 49
0.000220
 49
-0.000110
 49
0.000000
 49
-0.000110
  0
LTYPE
  2
BORDER
 70
    64
  3
__ __ . __ __ . __ __ . __ __ . __ __ . __ __
 72
    65
 73
     6
 40
0.000770
 49
0.000220
 49
-0.000110
 49
0.000220
 49
-0.000110
 49
0.000000
 49
-0.000110
  0
LTYPE
  2
DIVIDE
 70
    64
  3
__ . . __ . . __ . . __ . . __ . . __ . . __
 72
    65
 73
     6
 40
0.000550
 49
0.000220
 49
-0.000110
 49
0.000000
 49
-0.000110
 49
0.000000
 49
-0.000110
  0
LTYPE
  2
DOTDOT
 70
    64
  3
 . .  . .  . .  . .  . .  . . 
 72
    65
 73
     5
 40
0.000242
 49
-0.000110
 49
0.000000
 49
-0.000110
 49
0.000000
 49
-0.000110
  0
ENDTAB
  0
TABLE
  2
STYLE
 70
     2
  0
STYLE
 70
     0
  2
SN0
 40
0.000000
 41
0.000440
 50
0.000000
 71
     0
 42
0.000000
  3
ROMAND
  0
STYLE
 70
    68
  2
SV0
 40
0.000000
 41
0.000440
 50
0.000000
 71
     0
 42
0.000000
  3
ROMAND
  0
ENDTAB
  0
TABLE
  2
LAYER
 70
     3
  0
LAYER
  2
FOREGROUND
 70
    64
 62
     7
  6
CONTINUOUS
  0
LAYER
  2
BACKGROUND
 70
    65
 62
    -7
  6
CONTINUOUS
  0
LAYER
  2
0
 70
    64
 62
     7
  6
CONTINUOUS
  0
ENDTAB
  0
ENDSEC
  0
SECTION
  2
ENTITIES
  0
POLYLINE
  8
FOREGROUND
  6
CONTINUOUS
 66
     1
 40
0.000000
 41
0.000000
  0
VERTEX
  8
FOREGROUND
  6
CONTINUOUS
 10
0.000000
 20
2.625920
  0
VERTEX
  8
FOREGROUND
  6
CONTINUOUS
 10
8.499920
 20
2.625920
  0
VERTEX
  8
FOREGROUND
  6
CONTINUOUS
 10
8.499920
 20
-8.374080
  0
VERTEX
  8
FOREGROUND
  6
CONTINUOUS
 10
0.000000
 20
-8.374080
  0
VERTEX
  8
FOREGROUND
  6
CONTINUOUS
 10
0.000000
 20
2.625920
  0
SEQEND
  8
0
  0
POLYLINE
  8
FOREGROUND
  6
CONTINUOUS
 66
     1
 40
0.000000
 41
0.000000
  0
VERTEX
  8
FOREGROUND
  6
CONTINUOUS
 10
0.000000
 20
2.625920
  0
VERTEX
  8
FOREGROUND
  6
CONTINUOUS
 10
8.499920
 20
2.625920
  0
VERTEX
  8
FOREGROUND
  6
CONTINUOUS
 10
8.499920
 20
-8.374080
  0
VERTEX
  8
FOREGROUND
  6
CONTINUOUS
 10
0.000000
 20
-8.374080
  0
VERTEX
  8
FOREGROUND
  6
CONTINUOUS
 10
0.000000
 20
2.625920
  0
SEQEND
  8
0
  0
POLYLINE
  8
0
  6
CONTINUOUS
 66
     1
 40
0.014080
 41
0.014080
  0
VERTEX
  8
0
  6
CONTINUOUS
 10
6.452160
 20
1.928520
  0
VERTEX
  8
0
  6
CONTINUOUS
 10
6.306960
 20
1.928520
  0
VERTEX
  8
0
  6
CONTINUOUS
 10
6.306960
 20
0.727320
  0
VERTEX
  8
0
  6
CONTINUOUS
 10
6.729360
 20
0.727320
  0
VERTEX
  8
0
  6
CONTINUOUS
 10
6.729360
 20
1.166000
  0
VERTEX
  8
0
  6
CONTINUOUS
 10
6.621560
 20
1.264560
  0
VERTEX
  8
0
  6
CONTINUOUS
 10
6.618920
 20
1.285680
  0
VERTEX
  8
0
  6
CONTINUOUS
 10
6.647080
 20
1.310760
  0
VERTEX
  8
0
  6
CONTINUOUS
 10
6.665120
 20
1.334520
  0
VERTEX
  8
0
  6
CONTINUOUS
 10
6.671720
 20
1.349920
  0
VERTEX
  8
0
  6
CONTINUOUS
 10
6.674800
 20
1.365320
  0
VERTEX
  8
0
  6
CONTINUOUS
 10
6.674360
 20
1.380720
  0
VERTEX
  8
0
  6
CONTINUOUS
 10
6.668200
 20
1.404920
  0
VERTEX
  8
0
  6
CONTINUOUS
 10
6.655880
 20
1.430880
  0
VERTEX
  8
0
  6
CONTINUOUS
 10
6.578440
 20
1.557600
  0
VERTEX
  8
0
  6
CONTINUOUS
 10
6.539720
 20
1.633280
  0
VERTEX
  8
0
  6
CONTINUOUS
 10
6.515960
 20
1.690920
  0
VERTEX
  8
0
  6
CONTINUOUS
 10
6.496600
 20
1.746360
  0
VERTEX
  8
0
  6
CONTINUOUS
 10
6.475480
 20
1.821600
  0
VERTEX
  8
0
  6
CONTINUOUS
 10
6.459640
 20
1.895960
  0
VERTEX
  8
0
  6
CONTINUOUS
 10
6.454800
 20
1.925880
  0
VERTEX
  8
0
  6
CONTINUOUS
 10
6.452160
 20
1.928520
  0
SEQEND
  8
0
  0
SOLID
  8
0
 62
     7
 10
5.253160
 20
1.210440
 11
5.259320
 21
1.947880
 12
5.277360
 22
1.195480
 13
5.283520
 23
1.932480
  0
POLYLINE
  8
0
  6
CONTINUOUS
 66
     1
 40
0.000000
 41
0.000000
  0
VERTEX
  8
0
  6
CONTINUOUS
 10
5.253160
 20
1.210440
  0
VERTEX
  8
0
  6
CONTINUOUS
 10
5.259320
 20
1.947880
  0
VERTEX
  8
0
  6
CONTINUOUS
 10
5.283520
 20
1.932480
  0
VERTEX
  8
0
  6
CONTINUOUS
 10
5.277360
 20
1.195480
  0
VERTEX
  8
0
  6
CONTINUOUS
 10
5.253160
 20
1.210440
  0
SEQEND
  8
0
  0
SOLID
  8
0
 62
    15
 10
4.488000
 20
1.321760
 11
4.494160
 21
2.058760
 12
4.926240
 22
1.321760
 13
4.932840
 23
2.058760
  0
POLYLINE
  8
0
  6
CONTINUOUS
 66
     1
 40
0.000000
 41
0.000000
  0
VERTEX
  8
0
  6
CONTINUOUS
 10
4.488000
 20
1.321760
  0
VERTEX
  8
0
  6
CONTINUOUS
 10
4.494160
 20
2.058760
  0
VERTEX
  8
0
  6
CONTINUOUS
 10
4.932840
 20
2.058760
  0
VERTEX
  8
0
  6
CONTINUOUS
 10
4.926240
 20
1.321760
  0
VERTEX
  8
0
  6
CONTINUOUS
 10
4.488000
 20
1.321760
  0
SEQEND
  8
0
  0
SOLID
  8
0
 62
     7
 10
4.926240
 20
1.321760
 11
4.932840
 21
2.058760
 12
5.025240
 22
1.213960
 13
5.031400
 23
1.950960
  0
POLYLINE
  8
0
  6
CONTINUOUS
 66
     1
 40
0.000000
 41
0.000000
  0
VERTEX
  8
0
  6
CONTINUOUS
 10
4.926240
 20
1.321760
  0
VERTEX
  8
0
  6
CONTINUOUS
 10
4.932840
 20
2.058760
  0
VERTEX
  8
0
  6
CONTINUOUS
 10
5.031400
 20
1.950960
  0
VERTEX
  8
0
  6
CONTINUOUS
 10
5.025240
 20
1.213960
  0
VERTEX
  8
0
  6
CONTINUOUS
 10
4.926240
 20
1.321760
  0
SEQEND
  8
0
  0
SOLID
  8
0
 62
     7
 10
5.025240
 20
1.213960
 11
5.031400
 21
1.950960
 12
5.046360
 22
1.211320
 13
5.052960
 23
1.948320
  0
POLYLINE
  8
0
  6
CONTINUOUS
 66
     1
 40
0.000000
 41
0.000000
  0
VERTEX
  8
0
  6
CONTINUOUS
 10
5.025240
 20
1.213960
  0
VERTEX
  8
0
  6
CONTINUOUS
 10
5.031400
 20
1.950960
  0
VERTEX
  8
0
  6
CONTINUOUS
 10
5.052960
 20
1.948320
  0
VERTEX
  8
0
  6
CONTINUOUS
 10
5.046360
 20
1.211320
  0
VERTEX
  8
0
  6
CONTINUOUS
 10
5.025240
 20
1.213960
  0
SEQEND
  8
0
  0
SOLID
  8
0
 62
    15
 10
5.046360
 20
1.211320
 11
5.052960
 21
1.948320
 12
5.063520
 22
1.231120
 13
5.069680
 23
1.968120
  0
POLYLINE
  8
0
  6
CONTINUOUS
 66
     1
 40
0.000000
 41
0.000000
  0
VERTEX
  8
0
  6
CONTINUOUS
 10
5.046360
 20
1.211320
  0
VERTEX
  8
0
  6
CONTINUOUS
 10
5.052960
 20
1.948320
  0
VERTEX
  8
0
  6
CONTINUOUS
 10
5.069680
 20
1.968120
  0
VERTEX
  8
0
  6
CONTINUOUS
 10
5.063520
 20
1.231120
  0
VERTEX
  8
0
  6
CONTINUOUS
 10
5.046360
 20
1.211320
  0
SEQEND
  8
0
  0
SOLID
  8
0
 62
    15
 10
5.063520
 20
1.231120
 11
5.069680
 21
1.968120
 12
5.079800
 22
1.246520
 13
5.085960
 23
1.983520
  0
POLYLINE
  8
0
  6
CONTINUOUS
 66
     1
 40
0.000000
 41
0.000000
  0
VERTEX
  8
0
  6
CONTINUOUS
 10
5.063520
 20
1.231120
  0
VERTEX
  8
0
  6
CONTINUOUS
 10
5.069680
 20
1.968120
  0
VERTEX
  8
0
  6
CONTINUOUS
 10
5.085960
 20
1.983520
  0
VERTEX
  8
0
  6
CONTINUOUS
 10
5.079800
 20
1.246520
  0
VERTEX
  8
0
  6
CONTINUOUS
 10
5.063520
 20
1.231120
  0
SEQEND
  8
0
  0
SOLID
  8
0
 62
    15
 10
5.079800
 20
1.246520
 11
5.085960
 21
1.983520
 12
5.095200
 22
1.257520
 13
5.101360
 23
1.994520
  0
POLYLINE
  8
0
  6
CONTINUOUS
 66
     1
 40
0.000000
 41
0.000000
  0
VERTEX
  8
0
  6
CONTINUOUS
 10
5.079800
 20
1.246520
  0
VERTEX
  8
0
  6
CONTINUOUS
 10
5.085960
 20
1.983520
  0
VERTEX
  8
0
  6
CONTINUOUS
 10
5.101360
 20
1.994520
  0
VERTEX
  8
0
  6
CONTINUOUS
 10
5.095200
 20
1.257520
  0
VERTEX
  8
0
  6
CONTINUOUS
 10
5.079800
 20
1.246520
  0
SEQEND
  8
0
  0
SOLID
  8
0
 62
    15
 10
5.095200
 20
1.257520
 11
5.101360
 21
1.994520
 12
5.110600
 22
1.264120
 13
5.116760
 23
2.001120
  0
POLYLINE
  8
0
  6
CONTINUOUS
 66
     1
 40
0.000000
 41
0.000000
  0
VERTEX
  8
0
  6
CONTINUOUS
 10
5.095200
 20
1.257520
  0
VERTEX
  8
0
  6
CONTINUOUS
 10
5.101360
 20
1.994520
  0
VERTEX
  8
0
  6
CONTINUOUS
 10
5.116760
 20
2.001120
  0
VERTEX
  8
0
  6
CONTINUOUS
 10
5.110600
 20
1.264120
  0
VERTEX
  8
0
  6
CONTINUOUS
 10
5.095200
 20
1.257520
  0
SEQEND
  8
0
  0
SOLID
  8
0
 62
    15
 10
5.110600
 20
1.264120
 11
5.116760
 21
2.001120
 12
5.125560
 22
1.267200
 13
5.132160
 23
2.004200
  0
POLYLINE
  8
0
  6
CONTINUOUS
 66
     1
 40
0.000000
 41
0.000000
  0
VERTEX
  8
0
  6
CONTINUOUS
 10
5.110600
 20
1.264120
  0
VERTEX
  8
0
  6
CONTINUOUS
 10
5.116760
 20
2.001120
  0
VERTEX
  8
0
  6
CONTINUOUS
 10
5.132160
 20
2.004200
  0
VERTEX
  8
0
  6
CONTINUOUS
 10
5.125560
 20
1.267200
  0
VERTEX
  8
0
  6
CONTINUOUS
 10
5.110600
 20
1.264120
  0
SEQEND
  8
0
  0
SOLID
  8
0
 62
     7
 10
5.125560
 20
1.267200
 11
5.132160
 21
2.004200
 12
5.141400
 22
1.266760
 13
5.147560
 23
2.003760
  0
POLYLINE
  8
0
  6
CONTINUOUS
 66
     1
 40
0.000000
 41
0.000000
  0
VERTEX
  8
0
  6
CONTINUOUS
 10
5.125560
 20
1.267200
  0
VERTEX
  8
0
  6
CONTINUOUS
 10
5.132160
 20
2.004200
  0
VERTEX
  8
0
  6
CONTINUOUS
 10
5.147560
 20
2.003760
  0
VERTEX
  8
0
  6
CONTINUOUS
 10
5.141400
 20
1.266760
  0
VERTEX
  8
0
  6
CONTINUOUS
 10
5.125560
 20
1.267200
  0
SEQEND
  8
0
  0
SOLID
  8
0
 62
     7
 10
5.141400
 20
1.266760
 11
5.147560
 21
2.003760
 12
5.157240
 22
1.263240
 13
5.163400
 23
2.000240
  0
POLYLINE
  8
0
  6
CONTINUOUS
 66
     1
 40
0.000000
 41
0.000000
  0
VERTEX
  8
0
  6
CONTINUOUS
 10
5.141400
 20
1.266760
  0
VERTEX
  8
0
  6
CONTINUOUS
 10
5.147560
 20
2.003760
  0
VERTEX
  8
0
  6
CONTINUOUS
 10
5.163400
 20
2.000240
  0
VERTEX
  8
0
  6
CONTINUOUS
 10
5.157240
 20
1.263240
  0
VERTEX
  8
0
  6
CONTINUOUS
 10
5.141400
 20
1.266760
  0
SEQEND
  8
0
  0
SOLID
  8
0
 62
     7
 10
5.157240
 20
1.263240
 11
5.163400
 21
2.000240
 12
5.173960
 22
1.257080
 13
5.180120
 23
1.994080
  0
POLYLINE
  8
0
  6
CONTINUOUS
 66
     1
 40
0.000000
 41
0.000000
  0
VERTEX
  8
0
  6
CONTINUOUS
 10
5.157240
 20
1.263240
  0
VERTEX
  8
0
  6
CONTINUOUS
 10
5.163400
 20
2.000240
  0
VERTEX
  8
0
  6
CONTINUOUS
 10
5.180120
 20
1.994080
  0
VERTEX
  8
0
  6
CONTINUOUS
 10
5.173960
 20
1.257080
  0
VERTEX
  8
0
  6
CONTINUOUS
 10
5.157240
 20
1.263240
  0
SEQEND
  8
0
  0
SOLID
  8
0
 62
     7
 10
5.173960
 20
1.257080
 11
5.180120
 21
1.994080
 12
5.191560
 22
1.248280
 13
5.197720
 23
1.985280
  0
POLYLINE
  8
0
  6
CONTINUOUS
 66
     1
 40
0.000000
 41
0.000000
  0
VERTEX
  8
0
  6
CONTINUOUS
 10
5.173960
 20
1.257080
  0
VERTEX
  8
0
  6
CONTINUOUS
 10
5.180120
 20
1.994080
  0
VERTEX
  8
0
  6
CONTINUOUS
 10
5.197720
 20
1.985280
  0
VERTEX
  8
0
  6
CONTINUOUS
 10
5.191560
 20
1.248280
  0
VERTEX
  8
0
  6
CONTINUOUS
 10
5.173960
 20
1.257080
  0
SEQEND
  8
0
  0
SOLID
  8
0
 62
     7
 10
5.191560
 20
1.248280
 11
5.197720
 21
1.985280
 12
5.210480
 22
1.237280
 13
5.216640
 23
1.974280
  0
POLYLINE
  8
0
  6
CONTINUOUS
 66
     1
 40
0.000000
 41
0.000000
  0
VERTEX
  8
0
  6
CONTINUOUS
 10
5.191560
 20
1.248280
  0
VERTEX
  8
0
  6
CONTINUOUS
 10
5.197720
 20
1.985280
  0
VERTEX
  8
0
  6
CONTINUOUS
 10
5.216640
 20
1.974280
  0
VERTEX
  8
0
  6
CONTINUOUS
 10
5.210480
 20
1.237280
  0
VERTEX
  8
0
  6
CONTINUOUS
 10
5.191560
 20
1.248280
  0
SEQEND
  8
0
  0
SOLID
  8
0
 62
     7
 10
5.210480
 20
1.237280
 11
5.216640
 21
1.974280
 12
5.230720
 22
1.224960
 13
5.237320
 23
1.961960
  0
POLYLINE
  8
0
  6
CONTINUOUS
 66
     1
 40
0.000000
 41
0.000000
  0
VERTEX
  8
0
  6
CONTINUOUS
 10
5.210480
 20
1.237280
  0
VERTEX
  8
0
  6
CONTINUOUS
 10
5.216640
 20
1.974280
  0
VERTEX
  8
0
  6
CONTINUOUS
 10
5.237320
 20
1.961960
  0
VERTEX
  8
0
  6
CONTINUOUS
 10
5.230720
 20
1.224960
  0
VERTEX
  8
0
  6
CONTINUOUS
 10
5.210480
 20
1.237280
  0
SEQEND
  8
0
  0
SOLID
  8
0
 62
     7
 10
5.230720
 20
1.224960
 11
5.237320
 21
1.961960
 12
5.253160
 22
1.210440
 13
5.259320
 23
1.947880
  0
POLYLINE
  8
0
  6
CONTINUOUS
 66
     1
 40
0.000000
 41
0.000000
  0
VERTEX
  8
0
  6
CONTINUOUS
 10
5.230720
 20
1.224960
  0
VERTEX
  8
0
  6
CONTINUOUS
 10
5.237320
 20
1.961960
  0
VERTEX
  8
0
  6
CONTINUOUS
 10
5.259320
 20
1.947880
  0
VERTEX
  8
0
  6
CONTINUOUS
 10
5.253160
 20
1.210440
  0
VERTEX
  8
0
  6
CONTINUOUS
 10
5.230720
 20
1.224960
  0
SEQEND
  8
0
  0
SOLID
  8
0
 62
    15
 10
5.689200
 20
1.044560
 11
5.695360
 21
1.781560
 12
5.689200
 22
0.899360
 13
5.695360
 23
1.636360
  0
POLYLINE
  8
0
  6
CONTINUOUS
 66
     1
 40
0.000000
 41
0.000000
  0
VERTEX
  8
0
  6
CONTINUOUS
 10
5.689200
 20
1.044560
  0
VERTEX
  8
0
  6
CONTINUOUS
 10
5.695360
 20
1.781560
  0
VERTEX
  8
0
  6
CONTINUOUS
 10
5.695360
 20
1.636360
  0
VERTEX
  8
0
  6
CONTINUOUS
 10
5.689200
 20
0.899360
  0
VERTEX
  8
0
  6
CONTINUOUS
 10
5.689200
 20
1.044560
  0
SEQEND
  8
0
  0
SOLID
  8
0
 62
     7
 10
5.277360
 20
1.195480
 11
5.283520
 21
1.932480
 12
5.303760
 22
1.179200
 13
5.310360
 23
1.916200
  0
POLYLINE
  8
0
  6
CONTINUOUS
 66
     1
 40
0.000000
 41
0.000000
  0
VERTEX
  8
0
  6
CONTINUOUS
 10
5.277360
 20
1.195480
  0
VERTEX
  8
0
  6
CONTINUOUS
 10
5.283520
 20
1.932480
  0
VERTEX
  8
0
  6
CONTINUOUS
 10
5.310360
 20
1.916200
  0
VERTEX
  8
0
  6
CONTINUOUS
 10
5.303760
 20
1.179200
  0
VERTEX
  8
0
  6
CONTINUOUS
 10
5.277360
 20
1.195480
  0
SEQEND
  8
0
  0
SOLID
  8
0
 62
     7
 10
5.303760
 20
1.179200
 11
5.310360
 21
1.916200
 12
5.333240
 22
1.162480
 13
5.339400
 23
1.899480
  0
POLYLINE
  8
0
  6
CONTINUOUS
 66
     1
 40
0.000000
 41
0.000000
  0
VERTEX
  8
0
  6
CONTINUOUS
 10
5.303760
 20
1.179200
  0
VERTEX
  8
0
  6
CONTINUOUS
 10
5.310360
 20
1.916200
  0
VERTEX
  8
0
  6
CONTINUOUS
 10
5.339400
 20
1.899480
  0
VERTEX
  8
0
  6
CONTINUOUS
 10
5.333240
 20
1.162480
  0
VERTEX
  8
0
  6
CONTINUOUS
 10
5.303760
 20
1.179200
  0
SEQEND
  8
0
  0
SOLID
  8
0
 62
     7
 10
5.333240
 20
1.162480
 11
5.339400
 21
1.899480
 12
5.365360
 22
1.145760
 13
5.371520
 23
1.882760
  0
POLYLINE
  8
0
  6
CONTINUOUS
 66
     1
 40
0.000000
 41
0.000000
  0
VERTEX
  8
0
  6
CONTINUOUS
 10
5.333240
 20
1.162480
  0
VERTEX
  8
0
  6
CONTINUOUS
 10
5.339400
 20
1.899480
  0
VERTEX
  8
0
  6
CONTINUOUS
 10
5.371520
 20
1.882760
  0
VERTEX
  8
0
  6
CONTINUOUS
 10
5.365360
 20
1.145760
  0
VERTEX
  8
0
  6
CONTINUOUS
 10
5.333240
 20
1.162480
  0
SEQEND
  8
0
  0
SOLID
  8
0
 62
     7
 10
5.365360
 20
1.145760
 11
5.371520
 21
1.882760
 12
5.423000
 22
1.119800
 13
5.429160
 23
1.856800
  0
POLYLINE
  8
0
  6
CONTINUOUS
 66
     1
 40
0.000000
 41
0.000000
  0
VERTEX
  8
0
  6
CONTINUOUS
 10
5.365360
 20
1.145760
  0
VERTEX
  8
0
  6
CONTINUOUS
 10
5.371520
 20
1.882760
  0
VERTEX
  8
0
  6
CONTINUOUS
 10
5.429160
 20
1.856800
  0
VERTEX
  8
0
  6
CONTINUOUS
 10
5.423000
 20
1.119800
  0
VERTEX
  8
0
  6
CONTINUOUS
 10
5.365360
 20
1.145760
  0
SEQEND
  8
0
  0
SOLID
  8
0
 62
     7
 10
5.423000
 20
1.119800
 11
5.429160
 21
1.856800
 12
5.479760
 22
1.098240
 13
5.485920
 23
1.835240
  0
POLYLINE
  8
0
  6
CONTINUOUS
 66
     1
 40
0.000000
 41
0.000000
  0
VERTEX
  8
0
  6
CONTINUOUS
 10
5.423000
 20
1.119800
  0
VERTEX
  8
0
  6
CONTINUOUS
 10
5.429160
 20
1.856800
  0
VERTEX
  8
0
  6
CONTINUOUS
 10
5.485920
 20
1.835240
  0
VERTEX
  8
0
  6
CONTINUOUS
 10
5.479760
 20
1.098240
  0
VERTEX
  8
0
  6
CONTINUOUS
 10
5.423000
 20
1.119800
  0
SEQEND
  8
0
  0
SOLID
  8
0
 62
     7
 10
5.479760
 20
1.098240
 11
5.485920
 21
1.835240
 12
5.533440
 22
1.081080
 13
5.539600
 23
1.818080
  0
POLYLINE
  8
0
  6
CONTINUOUS
 66
     1
 40
0.000000
 41
0.000000
  0
VERTEX
  8
0
  6
CONTINUOUS
 10
5.479760
 20
1.098240
  0
VERTEX
  8
0
  6
CONTINUOUS
 10
5.485920
 20
1.835240
  0
VERTEX
  8
0
  6
CONTINUOUS
 10
5.539600
 20
1.818080
  0
VERTEX
  8
0
  6
CONTINUOUS
 10
5.533440
 20
1.081080
  0
VERTEX
  8
0
  6
CONTINUOUS
 10
5.479760
 20
1.098240
  0
SEQEND
  8
0
  0
SOLID
  8
0
 62
     7
 10
5.533440
 20
1.081080
 11
5.539600
 21
1.818080
 12
5.582280
 22
1.067880
 13
5.588440
 23
1.804880
  0
POLYLINE
  8
0
  6
CONTINUOUS
 66
     1
 40
0.000000
 41
0.000000
  0
VERTEX
  8
0
  6
CONTINUOUS
 10
5.533440
 20
1.081080
  0
VERTEX
  8
0
  6
CONTINUOUS
 10
5.539600
 20
1.818080
  0
VERTEX
  8
0
  6
CONTINUOUS
 10
5.588440
 20
1.804880
  0
VERTEX
  8
0
  6
CONTINUOUS
 10
5.582280
 20
1.067880
  0
VERTEX
  8
0
  6
CONTINUOUS
 10
5.533440
 20
1.081080
  0
SEQEND
  8
0
  0
SOLID
  8
0
 62
     7
 10
5.582280
 20
1.067880
 11
5.588440
 21
1.804880
 12
5.604280
 22
1.062600
 13
5.610440
 23
1.799600
  0
POLYLINE
  8
0
  6
CONTINUOUS
 66
     1
 40
0.000000
 41
0.000000
  0
VERTEX
  8
0
  6
CONTINUOUS
 10
5.582280
 20
1.067880
  0
VERTEX
  8
0
  6
CONTINUOUS
 10
5.588440
 20
1.804880
  0
VERTEX
  8
0
  6
CONTINUOUS
 10
5.610440
 20
1.799600
  0
VERTEX
  8
0
  6
CONTINUOUS
 10
5.604280
 20
1.062600
  0
VERTEX
  8
0
  6
CONTINUOUS
 10
5.582280
 20
1.067880
  0
SEQEND
  8
0
  0
SOLID
  8
0
 62
     7
 10
5.604280
 20
1.062600
 11
5.610440
 21
1.799600
 12
5.624080
 22
1.058200
 13
5.630240
 23
1.795200
  0
POLYLINE
  8
0
  6
CONTINUOUS
 66
     1
 40
0.000000
 41
0.000000
  0
VERTEX
  8
0
  6
CONTINUOUS
 10
5.604280
 20
1.062600
  0
VERTEX
  8
0
  6
CONTINUOUS
 10
5.610440
 20
1.799600
  0
VERTEX
  8
0
  6
CONTINUOUS
 10
5.630240
 20
1.795200
  0
VERTEX
  8
0
  6
CONTINUOUS
 10
5.624080
 20
1.058200
  0
VERTEX
  8
0
  6
CONTINUOUS
 10
5.604280
 20
1.062600
  0
SEQEND
  8
0
  0
SOLID
  8
0
 62
     7
 10
5.624080
 20
1.058200
 11
5.630240
 21
1.795200
 12
5.641680
 22
1.054680
 13
5.647840
 23
1.791680
  0
POLYLINE
  8
0
  6
CONTINUOUS
 66
     1
 40
0.000000
 41
0.000000
  0
VERTEX
  8
0
  6
CONTINUOUS
 10
5.624080
 20
1.058200
  0
VERTEX
  8
0
  6
CONTINUOUS
 10
5.630240
 20
1.795200
  0
VERTEX
  8
0
  6
CONTINUOUS
 10
5.647840
 20
1.791680
  0
VERTEX
  8
0
  6
CONTINUOUS
 10
5.641680
 20
1.054680
  0
VERTEX
  8
0
  6
CONTINUOUS
 10
5.624080
 20
1.058200
  0
SEQEND
  8
0
  0
SOLID
  8
0
 62
     7
 10
5.641680
 20
1.054680
 11
5.647840
 21
1.791680
 12
5.656640
 22
1.052040
 13
5.662800
 23
1.789040
  0
POLYLINE
  8
0
  6
CONTINUOUS
 66
     1
 40
0.000000
 41
0.000000
  0
VERTEX
  8
0
  6
CONTINUOUS
 10
5.641680
 20
1.054680
  0
VERTEX
  8
0
  6
CONTINUOUS
 10
5.647840
 20
1.791680
  0
VERTEX
  8
0
  6
CONTINUOUS
 10
5.662800
 20
1.789040
  0
VERTEX
  8
0
  6
CONTINUOUS
 10
5.656640
 20
1.052040
  0
VERTEX
  8
0
  6
CONTINUOUS
 10
5.641680
 20
1.054680
  0
SEQEND
  8
0
  0
SOLID
  8
0
 62
     7
 10
5.656640
 20
1.052040
 11
5.662800
 21
1.789040
 12
5.668960
 22
1.049840
 13
5.675120
 23
1.786840
  0
POLYLINE
  8
0
  6
CONTINUOUS
 66
     1
 40
0.000000
 41
0.000000
  0
VERTEX
  8
0
  6
CONTINUOUS
 10
5.656640
 20
1.052040
  0
VERTEX
  8
0
  6
CONTINUOUS
 10
5.662800
 20
1.789040
  0
VERTEX
  8
0
  6
CONTINUOUS
 10
5.675120
 20
1.786840
  0
VERTEX
  8
0
  6
CONTINUOUS
 10
5.668960
 20
1.049840
  0
VERTEX
  8
0
  6
CONTINUOUS
 10
5.656640
 20
1.052040
  0
SEQEND
  8
0
  0
SOLID
  8
0
 62
     7
 10
5.668960
 20
1.049840
 11
5.675120
 21
1.786840
 12
5.678200
 22
1.048520
 13
5.684360
 23
1.785520
  0
POLYLINE
  8
0
  6
CONTINUOUS
 66
     1
 40
0.000000
 41
0.000000
  0
VERTEX
  8
0
  6
CONTINUOUS
 10
5.668960
 20
1.049840
  0
VERTEX
  8
0
  6
CONTINUOUS
 10
5.675120
 20
1.786840
  0
VERTEX
  8
0
  6
CONTINUOUS
 10
5.684360
 20
1.785520
  0
VERTEX
  8
0
  6
CONTINUOUS
 10
5.678200
 20
1.048520
  0
VERTEX
  8
0
  6
CONTINUOUS
 10
5.668960
 20
1.049840
  0
SEQEND
  8
0
  0
SOLID
  8
0
 62
     7
 10
5.678200
 20
1.048520
 11
5.684360
 21
1.785520
 12
5.683920
 22
1.047640
 13
5.690520
 23
1.784640
  0
POLYLINE
  8
0
  6
CONTINUOUS
 66
     1
 40
0.000000
 41
0.000000
  0
VERTEX
  8
0
  6
CONTINUOUS
 10
5.678200
 20
1.048520
  0
VERTEX
  8
0
  6
CONTINUOUS
 10
5.684360
 20
1.785520
  0
VERTEX
  8
0
  6
CONTINUOUS
 10
5.690520
 20
1.784640
  0
VERTEX
  8
0
  6
CONTINUOUS
 10
5.683920
 20
1.047640
  0
VERTEX
  8
0
  6
CONTINUOUS
 10
5.678200
 20
1.048520
  0
SEQEND
  8
0
  0
SOLID
  8
0
 62
     7
 10
5.683920
 20
1.047640
 11
5.690520
 21
1.784640
 12
5.686560
 22
1.047200
 13
5.692720
 23
1.784200
  0
POLYLINE
  8
0
  6
CONTINUOUS
 66
     1
 40
0.000000
 41
0.000000
  0
VERTEX
  8
0
  6
CONTINUOUS
 10
5.683920
 20
1.047640
  0
VERTEX
  8
0
  6
CONTINUOUS
 10
5.690520
 20
1.784640
  0
VERTEX
  8
0
  6
CONTINUOUS
 10
5.692720
 20
1.784200
  0
VERTEX
  8
0
  6
CONTINUOUS
 10
5.686560
 20
1.047200
  0
VERTEX
  8
0
  6
CONTINUOUS
 10
5.683920
 20
1.047640
  0
SEQEND
  8
0
  0
SOLID
  8
0
 62
     7
 10
5.686560
 20
1.047200
 11
5.692720
 21
1.784200
 12
5.689200
 22
1.044560
 13
5.695360
 23
1.781560
  0
POLYLINE
  8
0
  6
CONTINUOUS
 66
     1
 40
0.000000
 41
0.000000
  0
VERTEX
  8
0
  6
CONTINUOUS
 10
5.686560
 20
1.047200
  0
VERTEX
  8
0
  6
CONTINUOUS
 10
5.692720
 20
1.784200
  0
VERTEX
  8
0
  6
CONTINUOUS
 10
5.695360
 20
1.781560
  0
VERTEX
  8
0
  6
CONTINUOUS
 10
5.689200
 20
1.044560
  0
VERTEX
  8
0
  6
CONTINUOUS
 10
5.686560
 20
1.047200
  0
SEQEND
  8
0
  0
POLYLINE
  8
0
  6
CONTINUOUS
 66
     1
 40
0.000000
 41
0.000000
  0
VERTEX
  8
0
  6
CONTINUOUS
 10
5.689200
 20
1.044560
  0
VERTEX
  8
0
  6
CONTINUOUS
 10
5.689200
 20
0.899360
  0
VERTEX
  8
0
  6
CONTINUOUS
 10
4.488000
 20
0.899360
  0
VERTEX
  8
0
  6
CONTINUOUS
 10
4.488000
 20
1.321760
  0
VERTEX
  8
0
  6
CONTINUOUS
 10
4.926240
 20
1.321760
  0
VERTEX
  8
0
  6
CONTINUOUS
 10
5.025240
 20
1.213960
  0
VERTEX
  8
0
  6
CONTINUOUS
 10
5.046360
 20
1.211320
  0
VERTEX
  8
0
  6
CONTINUOUS
 10
5.063520
 20
1.231120
  0
VERTEX
  8
0
  6
CONTINUOUS
 10
5.079800
 20
1.246520
  0
VERTEX
  8
0
  6
CONTINUOUS
 10
5.095200
 20
1.257520
  0
VERTEX
  8
0
  6
CONTINUOUS
 10
5.110600
 20
1.264120
  0
VERTEX
  8
0
  6
CONTINUOUS
 10
5.125560
 20
1.267200
  0
VERTEX
  8
0
  6
CONTINUOUS
 10
5.141400
 20
1.266760
  0
VERTEX
  8
0
  6
CONTINUOUS
 10
5.157240
 20
1.263240
  0
VERTEX
  8
0
  6
CONTINUOUS
 10
5.173960
 20
1.257080
  0
VERTEX
  8
0
  6
CONTINUOUS
 10
5.191560
 20
1.248280
  0
VERTEX
  8
0
  6
CONTINUOUS
 10
5.210480
 20
1.237280
  0
VERTEX
  8
0
  6
CONTINUOUS
 10
5.230720
 20
1.224960
  0
VERTEX
  8
0
  6
CONTINUOUS
 10
5.253160
 20
1.210440
  0
VERTEX
  8
0
  6
CONTINUOUS
 10
5.277360
 20
1.195480
  0
VERTEX
  8
0
  6
CONTINUOUS
 10
5.303760
 20
1.179200
  0
VERTEX
  8
0
  6
CONTINUOUS
 10
5.333240
 20
1.162480
  0
VERTEX
  8
0
  6
CONTINUOUS
 10
5.365360
 20
1.145760
  0
VERTEX
  8
0
  6
CONTINUOUS
 10
5.423000
 20
1.119800
  0
VERTEX
  8
0
  6
CONTINUOUS
 10
5.479760
 20
1.098240
  0
VERTEX
  8
0
  6
CONTINUOUS
 10
5.533440
 20
1.081080
  0
VERTEX
  8
0
  6
CONTINUOUS
 10
5.582280
 20
1.067880
  0
VERTEX
  8
0
  6
CONTINUOUS
 10
5.604280
 20
1.062600
  0
VERTEX
  8
0
  6
CONTINUOUS
 10
5.624080
 20
1.058200
  0
VERTEX
  8
0
  6
CONTINUOUS
 10
5.641680
 20
1.054680
  0
VERTEX
  8
0
  6
CONTINUOUS
 10
5.656640
 20
1.052040
  0
VERTEX
  8
0
  6
CONTINUOUS
 10
5.668960
 20
1.049840
  0
VERTEX
  8
0
  6
CONTINUOUS
 10
5.678200
 20
1.048520
  0
VERTEX
  8
0
  6
CONTINUOUS
 10
5.683920
 20
1.047640
  0
VERTEX
  8
0
  6
CONTINUOUS
 10
5.686560
 20
1.047200
  0
VERTEX
  8
0
  6
CONTINUOUS
 10
5.689200
 20
1.044560
  0
SEQEND
  8
0
  0
TEXT
  8
0
 10
4.798200
 20
0.629640
 40
0.138004
  1
BA  190
 41
1.000000
  7
SN0
 71
     0
 72
     5
 11
5.388208
 21
0.629640
  0
TEXT
  8
0
 10
4.550040
 20
0.438240
 40
0.138004
  1
7/16" x 1-3/16"
 41
1.000000
  7
SN0
 71
     0
 72
     5
 11
5.634361
 21
0.438240
  0
TEXT
  8
0
 10
7.362960
 20
2.080760
 40
0.138004
  1
panel
 41
1.000000
  7
SN0
 71
     0
 72
     5
 11
7.768747
 21
2.080760
  0
TEXT
  8
0
 10
7.362960
 20
1.888920
 40
0.138004
  1
190
 41
1.000000
  7
SN0
 71
     0
 72
     5
 11
7.639875
 21
1.888920
  0
ENDSEC
  0
EOF
