  0
SECTION
  2
HEADER
  9
$ACADVER
  1
AC1006
  9
$EXTMIN
 10
2.551120
 20
0.371360
  9
$EXTMAX
 10
8.059480
 20
4.123680
  9
$LTSCALE
 40
0.044000
  9
$PDMODE
 70
    35
  9
$PDSIZE
 40
0.035200
  0
ENDSEC
  0
SECTION
  2
TABLES
  0
TABLE
  2
LTYPE
 70
     9
  0
LTYPE
  2
CONTINUOUS
 70
    64
  3
Solid line
 72
    65
 73
     0
 40
0.000000
  0
LTYPE
  2
DASHED
 70
    64
  3
__ __ __ __ __ __ __ __ __ __ __ __ __ __ __
 72
    65
 73
     2
 40
0.000330
 49
0.000220
 49
-0.000110
  0
LTYPE
  2
HIDDEN
 70
    64
  3
 _ _ _ _ _ _ _ _ _ _ _ _ _ _ _ _ _ _ _ _ _ _
 72
    65
 73
     2
 40
0.000165
 49
0.000110
 49
-0.000055
  0
LTYPE
  2
CENTER
 70
    64
  3
____ _ ____ _ ____ _ ____ _ ____ _ ____ _ ____
 72
    65
 73
     4
 40
0.000880
 49
0.000550
 49
-0.000110
 49
0.000110
 49
-0.000110
  0
LTYPE
  2
PHANTOM
 70
    64
  3
_____ _ _ _____ _ _ _____ _ _ _____ _ _ ____
 72
    65
 73
     6
 40
0.001100
 49
0.000550
 49
-0.000110
 49
0.000110
 49
-0.000110
 49
0.000110
 49
-0.000110
  0
LTYPE
  2
DOT
 70
    64
  3
...............................................
 72
    65
 73
     2
 40
0.000110
 49
0.000000
 49
-0.000110
  0
LTYPE
  2
DASHDOT
 70
    64
  3
__ . __ . __ . __ . __ . __ . __ . __ . __ . __
 72
    65
 73
     4
 40
0.000440
 49
0.000220
 49
-0.000110
 49
0.000000
 49
-0.000110
  0
LTYPE
  2
BORDER
 70
    64
  3
__ __ . __ __ . __ __ . __ __ . __ __ . __ __
 72
    65
 73
     6
 40
0.000770
 49
0.000220
 49
-0.000110
 49
0.000220
 49
-0.000110
 49
0.000000
 49
-0.000110
  0
LTYPE
  2
DIVIDE
 70
    64
  3
__ . . __ . . __ . . __ . . __ . . __ . . __
 72
    65
 73
     6
 40
0.000550
 49
0.000220
 49
-0.000110
 49
0.000000
 49
-0.000110
 49
0.000000
 49
-0.000110
  0
LTYPE
  2
DOTDOT
 70
    64
  3
 . .  . .  . .  . .  . .  . . 
 72
    65
 73
     5
 40
0.000242
 49
-0.000110
 49
0.000000
 49
-0.000110
 49
0.000000
 49
-0.000110
  0
ENDTAB
  0
TABLE
  2
STYLE
 70
     2
  0
STYLE
 70
     0
  2
SN0
 40
0.000000
 41
0.000440
 50
0.000000
 71
     0
 42
0.000000
  3
ROMAND
  0
STYLE
 70
    68
  2
SV0
 40
0.000000
 41
0.000440
 50
0.000000
 71
     0
 42
0.000000
  3
ROMAND
  0
ENDTAB
  0
TABLE
  2
LAYER
 70
     3
  0
LAYER
  2
FOREGROUND
 70
    64
 62
     7
  6
CONTINUOUS
  0
LAYER
  2
BACKGROUND
 70
    65
 62
    -7
  6
CONTINUOUS
  0
LAYER
  2
0
 70
    64
 62
     7
  6
CONTINUOUS
  0
ENDTAB
  0
ENDSEC
  0
SECTION
  2
ENTITIES
  0
POLYLINE
  8
FOREGROUND
  6
CONTINUOUS
 66
     1
 40
0.000000
 41
0.000000
  0
VERTEX
  8
FOREGROUND
  6
CONTINUOUS
 10
0.000000
 20
4.495040
  0
VERTEX
  8
FOREGROUND
  6
CONTINUOUS
 10
8.499920
 20
4.495040
  0
VERTEX
  8
FOREGROUND
  6
CONTINUOUS
 10
8.499920
 20
-6.504960
  0
VERTEX
  8
FOREGROUND
  6
CONTINUOUS
 10
0.000000
 20
-6.504960
  0
VERTEX
  8
FOREGROUND
  6
CONTINUOUS
 10
0.000000
 20
4.495040
  0
SEQEND
  8
0
  0
POLYLINE
  8
FOREGROUND
  6
CONTINUOUS
 66
     1
 40
0.000000
 41
0.000000
  0
VERTEX
  8
FOREGROUND
  6
CONTINUOUS
 10
0.000000
 20
4.495040
  0
VERTEX
  8
FOREGROUND
  6
CONTINUOUS
 10
8.499920
 20
4.495040
  0
VERTEX
  8
FOREGROUND
  6
CONTINUOUS
 10
8.499920
 20
-6.504960
  0
VERTEX
  8
FOREGROUND
  6
CONTINUOUS
 10
0.000000
 20
-6.504960
  0
VERTEX
  8
FOREGROUND
  6
CONTINUOUS
 10
0.000000
 20
4.495040
  0
SEQEND
  8
0
  0
POLYLINE
  8
0
  6
CONTINUOUS
 66
     1
 40
0.014080
 41
0.014080
  0
VERTEX
  8
0
  6
CONTINUOUS
 10
5.938680
 20
2.885080
  0
VERTEX
  8
0
  6
CONTINUOUS
 10
6.030640
 20
2.885080
  0
VERTEX
  8
0
  6
CONTINUOUS
 10
6.035920
 20
2.885080
  0
VERTEX
  8
0
  6
CONTINUOUS
 10
6.035920
 20
3.409120
  0
VERTEX
  8
0
  6
CONTINUOUS
 10
6.035920
 20
3.403840
  0
VERTEX
  8
0
  6
CONTINUOUS
 10
6.035920
 20
3.418360
  0
VERTEX
  8
0
  6
CONTINUOUS
 10
6.035920
 20
3.422320
  0
VERTEX
  8
0
  6
CONTINUOUS
 10
6.035040
 20
3.443440
  0
VERTEX
  8
0
  6
CONTINUOUS
 10
6.032400
 20
3.463680
  0
VERTEX
  8
0
  6
CONTINUOUS
 10
6.027560
 20
3.483480
  0
VERTEX
  8
0
  6
CONTINUOUS
 10
6.021400
 20
3.501960
  0
VERTEX
  8
0
  6
CONTINUOUS
 10
6.013480
 20
3.520000
  0
VERTEX
  8
0
  6
CONTINUOUS
 10
6.004240
 20
3.536720
  0
VERTEX
  8
0
  6
CONTINUOUS
 10
5.993240
 20
3.552560
  0
VERTEX
  8
0
  6
CONTINUOUS
 10
5.980920
 20
3.567080
  0
VERTEX
  8
0
  6
CONTINUOUS
 10
5.967720
 20
3.580280
  0
VERTEX
  8
0
  6
CONTINUOUS
 10
5.952760
 20
3.591720
  0
VERTEX
  8
0
  6
CONTINUOUS
 10
5.936480
 20
3.601840
  0
VERTEX
  8
0
  6
CONTINUOUS
 10
5.919320
 20
3.610640
  0
VERTEX
  8
0
  6
CONTINUOUS
 10
5.901280
 20
3.617240
  0
VERTEX
  8
0
  6
CONTINUOUS
 10
5.882360
 20
3.622520
  0
VERTEX
  8
0
  6
CONTINUOUS
 10
5.862120
 20
3.625600
  0
VERTEX
  8
0
  6
CONTINUOUS
 10
5.841440
 20
3.626480
  0
VERTEX
  8
0
  6
CONTINUOUS
 10
5.826920
 20
3.626480
  0
VERTEX
  8
0
  6
CONTINUOUS
 10
5.823840
 20
3.626480
  0
VERTEX
  8
0
  6
CONTINUOUS
 10
5.814600
 20
3.626480
  0
VERTEX
  8
0
  6
CONTINUOUS
 10
5.818560
 20
3.626480
  0
VERTEX
  8
0
  6
CONTINUOUS
 10
2.770680
 20
3.626480
  0
VERTEX
  8
0
  6
CONTINUOUS
 10
2.762760
 20
3.626480
  0
VERTEX
  8
0
  6
CONTINUOUS
 10
2.741640
 20
3.625600
  0
VERTEX
  8
0
  6
CONTINUOUS
 10
2.721400
 20
3.622080
  0
VERTEX
  8
0
  6
CONTINUOUS
 10
2.701600
 20
3.617240
  0
VERTEX
  8
0
  6
CONTINUOUS
 10
2.683120
 20
3.610200
  0
VERTEX
  8
0
  6
CONTINUOUS
 10
2.665080
 20
3.601400
  0
VERTEX
  8
0
  6
CONTINUOUS
 10
2.648360
 20
3.590840
  0
VERTEX
  8
0
  6
CONTINUOUS
 10
2.632520
 20
3.578960
  0
VERTEX
  8
0
  6
CONTINUOUS
 10
2.618000
 20
3.565760
  0
VERTEX
  8
0
  6
CONTINUOUS
 10
2.604800
 20
3.550800
  0
VERTEX
  8
0
  6
CONTINUOUS
 10
2.593360
 20
3.534960
  0
VERTEX
  8
0
  6
CONTINUOUS
 10
2.583240
 20
3.517800
  0
VERTEX
  8
0
  6
CONTINUOUS
 10
2.574440
 20
3.499760
  0
VERTEX
  8
0
  6
CONTINUOUS
 10
2.567840
 20
3.480840
  0
VERTEX
  8
0
  6
CONTINUOUS
 10
2.562560
 20
3.461040
  0
VERTEX
  8
0
  6
CONTINUOUS
 10
2.559480
 20
3.440800
  0
VERTEX
  8
0
  6
CONTINUOUS
 10
2.558600
 20
3.419680
  0
VERTEX
  8
0
  6
CONTINUOUS
 10
2.558600
 20
3.421000
  0
VERTEX
  8
0
  6
CONTINUOUS
 10
2.558600
 20
2.885080
  0
VERTEX
  8
0
  6
CONTINUOUS
 10
6.035920
 20
2.885080
  0
VERTEX
  8
0
  6
CONTINUOUS
 10
5.938680
 20
2.885080
  0
SEQEND
  8
0
  0
SOLID
  8
0
 62
    15
 10
5.894240
 20
1.595000
 11
5.898200
 21
2.347840
 12
5.935160
 22
1.591040
 13
5.939120
 23
2.343440
  0
POLYLINE
  8
0
  6
CONTINUOUS
 66
     1
 40
0.000000
 41
0.000000
  0
VERTEX
  8
0
  6
CONTINUOUS
 10
5.894240
 20
1.595000
  0
VERTEX
  8
0
  6
CONTINUOUS
 10
5.898200
 20
2.347840
  0
VERTEX
  8
0
  6
CONTINUOUS
 10
5.939120
 20
2.343440
  0
VERTEX
  8
0
  6
CONTINUOUS
 10
5.935160
 20
1.591040
  0
VERTEX
  8
0
  6
CONTINUOUS
 10
5.894240
 20
1.595000
  0
SEQEND
  8
0
  0
SOLID
  8
0
 62
    15
 10
2.611400
 20
1.388640
 11
2.615360
 21
2.141040
 12
2.615800
 22
1.430000
 13
2.619320
 23
2.182400
  0
POLYLINE
  8
0
  6
CONTINUOUS
 66
     1
 40
0.000000
 41
0.000000
  0
VERTEX
  8
0
  6
CONTINUOUS
 10
2.611400
 20
1.388640
  0
VERTEX
  8
0
  6
CONTINUOUS
 10
2.615360
 20
2.141040
  0
VERTEX
  8
0
  6
CONTINUOUS
 10
2.619320
 20
2.182400
  0
VERTEX
  8
0
  6
CONTINUOUS
 10
2.615800
 20
1.430000
  0
VERTEX
  8
0
  6
CONTINUOUS
 10
2.611400
 20
1.388640
  0
SEQEND
  8
0
  0
SOLID
  8
0
 62
    15
 10
2.627240
 20
1.468720
 11
2.631200
 21
2.221120
 12
2.646160
 22
1.503920
 13
2.650120
 23
2.256320
  0
POLYLINE
  8
0
  6
CONTINUOUS
 66
     1
 40
0.000000
 41
0.000000
  0
VERTEX
  8
0
  6
CONTINUOUS
 10
2.627240
 20
1.468720
  0
VERTEX
  8
0
  6
CONTINUOUS
 10
2.631200
 20
2.221120
  0
VERTEX
  8
0
  6
CONTINUOUS
 10
2.650120
 20
2.256320
  0
VERTEX
  8
0
  6
CONTINUOUS
 10
2.646160
 20
1.503920
  0
VERTEX
  8
0
  6
CONTINUOUS
 10
2.627240
 20
1.468720
  0
SEQEND
  8
0
  0
SOLID
  8
0
 62
    15
 10
2.646160
 20
1.503920
 11
2.650120
 21
2.256320
 12
2.671240
 22
1.534280
 13
2.674760
 23
2.286680
  0
POLYLINE
  8
0
  6
CONTINUOUS
 66
     1
 40
0.000000
 41
0.000000
  0
VERTEX
  8
0
  6
CONTINUOUS
 10
2.646160
 20
1.503920
  0
VERTEX
  8
0
  6
CONTINUOUS
 10
2.650120
 20
2.256320
  0
VERTEX
  8
0
  6
CONTINUOUS
 10
2.674760
 20
2.286680
  0
VERTEX
  8
0
  6
CONTINUOUS
 10
2.671240
 20
1.534280
  0
VERTEX
  8
0
  6
CONTINUOUS
 10
2.646160
 20
1.503920
  0
SEQEND
  8
0
  0
SOLID
  8
0
 62
    15
 10
2.671240
 20
1.534280
 11
2.674760
 21
2.286680
 12
2.701160
 22
1.559800
 13
2.705120
 23
2.312200
  0
POLYLINE
  8
0
  6
CONTINUOUS
 66
     1
 40
0.000000
 41
0.000000
  0
VERTEX
  8
0
  6
CONTINUOUS
 10
2.671240
 20
1.534280
  0
VERTEX
  8
0
  6
CONTINUOUS
 10
2.674760
 20
2.286680
  0
VERTEX
  8
0
  6
CONTINUOUS
 10
2.705120
 20
2.312200
  0
VERTEX
  8
0
  6
CONTINUOUS
 10
2.701160
 20
1.559800
  0
VERTEX
  8
0
  6
CONTINUOUS
 10
2.671240
 20
1.534280
  0
SEQEND
  8
0
  0
SOLID
  8
0
 62
    15
 10
2.701160
 20
1.559800
 11
2.705120
 21
2.312200
 12
2.735920
 22
1.578720
 13
2.739440
 23
2.331120
  0
POLYLINE
  8
0
  6
CONTINUOUS
 66
     1
 40
0.000000
 41
0.000000
  0
VERTEX
  8
0
  6
CONTINUOUS
 10
2.701160
 20
1.559800
  0
VERTEX
  8
0
  6
CONTINUOUS
 10
2.705120
 20
2.312200
  0
VERTEX
  8
0
  6
CONTINUOUS
 10
2.739440
 20
2.331120
  0
VERTEX
  8
0
  6
CONTINUOUS
 10
2.735920
 20
1.578720
  0
VERTEX
  8
0
  6
CONTINUOUS
 10
2.701160
 20
1.559800
  0
SEQEND
  8
0
  0
SOLID
  8
0
 62
    15
 10
2.735920
 20
1.578720
 11
2.739440
 21
2.331120
 12
2.774200
 22
1.591040
 13
2.778160
 23
2.343440
  0
POLYLINE
  8
0
  6
CONTINUOUS
 66
     1
 40
0.000000
 41
0.000000
  0
VERTEX
  8
0
  6
CONTINUOUS
 10
2.735920
 20
1.578720
  0
VERTEX
  8
0
  6
CONTINUOUS
 10
2.739440
 20
2.331120
  0
VERTEX
  8
0
  6
CONTINUOUS
 10
2.778160
 20
2.343440
  0
VERTEX
  8
0
  6
CONTINUOUS
 10
2.774200
 20
1.591040
  0
VERTEX
  8
0
  6
CONTINUOUS
 10
2.735920
 20
1.578720
  0
SEQEND
  8
0
  0
SOLID
  8
0
 62
    15
 10
2.774200
 20
1.591040
 11
2.778160
 21
2.343440
 12
2.815560
 22
1.595000
 13
2.819520
 23
2.347840
  0
POLYLINE
  8
0
  6
CONTINUOUS
 66
     1
 40
0.000000
 41
0.000000
  0
VERTEX
  8
0
  6
CONTINUOUS
 10
2.774200
 20
1.591040
  0
VERTEX
  8
0
  6
CONTINUOUS
 10
2.778160
 20
2.343440
  0
VERTEX
  8
0
  6
CONTINUOUS
 10
2.819520
 20
2.347840
  0
VERTEX
  8
0
  6
CONTINUOUS
 10
2.815560
 20
1.595000
  0
VERTEX
  8
0
  6
CONTINUOUS
 10
2.774200
 20
1.591040
  0
SEQEND
  8
0
  0
SOLID
  8
0
 62
    15
 10
2.815560
 20
1.595000
 11
2.819520
 21
2.347840
 12
5.894240
 22
1.595000
 13
5.898200
 23
2.347840
  0
POLYLINE
  8
0
  6
CONTINUOUS
 66
     1
 40
0.000000
 41
0.000000
  0
VERTEX
  8
0
  6
CONTINUOUS
 10
2.815560
 20
1.595000
  0
VERTEX
  8
0
  6
CONTINUOUS
 10
2.819520
 20
2.347840
  0
VERTEX
  8
0
  6
CONTINUOUS
 10
5.898200
 20
2.347840
  0
VERTEX
  8
0
  6
CONTINUOUS
 10
5.894240
 20
1.595000
  0
VERTEX
  8
0
  6
CONTINUOUS
 10
2.815560
 20
1.595000
  0
SEQEND
  8
0
  0
SOLID
  8
0
 62
    15
 10
2.615800
 20
1.430000
 11
2.619320
 21
2.182400
 12
2.627240
 22
1.468720
 13
2.631200
 23
2.221120
  0
POLYLINE
  8
0
  6
CONTINUOUS
 66
     1
 40
0.000000
 41
0.000000
  0
VERTEX
  8
0
  6
CONTINUOUS
 10
2.615800
 20
1.430000
  0
VERTEX
  8
0
  6
CONTINUOUS
 10
2.619320
 20
2.182400
  0
VERTEX
  8
0
  6
CONTINUOUS
 10
2.631200
 20
2.221120
  0
VERTEX
  8
0
  6
CONTINUOUS
 10
2.627240
 20
1.468720
  0
VERTEX
  8
0
  6
CONTINUOUS
 10
2.615800
 20
1.430000
  0
SEQEND
  8
0
  0
SOLID
  8
0
 62
    15
 10
5.935160
 20
1.591040
 11
5.939120
 21
2.343440
 12
5.972560
 22
1.579160
 13
5.976080
 23
2.332000
  0
POLYLINE
  8
0
  6
CONTINUOUS
 66
     1
 40
0.000000
 41
0.000000
  0
VERTEX
  8
0
  6
CONTINUOUS
 10
5.935160
 20
1.591040
  0
VERTEX
  8
0
  6
CONTINUOUS
 10
5.939120
 20
2.343440
  0
VERTEX
  8
0
  6
CONTINUOUS
 10
5.976080
 20
2.332000
  0
VERTEX
  8
0
  6
CONTINUOUS
 10
5.972560
 20
1.579160
  0
VERTEX
  8
0
  6
CONTINUOUS
 10
5.935160
 20
1.591040
  0
SEQEND
  8
0
  0
SOLID
  8
0
 62
    15
 10
5.991480
 20
0.853600
 11
5.995440
 21
1.606440
 12
6.088720
 22
0.853600
 13
6.092680
 23
1.606440
  0
POLYLINE
  8
0
  6
CONTINUOUS
 66
     1
 40
0.000000
 41
0.000000
  0
VERTEX
  8
0
  6
CONTINUOUS
 10
5.991480
 20
0.853600
  0
VERTEX
  8
0
  6
CONTINUOUS
 10
5.995440
 20
1.606440
  0
VERTEX
  8
0
  6
CONTINUOUS
 10
6.092680
 20
1.606440
  0
VERTEX
  8
0
  6
CONTINUOUS
 10
6.088720
 20
0.853600
  0
VERTEX
  8
0
  6
CONTINUOUS
 10
5.991480
 20
0.853600
  0
SEQEND
  8
0
  0
SOLID
  8
0
 62
    15
 10
6.005560
 20
1.560680
 11
6.009520
 21
2.313080
 12
6.034160
 22
1.535600
 13
6.037680
 23
2.288440
  0
POLYLINE
  8
0
  6
CONTINUOUS
 66
     1
 40
0.000000
 41
0.000000
  0
VERTEX
  8
0
  6
CONTINUOUS
 10
6.005560
 20
1.560680
  0
VERTEX
  8
0
  6
CONTINUOUS
 10
6.009520
 20
2.313080
  0
VERTEX
  8
0
  6
CONTINUOUS
 10
6.037680
 20
2.288440
  0
VERTEX
  8
0
  6
CONTINUOUS
 10
6.034160
 20
1.535600
  0
VERTEX
  8
0
  6
CONTINUOUS
 10
6.005560
 20
1.560680
  0
SEQEND
  8
0
  0
SOLID
  8
0
 62
    15
 10
6.034160
 20
1.535600
 11
6.037680
 21
2.288440
 12
6.057040
 22
1.505680
 13
6.061000
 23
2.258080
  0
POLYLINE
  8
0
  6
CONTINUOUS
 66
     1
 40
0.000000
 41
0.000000
  0
VERTEX
  8
0
  6
CONTINUOUS
 10
6.034160
 20
1.535600
  0
VERTEX
  8
0
  6
CONTINUOUS
 10
6.037680
 20
2.288440
  0
VERTEX
  8
0
  6
CONTINUOUS
 10
6.061000
 20
2.258080
  0
VERTEX
  8
0
  6
CONTINUOUS
 10
6.057040
 20
1.505680
  0
VERTEX
  8
0
  6
CONTINUOUS
 10
6.034160
 20
1.535600
  0
SEQEND
  8
0
  0
SOLID
  8
0
 62
    15
 10
6.057040
 20
1.505680
 11
6.061000
 21
2.258080
 12
6.074200
 22
1.470920
 13
6.078160
 23
2.223320
  0
POLYLINE
  8
0
  6
CONTINUOUS
 66
     1
 40
0.000000
 41
0.000000
  0
VERTEX
  8
0
  6
CONTINUOUS
 10
6.057040
 20
1.505680
  0
VERTEX
  8
0
  6
CONTINUOUS
 10
6.061000
 20
2.258080
  0
VERTEX
  8
0
  6
CONTINUOUS
 10
6.078160
 20
2.223320
  0
VERTEX
  8
0
  6
CONTINUOUS
 10
6.074200
 20
1.470920
  0
VERTEX
  8
0
  6
CONTINUOUS
 10
6.057040
 20
1.505680
  0
SEQEND
  8
0
  0
SOLID
  8
0
 62
    15
 10
6.085200
 20
1.432640
 11
6.088720
 21
2.185040
 12
6.088720
 22
1.391280
 13
6.092680
 23
2.143680
  0
POLYLINE
  8
0
  6
CONTINUOUS
 66
     1
 40
0.000000
 41
0.000000
  0
VERTEX
  8
0
  6
CONTINUOUS
 10
6.085200
 20
1.432640
  0
VERTEX
  8
0
  6
CONTINUOUS
 10
6.088720
 20
2.185040
  0
VERTEX
  8
0
  6
CONTINUOUS
 10
6.092680
 20
2.143680
  0
VERTEX
  8
0
  6
CONTINUOUS
 10
6.088720
 20
1.391280
  0
VERTEX
  8
0
  6
CONTINUOUS
 10
6.085200
 20
1.432640
  0
SEQEND
  8
0
  0
SOLID
  8
0
 62
    15
 10
6.074200
 20
1.470920
 11
6.078160
 21
2.223320
 12
6.085200
 22
1.432640
 13
6.088720
 23
2.185040
  0
POLYLINE
  8
0
  6
CONTINUOUS
 66
     1
 40
0.000000
 41
0.000000
  0
VERTEX
  8
0
  6
CONTINUOUS
 10
6.074200
 20
1.470920
  0
VERTEX
  8
0
  6
CONTINUOUS
 10
6.078160
 20
2.223320
  0
VERTEX
  8
0
  6
CONTINUOUS
 10
6.088720
 20
2.185040
  0
VERTEX
  8
0
  6
CONTINUOUS
 10
6.085200
 20
1.432640
  0
VERTEX
  8
0
  6
CONTINUOUS
 10
6.074200
 20
1.470920
  0
SEQEND
  8
0
  0
SOLID
  8
0
 62
    15
 10
6.088720
 20
1.391280
 11
6.092680
 21
2.143680
 12
6.088720
 22
0.853600
 13
6.092680
 23
1.606440
  0
POLYLINE
  8
0
  6
CONTINUOUS
 66
     1
 40
0.000000
 41
0.000000
  0
VERTEX
  8
0
  6
CONTINUOUS
 10
6.088720
 20
1.391280
  0
VERTEX
  8
0
  6
CONTINUOUS
 10
6.092680
 20
2.143680
  0
VERTEX
  8
0
  6
CONTINUOUS
 10
6.092680
 20
1.606440
  0
VERTEX
  8
0
  6
CONTINUOUS
 10
6.088720
 20
0.853600
  0
VERTEX
  8
0
  6
CONTINUOUS
 10
6.088720
 20
1.391280
  0
SEQEND
  8
0
  0
SOLID
  8
0
 62
    15
 10
5.972560
 20
1.579160
 11
5.976080
 21
2.332000
 12
6.005560
 22
1.560680
 13
6.009520
 23
2.313080
  0
POLYLINE
  8
0
  6
CONTINUOUS
 66
     1
 40
0.000000
 41
0.000000
  0
VERTEX
  8
0
  6
CONTINUOUS
 10
5.972560
 20
1.579160
  0
VERTEX
  8
0
  6
CONTINUOUS
 10
5.976080
 20
2.332000
  0
VERTEX
  8
0
  6
CONTINUOUS
 10
6.009520
 20
2.313080
  0
VERTEX
  8
0
  6
CONTINUOUS
 10
6.005560
 20
1.560680
  0
VERTEX
  8
0
  6
CONTINUOUS
 10
5.972560
 20
1.579160
  0
SEQEND
  8
0
  0
POLYLINE
  8
0
  6
CONTINUOUS
 66
     1
 40
0.000000
 41
0.000000
  0
VERTEX
  8
0
  6
CONTINUOUS
 10
6.088720
 20
0.853600
  0
VERTEX
  8
0
  6
CONTINUOUS
 10
2.611400
 20
0.853600
  0
VERTEX
  8
0
  6
CONTINUOUS
 10
2.611400
 20
1.388640
  0
VERTEX
  8
0
  6
CONTINUOUS
 10
2.615800
 20
1.430000
  0
VERTEX
  8
0
  6
CONTINUOUS
 10
2.627240
 20
1.468720
  0
VERTEX
  8
0
  6
CONTINUOUS
 10
2.646160
 20
1.503920
  0
VERTEX
  8
0
  6
CONTINUOUS
 10
2.671240
 20
1.534280
  0
VERTEX
  8
0
  6
CONTINUOUS
 10
2.701160
 20
1.559800
  0
VERTEX
  8
0
  6
CONTINUOUS
 10
2.735920
 20
1.578720
  0
VERTEX
  8
0
  6
CONTINUOUS
 10
2.774200
 20
1.591040
  0
VERTEX
  8
0
  6
CONTINUOUS
 10
2.815560
 20
1.595000
  0
VERTEX
  8
0
  6
CONTINUOUS
 10
5.894240
 20
1.595000
  0
VERTEX
  8
0
  6
CONTINUOUS
 10
5.935160
 20
1.591040
  0
VERTEX
  8
0
  6
CONTINUOUS
 10
5.972560
 20
1.579160
  0
VERTEX
  8
0
  6
CONTINUOUS
 10
6.005560
 20
1.560680
  0
VERTEX
  8
0
  6
CONTINUOUS
 10
6.034160
 20
1.535600
  0
VERTEX
  8
0
  6
CONTINUOUS
 10
6.057040
 20
1.505680
  0
VERTEX
  8
0
  6
CONTINUOUS
 10
6.074200
 20
1.470920
  0
VERTEX
  8
0
  6
CONTINUOUS
 10
6.085200
 20
1.432640
  0
VERTEX
  8
0
  6
CONTINUOUS
 10
6.088720
 20
1.391280
  0
VERTEX
  8
0
  6
CONTINUOUS
 10
6.088720
 20
0.853600
  0
VERTEX
  8
0
  6
CONTINUOUS
 10
5.991480
 20
0.853600
  0
VERTEX
  8
0
  6
CONTINUOUS
 10
6.088720
 20
0.853600
  0
SEQEND
  8
0
  0
TEXT
  8
0
 10
4.056360
 20
0.607200
 40
0.138104
  1
BA  188
 41
1.000000
  7
SN0
 71
     0
 72
     5
 11
4.646856
 21
0.607200
  0
TEXT
  8
0
 10
3.854400
 20
0.415360
 40
0.138104
  1
9/16" x 3-1/2"
 41
1.000000
  7
SN0
 71
     0
 72
     5
 11
4.847557
 21
0.415360
  0
TEXT
  8
0
 10
7.709680
 20
3.972320
 40
0.138104
  1
case
 41
1.000000
  7
SN0
 71
     0
 72
     5
 11
8.060287
 21
3.972320
  0
TEXT
  8
0
 10
7.709680
 20
3.780480
 40
0.138104
  1
188
 41
1.000000
  7
SN0
 71
     0
 72
     5
 11
7.986751
 21
3.780480
  0
ENDSEC
  0
EOF
