  0
SECTION
  2
HEADER
  9
$ACADVER
  1
AC1006
  9
$EXTMIN
 10
2.591600
 20
0.439560
  9
$EXTMAX
 10
8.032640
 20
4.990480
  9
$LTSCALE
 40
0.044000
  9
$PDMODE
 70
    35
  9
$PDSIZE
 40
0.035200
  0
ENDSEC
  0
SECTION
  2
TABLES
  0
TABLE
  2
LTYPE
 70
     9
  0
LTYPE
  2
CONTINUOUS
 70
    64
  3
Solid line
 72
    65
 73
     0
 40
0.000000
  0
LTYPE
  2
DASHED
 70
    64
  3
__ __ __ __ __ __ __ __ __ __ __ __ __ __ __
 72
    65
 73
     2
 40
0.000330
 49
0.000220
 49
-0.000110
  0
LTYPE
  2
HIDDEN
 70
    64
  3
 _ _ _ _ _ _ _ _ _ _ _ _ _ _ _ _ _ _ _ _ _ _
 72
    65
 73
     2
 40
0.000165
 49
0.000110
 49
-0.000055
  0
LTYPE
  2
CENTER
 70
    64
  3
____ _ ____ _ ____ _ ____ _ ____ _ ____ _ ____
 72
    65
 73
     4
 40
0.000880
 49
0.000550
 49
-0.000110
 49
0.000110
 49
-0.000110
  0
LTYPE
  2
PHANTOM
 70
    64
  3
_____ _ _ _____ _ _ _____ _ _ _____ _ _ ____
 72
    65
 73
     6
 40
0.001100
 49
0.000550
 49
-0.000110
 49
0.000110
 49
-0.000110
 49
0.000110
 49
-0.000110
  0
LTYPE
  2
DOT
 70
    64
  3
...............................................
 72
    65
 73
     2
 40
0.000110
 49
0.000000
 49
-0.000110
  0
LTYPE
  2
DASHDOT
 70
    64
  3
__ . __ . __ . __ . __ . __ . __ . __ . __ . __
 72
    65
 73
     4
 40
0.000440
 49
0.000220
 49
-0.000110
 49
0.000000
 49
-0.000110
  0
LTYPE
  2
BORDER
 70
    64
  3
__ __ . __ __ . __ __ . __ __ . __ __ . __ __
 72
    65
 73
     6
 40
0.000770
 49
0.000220
 49
-0.000110
 49
0.000220
 49
-0.000110
 49
0.000000
 49
-0.000110
  0
LTYPE
  2
DIVIDE
 70
    64
  3
__ . . __ . . __ . . __ . . __ . . __ . . __
 72
    65
 73
     6
 40
0.000550
 49
0.000220
 49
-0.000110
 49
0.000000
 49
-0.000110
 49
0.000000
 49
-0.000110
  0
LTYPE
  2
DOTDOT
 70
    64
  3
 . .  . .  . .  . .  . .  . . 
 72
    65
 73
     5
 40
0.000242
 49
-0.000110
 49
0.000000
 49
-0.000110
 49
0.000000
 49
-0.000110
  0
ENDTAB
  0
TABLE
  2
STYLE
 70
     2
  0
STYLE
 70
     0
  2
SN0
 40
0.000000
 41
0.000440
 50
0.000000
 71
     0
 42
0.000000
  3
ROMAND
  0
STYLE
 70
    68
  2
SV0
 40
0.000000
 41
0.000440
 50
0.000000
 71
     0
 42
0.000000
  3
ROMAND
  0
ENDTAB
  0
TABLE
  2
LAYER
 70
     3
  0
LAYER
  2
FOREGROUND
 70
    64
 62
     7
  6
CONTINUOUS
  0
LAYER
  2
BACKGROUND
 70
    65
 62
    -7
  6
CONTINUOUS
  0
LAYER
  2
0
 70
    64
 62
     7
  6
CONTINUOUS
  0
ENDTAB
  0
ENDSEC
  0
SECTION
  2
ENTITIES
  0
POLYLINE
  8
FOREGROUND
  6
CONTINUOUS
 66
     1
 40
0.000000
 41
0.000000
  0
VERTEX
  8
FOREGROUND
  6
CONTINUOUS
 10
0.000000
 20
5.430040
  0
VERTEX
  8
FOREGROUND
  6
CONTINUOUS
 10
8.499920
 20
5.430040
  0
VERTEX
  8
FOREGROUND
  6
CONTINUOUS
 10
8.499920
 20
-5.569960
  0
VERTEX
  8
FOREGROUND
  6
CONTINUOUS
 10
0.000000
 20
-5.569960
  0
VERTEX
  8
FOREGROUND
  6
CONTINUOUS
 10
0.000000
 20
5.430040
  0
SEQEND
  8
0
  0
POLYLINE
  8
FOREGROUND
  6
CONTINUOUS
 66
     1
 40
0.000000
 41
0.000000
  0
VERTEX
  8
FOREGROUND
  6
CONTINUOUS
 10
0.000000
 20
5.430040
  0
VERTEX
  8
FOREGROUND
  6
CONTINUOUS
 10
8.499920
 20
5.430040
  0
VERTEX
  8
FOREGROUND
  6
CONTINUOUS
 10
8.499920
 20
-5.569960
  0
VERTEX
  8
FOREGROUND
  6
CONTINUOUS
 10
0.000000
 20
-5.569960
  0
VERTEX
  8
FOREGROUND
  6
CONTINUOUS
 10
0.000000
 20
5.430040
  0
SEQEND
  8
0
  0
POLYLINE
  8
0
  6
CONTINUOUS
 66
     1
 40
0.014080
 41
0.014080
  0
VERTEX
  8
0
  6
CONTINUOUS
 10
2.599520
 20
4.329160
  0
VERTEX
  8
0
  6
CONTINUOUS
 10
2.715680
 20
4.189240
  0
VERTEX
  8
0
  6
CONTINUOUS
 10
5.640800
 20
4.189240
  0
VERTEX
  8
0
  6
CONTINUOUS
 10
6.189920
 20
4.625280
  0
VERTEX
  8
0
  6
CONTINUOUS
 10
6.072880
 20
4.784120
  0
VERTEX
  8
0
  6
CONTINUOUS
 10
6.070240
 20
4.784120
  0
VERTEX
  8
0
  6
CONTINUOUS
 10
6.022720
 20
4.753320
  0
VERTEX
  8
0
  6
CONTINUOUS
 10
5.976080
 20
4.727360
  0
VERTEX
  8
0
  6
CONTINUOUS
 10
5.929440
 20
4.706240
  0
VERTEX
  8
0
  6
CONTINUOUS
 10
5.883680
 20
4.689520
  0
VERTEX
  8
0
  6
CONTINUOUS
 10
5.838360
 20
4.677640
  0
VERTEX
  8
0
  6
CONTINUOUS
 10
5.793920
 20
4.670160
  0
VERTEX
  8
0
  6
CONTINUOUS
 10
5.771920
 20
4.667520
  0
VERTEX
  8
0
  6
CONTINUOUS
 10
5.728360
 20
4.666200
  0
VERTEX
  8
0
  6
CONTINUOUS
 10
5.685240
 20
4.668840
  0
VERTEX
  8
0
  6
CONTINUOUS
 10
5.643440
 20
4.675000
  0
VERTEX
  8
0
  6
CONTINUOUS
 10
5.602080
 20
4.684680
  0
VERTEX
  8
0
  6
CONTINUOUS
 10
5.542240
 20
4.705360
  0
VERTEX
  8
0
  6
CONTINUOUS
 10
5.484600
 20
4.733520
  0
VERTEX
  8
0
  6
CONTINUOUS
 10
5.429160
 20
4.768280
  0
VERTEX
  8
0
  6
CONTINUOUS
 10
5.392640
 20
4.794680
  0
VERTEX
  8
0
  6
CONTINUOUS
 10
5.127320
 20
4.594480
  0
VERTEX
  8
0
  6
CONTINUOUS
 10
5.124680
 20
4.594920
  0
VERTEX
  8
0
  6
CONTINUOUS
 10
5.062640
 20
4.640240
  0
VERTEX
  8
0
  6
CONTINUOUS
 10
5.001480
 20
4.677640
  0
VERTEX
  8
0
  6
CONTINUOUS
 10
4.940760
 20
4.707560
  0
VERTEX
  8
0
  6
CONTINUOUS
 10
4.880920
 20
4.731320
  0
VERTEX
  8
0
  6
CONTINUOUS
 10
4.821520
 20
4.748480
  0
VERTEX
  8
0
  6
CONTINUOUS
 10
4.763000
 20
4.759480
  0
VERTEX
  8
0
  6
CONTINUOUS
 10
4.704480
 20
4.766080
  0
VERTEX
  8
0
  6
CONTINUOUS
 10
4.646400
 20
4.767400
  0
VERTEX
  8
0
  6
CONTINUOUS
 10
4.588320
 20
4.764760
  0
VERTEX
  8
0
  6
CONTINUOUS
 10
4.530680
 20
4.758600
  0
VERTEX
  8
0
  6
CONTINUOUS
 10
4.472600
 20
4.748920
  0
VERTEX
  8
0
  6
CONTINUOUS
 10
4.414960
 20
4.737040
  0
VERTEX
  8
0
  6
CONTINUOUS
 10
4.356880
 20
4.722960
  0
VERTEX
  8
0
  6
CONTINUOUS
 10
4.062520
 20
4.639360
  0
VERTEX
  8
0
  6
CONTINUOUS
 10
4.002240
 20
4.623520
  0
VERTEX
  8
0
  6
CONTINUOUS
 10
3.910280
 20
4.603280
  0
VERTEX
  8
0
  6
CONTINUOUS
 10
3.816560
 20
4.588320
  0
VERTEX
  8
0
  6
CONTINUOUS
 10
3.752760
 20
4.581720
  0
VERTEX
  8
0
  6
CONTINUOUS
 10
3.687640
 20
4.579080
  0
VERTEX
  8
0
  6
CONTINUOUS
 10
3.621640
 20
4.580840
  0
VERTEX
  8
0
  6
CONTINUOUS
 10
3.554760
 20
4.587000
  0
VERTEX
  8
0
  6
CONTINUOUS
 10
3.520440
 20
4.591840
  0
VERTEX
  8
0
  6
CONTINUOUS
 10
3.451360
 20
4.606360
  0
VERTEX
  8
0
  6
CONTINUOUS
 10
3.380520
 20
4.626600
  0
VERTEX
  8
0
  6
CONTINUOUS
 10
3.344880
 20
4.638920
  0
VERTEX
  8
0
  6
CONTINUOUS
 10
3.271840
 20
4.669280
  0
VERTEX
  8
0
  6
CONTINUOUS
 10
3.197040
 20
4.706680
  0
VERTEX
  8
0
  6
CONTINUOUS
 10
3.119600
 20
4.752000
  0
VERTEX
  8
0
  6
CONTINUOUS
 10
2.596880
 20
4.329160
  0
VERTEX
  8
0
  6
CONTINUOUS
 10
2.599520
 20
4.329160
  0
SEQEND
  8
0
  0
SOLID
  8
0
 62
    15
 10
4.079240
 20
1.884520
 11
4.737480
 21
1.518440
 12
3.983320
 22
1.809720
 13
4.642000
 23
1.443640
  0
POLYLINE
  8
0
  6
CONTINUOUS
 66
     1
 40
0.000000
 41
0.000000
  0
VERTEX
  8
0
  6
CONTINUOUS
 10
4.079240
 20
1.884520
  0
VERTEX
  8
0
  6
CONTINUOUS
 10
4.737480
 20
1.518440
  0
VERTEX
  8
0
  6
CONTINUOUS
 10
4.642000
 20
1.443640
  0
VERTEX
  8
0
  6
CONTINUOUS
 10
3.983320
 20
1.809720
  0
VERTEX
  8
0
  6
CONTINUOUS
 10
4.079240
 20
1.884520
  0
SEQEND
  8
0
  0
SOLID
  8
0
 62
    15
 10
5.093880
 20
3.177680
 11
5.752560
 21
2.811160
 12
5.093440
 22
3.176360
 13
5.751680
 23
2.810280
  0
POLYLINE
  8
0
  6
CONTINUOUS
 66
     1
 40
0.000000
 41
0.000000
  0
VERTEX
  8
0
  6
CONTINUOUS
 10
5.093880
 20
3.177680
  0
VERTEX
  8
0
  6
CONTINUOUS
 10
5.752560
 20
2.811160
  0
VERTEX
  8
0
  6
CONTINUOUS
 10
5.751680
 20
2.810280
  0
VERTEX
  8
0
  6
CONTINUOUS
 10
5.093440
 20
3.176360
  0
VERTEX
  8
0
  6
CONTINUOUS
 10
5.093880
 20
3.177680
  0
SEQEND
  8
0
  0
SOLID
  8
0
 62
    15
 10
5.093440
 20
3.176360
 11
5.751680
 21
2.810280
 12
4.934600
 22
3.109480
 13
5.592840
 23
2.743400
  0
POLYLINE
  8
0
  6
CONTINUOUS
 66
     1
 40
0.000000
 41
0.000000
  0
VERTEX
  8
0
  6
CONTINUOUS
 10
5.093440
 20
3.176360
  0
VERTEX
  8
0
  6
CONTINUOUS
 10
5.751680
 20
2.810280
  0
VERTEX
  8
0
  6
CONTINUOUS
 10
5.592840
 20
2.743400
  0
VERTEX
  8
0
  6
CONTINUOUS
 10
4.934600
 20
3.109480
  0
VERTEX
  8
0
  6
CONTINUOUS
 10
5.093440
 20
3.176360
  0
SEQEND
  8
0
  0
SOLID
  8
0
 62
    15
 10
4.934600
 20
3.109480
 11
5.592840
 21
2.743400
 12
4.803040
 22
3.029840
 13
5.461280
 23
2.663320
  0
POLYLINE
  8
0
  6
CONTINUOUS
 66
     1
 40
0.000000
 41
0.000000
  0
VERTEX
  8
0
  6
CONTINUOUS
 10
4.934600
 20
3.109480
  0
VERTEX
  8
0
  6
CONTINUOUS
 10
5.592840
 20
2.743400
  0
VERTEX
  8
0
  6
CONTINUOUS
 10
5.461280
 20
2.663320
  0
VERTEX
  8
0
  6
CONTINUOUS
 10
4.803040
 20
3.029840
  0
VERTEX
  8
0
  6
CONTINUOUS
 10
4.934600
 20
3.109480
  0
SEQEND
  8
0
  0
SOLID
  8
0
 62
    15
 10
4.803040
 20
3.029840
 11
5.461280
 21
2.663320
 12
4.694360
 22
2.938760
 13
5.353040
 23
2.572680
  0
POLYLINE
  8
0
  6
CONTINUOUS
 66
     1
 40
0.000000
 41
0.000000
  0
VERTEX
  8
0
  6
CONTINUOUS
 10
4.803040
 20
3.029840
  0
VERTEX
  8
0
  6
CONTINUOUS
 10
5.461280
 20
2.663320
  0
VERTEX
  8
0
  6
CONTINUOUS
 10
5.353040
 20
2.572680
  0
VERTEX
  8
0
  6
CONTINUOUS
 10
4.694360
 20
2.938760
  0
VERTEX
  8
0
  6
CONTINUOUS
 10
4.803040
 20
3.029840
  0
SEQEND
  8
0
  0
SOLID
  8
0
 62
    15
 10
4.694360
 20
2.938760
 11
5.353040
 21
2.572680
 12
4.605920
 22
2.839320
 13
5.264160
 23
2.472800
  0
POLYLINE
  8
0
  6
CONTINUOUS
 66
     1
 40
0.000000
 41
0.000000
  0
VERTEX
  8
0
  6
CONTINUOUS
 10
4.694360
 20
2.938760
  0
VERTEX
  8
0
  6
CONTINUOUS
 10
5.353040
 20
2.572680
  0
VERTEX
  8
0
  6
CONTINUOUS
 10
5.264160
 20
2.472800
  0
VERTEX
  8
0
  6
CONTINUOUS
 10
4.605920
 20
2.839320
  0
VERTEX
  8
0
  6
CONTINUOUS
 10
4.694360
 20
2.938760
  0
SEQEND
  8
0
  0
SOLID
  8
0
 62
    15
 10
4.605920
 20
2.839320
 11
5.264160
 21
2.472800
 12
4.532880
 22
2.732840
 13
5.191120
 23
2.366760
  0
POLYLINE
  8
0
  6
CONTINUOUS
 66
     1
 40
0.000000
 41
0.000000
  0
VERTEX
  8
0
  6
CONTINUOUS
 10
4.605920
 20
2.839320
  0
VERTEX
  8
0
  6
CONTINUOUS
 10
5.264160
 20
2.472800
  0
VERTEX
  8
0
  6
CONTINUOUS
 10
5.191120
 20
2.366760
  0
VERTEX
  8
0
  6
CONTINUOUS
 10
4.532880
 20
2.732840
  0
VERTEX
  8
0
  6
CONTINUOUS
 10
4.605920
 20
2.839320
  0
SEQEND
  8
0
  0
SOLID
  8
0
 62
    15
 10
4.532880
 20
2.732840
 11
5.191120
 21
2.366760
 12
4.472160
 22
2.621960
 13
5.130400
 23
2.255440
  0
POLYLINE
  8
0
  6
CONTINUOUS
 66
     1
 40
0.000000
 41
0.000000
  0
VERTEX
  8
0
  6
CONTINUOUS
 10
4.532880
 20
2.732840
  0
VERTEX
  8
0
  6
CONTINUOUS
 10
5.191120
 20
2.366760
  0
VERTEX
  8
0
  6
CONTINUOUS
 10
5.130400
 20
2.255440
  0
VERTEX
  8
0
  6
CONTINUOUS
 10
4.472160
 20
2.621960
  0
VERTEX
  8
0
  6
CONTINUOUS
 10
4.532880
 20
2.732840
  0
SEQEND
  8
0
  0
SOLID
  8
0
 62
    15
 10
4.472160
 20
2.621960
 11
5.130400
 21
2.255440
 12
4.372720
 22
2.393600
 13
5.030960
 23
2.027520
  0
POLYLINE
  8
0
  6
CONTINUOUS
 66
     1
 40
0.000000
 41
0.000000
  0
VERTEX
  8
0
  6
CONTINUOUS
 10
4.472160
 20
2.621960
  0
VERTEX
  8
0
  6
CONTINUOUS
 10
5.130400
 20
2.255440
  0
VERTEX
  8
0
  6
CONTINUOUS
 10
5.030960
 20
2.027520
  0
VERTEX
  8
0
  6
CONTINUOUS
 10
4.372720
 20
2.393600
  0
VERTEX
  8
0
  6
CONTINUOUS
 10
4.472160
 20
2.621960
  0
SEQEND
  8
0
  0
SOLID
  8
0
 62
    15
 10
4.372720
 20
2.393600
 11
5.030960
 21
2.027520
 12
4.349400
 22
2.336840
 13
5.008080
 23
1.970760
  0
POLYLINE
  8
0
  6
CONTINUOUS
 66
     1
 40
0.000000
 41
0.000000
  0
VERTEX
  8
0
  6
CONTINUOUS
 10
4.372720
 20
2.393600
  0
VERTEX
  8
0
  6
CONTINUOUS
 10
5.030960
 20
2.027520
  0
VERTEX
  8
0
  6
CONTINUOUS
 10
5.008080
 20
1.970760
  0
VERTEX
  8
0
  6
CONTINUOUS
 10
4.349400
 20
2.336840
  0
VERTEX
  8
0
  6
CONTINUOUS
 10
4.372720
 20
2.393600
  0
SEQEND
  8
0
  0
SOLID
  8
0
 62
    15
 10
4.349400
 20
2.336840
 11
5.008080
 21
1.970760
 12
4.326520
 22
2.280960
 13
4.984760
 23
1.914440
  0
POLYLINE
  8
0
  6
CONTINUOUS
 66
     1
 40
0.000000
 41
0.000000
  0
VERTEX
  8
0
  6
CONTINUOUS
 10
4.349400
 20
2.336840
  0
VERTEX
  8
0
  6
CONTINUOUS
 10
5.008080
 20
1.970760
  0
VERTEX
  8
0
  6
CONTINUOUS
 10
4.984760
 20
1.914440
  0
VERTEX
  8
0
  6
CONTINUOUS
 10
4.326520
 20
2.280960
  0
VERTEX
  8
0
  6
CONTINUOUS
 10
4.349400
 20
2.336840
  0
SEQEND
  8
0
  0
SOLID
  8
0
 62
    15
 10
4.326520
 20
2.280960
 11
4.984760
 21
1.914440
 12
4.277680
 22
2.171400
 13
4.935920
 23
1.805320
  0
POLYLINE
  8
0
  6
CONTINUOUS
 66
     1
 40
0.000000
 41
0.000000
  0
VERTEX
  8
0
  6
CONTINUOUS
 10
4.326520
 20
2.280960
  0
VERTEX
  8
0
  6
CONTINUOUS
 10
4.984760
 20
1.914440
  0
VERTEX
  8
0
  6
CONTINUOUS
 10
4.935920
 20
1.805320
  0
VERTEX
  8
0
  6
CONTINUOUS
 10
4.277680
 20
2.171400
  0
VERTEX
  8
0
  6
CONTINUOUS
 10
4.326520
 20
2.280960
  0
SEQEND
  8
0
  0
SOLID
  8
0
 62
    15
 10
4.277680
 20
2.171400
 11
4.935920
 21
1.805320
 12
4.222680
 22
2.067560
 13
4.880920
 23
1.701480
  0
POLYLINE
  8
0
  6
CONTINUOUS
 66
     1
 40
0.000000
 41
0.000000
  0
VERTEX
  8
0
  6
CONTINUOUS
 10
4.277680
 20
2.171400
  0
VERTEX
  8
0
  6
CONTINUOUS
 10
4.935920
 20
1.805320
  0
VERTEX
  8
0
  6
CONTINUOUS
 10
4.880920
 20
1.701480
  0
VERTEX
  8
0
  6
CONTINUOUS
 10
4.222680
 20
2.067560
  0
VERTEX
  8
0
  6
CONTINUOUS
 10
4.277680
 20
2.171400
  0
SEQEND
  8
0
  0
SOLID
  8
0
 62
    15
 10
4.222680
 20
2.067560
 11
4.880920
 21
1.701480
 12
4.157560
 22
1.971200
 13
4.816240
 23
1.605120
  0
POLYLINE
  8
0
  6
CONTINUOUS
 66
     1
 40
0.000000
 41
0.000000
  0
VERTEX
  8
0
  6
CONTINUOUS
 10
4.222680
 20
2.067560
  0
VERTEX
  8
0
  6
CONTINUOUS
 10
4.880920
 20
1.701480
  0
VERTEX
  8
0
  6
CONTINUOUS
 10
4.816240
 20
1.605120
  0
VERTEX
  8
0
  6
CONTINUOUS
 10
4.157560
 20
1.971200
  0
VERTEX
  8
0
  6
CONTINUOUS
 10
4.222680
 20
2.067560
  0
SEQEND
  8
0
  0
SOLID
  8
0
 62
    15
 10
4.157560
 20
1.971200
 11
4.816240
 21
1.605120
 12
4.079240
 22
1.884520
 13
4.737480
 23
1.518440
  0
POLYLINE
  8
0
  6
CONTINUOUS
 66
     1
 40
0.000000
 41
0.000000
  0
VERTEX
  8
0
  6
CONTINUOUS
 10
4.157560
 20
1.971200
  0
VERTEX
  8
0
  6
CONTINUOUS
 10
4.816240
 20
1.605120
  0
VERTEX
  8
0
  6
CONTINUOUS
 10
4.737480
 20
1.518440
  0
VERTEX
  8
0
  6
CONTINUOUS
 10
4.079240
 20
1.884520
  0
VERTEX
  8
0
  6
CONTINUOUS
 10
4.157560
 20
1.971200
  0
SEQEND
  8
0
  0
SOLID
  8
0
 62
    15
 10
5.087720
 20
3.849560
 11
5.745960
 21
3.483480
 12
5.093880
 22
3.177680
 13
5.752560
 23
2.811160
  0
POLYLINE
  8
0
  6
CONTINUOUS
 66
     1
 40
0.000000
 41
0.000000
  0
VERTEX
  8
0
  6
CONTINUOUS
 10
5.087720
 20
3.849560
  0
VERTEX
  8
0
  6
CONTINUOUS
 10
5.745960
 20
3.483480
  0
VERTEX
  8
0
  6
CONTINUOUS
 10
5.752560
 20
2.811160
  0
VERTEX
  8
0
  6
CONTINUOUS
 10
5.093880
 20
3.177680
  0
VERTEX
  8
0
  6
CONTINUOUS
 10
5.087720
 20
3.849560
  0
SEQEND
  8
0
  0
SOLID
  8
0
 62
    15
 10
3.983320
 20
1.809720
 11
4.642000
 21
1.443640
 12
3.866720
 22
1.749000
 13
4.524960
 23
1.382480
  0
POLYLINE
  8
0
  6
CONTINUOUS
 66
     1
 40
0.000000
 41
0.000000
  0
VERTEX
  8
0
  6
CONTINUOUS
 10
3.983320
 20
1.809720
  0
VERTEX
  8
0
  6
CONTINUOUS
 10
4.642000
 20
1.443640
  0
VERTEX
  8
0
  6
CONTINUOUS
 10
4.524960
 20
1.382480
  0
VERTEX
  8
0
  6
CONTINUOUS
 10
3.866720
 20
1.749000
  0
VERTEX
  8
0
  6
CONTINUOUS
 10
3.983320
 20
1.809720
  0
SEQEND
  8
0
  0
SOLID
  8
0
 62
    15
 10
3.866720
 20
1.749000
 11
4.524960
 21
1.382480
 12
3.725040
 22
1.703680
 13
4.383720
 23
1.337160
  0
POLYLINE
  8
0
  6
CONTINUOUS
 66
     1
 40
0.000000
 41
0.000000
  0
VERTEX
  8
0
  6
CONTINUOUS
 10
3.866720
 20
1.749000
  0
VERTEX
  8
0
  6
CONTINUOUS
 10
4.524960
 20
1.382480
  0
VERTEX
  8
0
  6
CONTINUOUS
 10
4.383720
 20
1.337160
  0
VERTEX
  8
0
  6
CONTINUOUS
 10
3.725040
 20
1.703680
  0
VERTEX
  8
0
  6
CONTINUOUS
 10
3.866720
 20
1.749000
  0
SEQEND
  8
0
  0
SOLID
  8
0
 62
    15
 10
3.725040
 20
1.703680
 11
4.383720
 21
1.337160
 12
3.723720
 22
1.701480
 13
4.381960
 23
1.335400
  0
POLYLINE
  8
0
  6
CONTINUOUS
 66
     1
 40
0.000000
 41
0.000000
  0
VERTEX
  8
0
  6
CONTINUOUS
 10
3.725040
 20
1.703680
  0
VERTEX
  8
0
  6
CONTINUOUS
 10
4.383720
 20
1.337160
  0
VERTEX
  8
0
  6
CONTINUOUS
 10
4.381960
 20
1.335400
  0
VERTEX
  8
0
  6
CONTINUOUS
 10
3.723720
 20
1.701480
  0
VERTEX
  8
0
  6
CONTINUOUS
 10
3.725040
 20
1.703680
  0
SEQEND
  8
0
  0
SOLID
  8
0
 62
    15
 10
3.723720
 20
1.701480
 11
4.381960
 21
1.335400
 12
3.715360
 22
1.369280
 13
4.374040
 23
1.003200
  0
POLYLINE
  8
0
  6
CONTINUOUS
 66
     1
 40
0.000000
 41
0.000000
  0
VERTEX
  8
0
  6
CONTINUOUS
 10
3.723720
 20
1.701480
  0
VERTEX
  8
0
  6
CONTINUOUS
 10
4.381960
 20
1.335400
  0
VERTEX
  8
0
  6
CONTINUOUS
 10
4.374040
 20
1.003200
  0
VERTEX
  8
0
  6
CONTINUOUS
 10
3.715360
 20
1.369280
  0
VERTEX
  8
0
  6
CONTINUOUS
 10
3.723720
 20
1.701480
  0
SEQEND
  8
0
  0
SOLID
  8
0
 62
    15
 10
3.715360
 20
1.369280
 11
4.374040
 21
1.003200
 12
3.714480
 22
1.368400
 13
4.373160
 23
1.001880
  0
POLYLINE
  8
0
  6
CONTINUOUS
 66
     1
 40
0.000000
 41
0.000000
  0
VERTEX
  8
0
  6
CONTINUOUS
 10
3.715360
 20
1.369280
  0
VERTEX
  8
0
  6
CONTINUOUS
 10
4.374040
 20
1.003200
  0
VERTEX
  8
0
  6
CONTINUOUS
 10
4.373160
 20
1.001880
  0
VERTEX
  8
0
  6
CONTINUOUS
 10
3.714480
 20
1.368400
  0
VERTEX
  8
0
  6
CONTINUOUS
 10
3.715360
 20
1.369280
  0
SEQEND
  8
0
  0
SOLID
  8
0
 62
    15
 10
3.714480
 20
1.368400
 11
4.373160
 21
1.001880
 12
3.630440
 22
1.343320
 13
4.289120
 23
0.976800
  0
POLYLINE
  8
0
  6
CONTINUOUS
 66
     1
 40
0.000000
 41
0.000000
  0
VERTEX
  8
0
  6
CONTINUOUS
 10
3.714480
 20
1.368400
  0
VERTEX
  8
0
  6
CONTINUOUS
 10
4.373160
 20
1.001880
  0
VERTEX
  8
0
  6
CONTINUOUS
 10
4.289120
 20
0.976800
  0
VERTEX
  8
0
  6
CONTINUOUS
 10
3.630440
 20
1.343320
  0
VERTEX
  8
0
  6
CONTINUOUS
 10
3.714480
 20
1.368400
  0
SEQEND
  8
0
  0
SOLID
  8
0
 62
    15
 10
3.630440
 20
1.343320
 11
4.289120
 21
0.976800
 12
3.552560
 22
1.307680
 13
4.211240
 23
0.941160
  0
POLYLINE
  8
0
  6
CONTINUOUS
 66
     1
 40
0.000000
 41
0.000000
  0
VERTEX
  8
0
  6
CONTINUOUS
 10
3.630440
 20
1.343320
  0
VERTEX
  8
0
  6
CONTINUOUS
 10
4.289120
 20
0.976800
  0
VERTEX
  8
0
  6
CONTINUOUS
 10
4.211240
 20
0.941160
  0
VERTEX
  8
0
  6
CONTINUOUS
 10
3.552560
 20
1.307680
  0
VERTEX
  8
0
  6
CONTINUOUS
 10
3.630440
 20
1.343320
  0
SEQEND
  8
0
  0
SOLID
  8
0
 62
    15
 10
3.552560
 20
1.307680
 11
4.211240
 21
0.941160
 12
3.482160
 22
1.261040
 13
4.140400
 23
0.894520
  0
POLYLINE
  8
0
  6
CONTINUOUS
 66
     1
 40
0.000000
 41
0.000000
  0
VERTEX
  8
0
  6
CONTINUOUS
 10
3.552560
 20
1.307680
  0
VERTEX
  8
0
  6
CONTINUOUS
 10
4.211240
 20
0.941160
  0
VERTEX
  8
0
  6
CONTINUOUS
 10
4.140400
 20
0.894520
  0
VERTEX
  8
0
  6
CONTINUOUS
 10
3.482160
 20
1.261040
  0
VERTEX
  8
0
  6
CONTINUOUS
 10
3.552560
 20
1.307680
  0
SEQEND
  8
0
  0
SOLID
  8
0
 62
    15
 10
3.482160
 20
1.261040
 11
4.140400
 21
0.894520
 12
3.420120
 22
1.202960
 13
4.078800
 23
0.836440
  0
POLYLINE
  8
0
  6
CONTINUOUS
 66
     1
 40
0.000000
 41
0.000000
  0
VERTEX
  8
0
  6
CONTINUOUS
 10
3.482160
 20
1.261040
  0
VERTEX
  8
0
  6
CONTINUOUS
 10
4.140400
 20
0.894520
  0
VERTEX
  8
0
  6
CONTINUOUS
 10
4.078800
 20
0.836440
  0
VERTEX
  8
0
  6
CONTINUOUS
 10
3.420120
 20
1.202960
  0
VERTEX
  8
0
  6
CONTINUOUS
 10
3.482160
 20
1.261040
  0
SEQEND
  8
0
  0
SOLID
  8
0
 62
    15
 10
3.420120
 20
1.202960
 11
4.078800
 21
0.836440
 12
3.368640
 22
1.132560
 13
4.026880
 23
0.766480
  0
POLYLINE
  8
0
  6
CONTINUOUS
 66
     1
 40
0.000000
 41
0.000000
  0
VERTEX
  8
0
  6
CONTINUOUS
 10
3.420120
 20
1.202960
  0
VERTEX
  8
0
  6
CONTINUOUS
 10
4.078800
 20
0.836440
  0
VERTEX
  8
0
  6
CONTINUOUS
 10
4.026880
 20
0.766480
  0
VERTEX
  8
0
  6
CONTINUOUS
 10
3.368640
 20
1.132560
  0
VERTEX
  8
0
  6
CONTINUOUS
 10
3.420120
 20
1.202960
  0
SEQEND
  8
0
  0
SOLID
  8
0
 62
    15
 10
3.368640
 20
1.132560
 11
4.026880
 21
0.766480
 12
3.328160
 22
1.049840
 13
3.986400
 23
0.683760
  0
POLYLINE
  8
0
  6
CONTINUOUS
 66
     1
 40
0.000000
 41
0.000000
  0
VERTEX
  8
0
  6
CONTINUOUS
 10
3.368640
 20
1.132560
  0
VERTEX
  8
0
  6
CONTINUOUS
 10
4.026880
 20
0.766480
  0
VERTEX
  8
0
  6
CONTINUOUS
 10
3.986400
 20
0.683760
  0
VERTEX
  8
0
  6
CONTINUOUS
 10
3.328160
 20
1.049840
  0
VERTEX
  8
0
  6
CONTINUOUS
 10
3.368640
 20
1.132560
  0
SEQEND
  8
0
  0
SOLID
  8
0
 62
    15
 10
3.328160
 20
1.049840
 11
3.986400
 21
0.683760
 12
3.300440
 22
0.954360
 13
3.958680
 23
0.588280
  0
POLYLINE
  8
0
  6
CONTINUOUS
 66
     1
 40
0.000000
 41
0.000000
  0
VERTEX
  8
0
  6
CONTINUOUS
 10
3.328160
 20
1.049840
  0
VERTEX
  8
0
  6
CONTINUOUS
 10
3.986400
 20
0.683760
  0
VERTEX
  8
0
  6
CONTINUOUS
 10
3.958680
 20
0.588280
  0
VERTEX
  8
0
  6
CONTINUOUS
 10
3.300440
 20
0.954360
  0
VERTEX
  8
0
  6
CONTINUOUS
 10
3.328160
 20
1.049840
  0
SEQEND
  8
0
  0
SOLID
  8
0
 62
    15
 10
3.300440
 20
0.954360
 11
3.958680
 21
0.588280
 12
3.286360
 22
0.845240
 13
3.944600
 23
0.478720
  0
POLYLINE
  8
0
  6
CONTINUOUS
 66
     1
 40
0.000000
 41
0.000000
  0
VERTEX
  8
0
  6
CONTINUOUS
 10
3.300440
 20
0.954360
  0
VERTEX
  8
0
  6
CONTINUOUS
 10
3.958680
 20
0.588280
  0
VERTEX
  8
0
  6
CONTINUOUS
 10
3.944600
 20
0.478720
  0
VERTEX
  8
0
  6
CONTINUOUS
 10
3.286360
 20
0.845240
  0
VERTEX
  8
0
  6
CONTINUOUS
 10
3.300440
 20
0.954360
  0
SEQEND
  8
0
  0
SOLID
  8
0
 62
    15
 10
3.286360
 20
0.845240
 11
3.944600
 21
0.478720
 12
3.284600
 22
0.843040
 13
3.943280
 23
0.476960
  0
POLYLINE
  8
0
  6
CONTINUOUS
 66
     1
 40
0.000000
 41
0.000000
  0
VERTEX
  8
0
  6
CONTINUOUS
 10
3.286360
 20
0.845240
  0
VERTEX
  8
0
  6
CONTINUOUS
 10
3.944600
 20
0.478720
  0
VERTEX
  8
0
  6
CONTINUOUS
 10
3.943280
 20
0.476960
  0
VERTEX
  8
0
  6
CONTINUOUS
 10
3.284600
 20
0.843040
  0
VERTEX
  8
0
  6
CONTINUOUS
 10
3.286360
 20
0.845240
  0
SEQEND
  8
0
  0
SOLID
  8
0
 62
    15
 10
3.284600
 20
0.843040
 11
3.943280
 21
0.476960
 12
3.087480
 22
0.849640
 13
3.745720
 23
0.483560
  0
POLYLINE
  8
0
  6
CONTINUOUS
 66
     1
 40
0.000000
 41
0.000000
  0
VERTEX
  8
0
  6
CONTINUOUS
 10
3.284600
 20
0.843040
  0
VERTEX
  8
0
  6
CONTINUOUS
 10
3.943280
 20
0.476960
  0
VERTEX
  8
0
  6
CONTINUOUS
 10
3.745720
 20
0.483560
  0
VERTEX
  8
0
  6
CONTINUOUS
 10
3.087480
 20
0.849640
  0
VERTEX
  8
0
  6
CONTINUOUS
 10
3.284600
 20
0.843040
  0
SEQEND
  8
0
  0
POLYLINE
  8
0
  6
CONTINUOUS
 66
     1
 40
0.000000
 41
0.000000
  0
VERTEX
  8
0
  6
CONTINUOUS
 10
5.087720
 20
3.849560
  0
VERTEX
  8
0
  6
CONTINUOUS
 10
5.093880
 20
3.177680
  0
VERTEX
  8
0
  6
CONTINUOUS
 10
5.093440
 20
3.176360
  0
VERTEX
  8
0
  6
CONTINUOUS
 10
4.934600
 20
3.109480
  0
VERTEX
  8
0
  6
CONTINUOUS
 10
4.803040
 20
3.029840
  0
VERTEX
  8
0
  6
CONTINUOUS
 10
4.694360
 20
2.938760
  0
VERTEX
  8
0
  6
CONTINUOUS
 10
4.605920
 20
2.839320
  0
VERTEX
  8
0
  6
CONTINUOUS
 10
4.532880
 20
2.732840
  0
VERTEX
  8
0
  6
CONTINUOUS
 10
4.472160
 20
2.621960
  0
VERTEX
  8
0
  6
CONTINUOUS
 10
4.372720
 20
2.393600
  0
VERTEX
  8
0
  6
CONTINUOUS
 10
4.349400
 20
2.336840
  0
VERTEX
  8
0
  6
CONTINUOUS
 10
4.326520
 20
2.280960
  0
VERTEX
  8
0
  6
CONTINUOUS
 10
4.277680
 20
2.171400
  0
VERTEX
  8
0
  6
CONTINUOUS
 10
4.222680
 20
2.067560
  0
VERTEX
  8
0
  6
CONTINUOUS
 10
4.157560
 20
1.971200
  0
VERTEX
  8
0
  6
CONTINUOUS
 10
4.079240
 20
1.884520
  0
VERTEX
  8
0
  6
CONTINUOUS
 10
3.983320
 20
1.809720
  0
VERTEX
  8
0
  6
CONTINUOUS
 10
3.866720
 20
1.749000
  0
VERTEX
  8
0
  6
CONTINUOUS
 10
3.725040
 20
1.703680
  0
VERTEX
  8
0
  6
CONTINUOUS
 10
3.723720
 20
1.701480
  0
VERTEX
  8
0
  6
CONTINUOUS
 10
3.715360
 20
1.369280
  0
VERTEX
  8
0
  6
CONTINUOUS
 10
3.714480
 20
1.368400
  0
VERTEX
  8
0
  6
CONTINUOUS
 10
3.630440
 20
1.343320
  0
VERTEX
  8
0
  6
CONTINUOUS
 10
3.552560
 20
1.307680
  0
VERTEX
  8
0
  6
CONTINUOUS
 10
3.482160
 20
1.261040
  0
VERTEX
  8
0
  6
CONTINUOUS
 10
3.420120
 20
1.202960
  0
VERTEX
  8
0
  6
CONTINUOUS
 10
3.368640
 20
1.132560
  0
VERTEX
  8
0
  6
CONTINUOUS
 10
3.328160
 20
1.049840
  0
VERTEX
  8
0
  6
CONTINUOUS
 10
3.300440
 20
0.954360
  0
VERTEX
  8
0
  6
CONTINUOUS
 10
3.286360
 20
0.845240
  0
VERTEX
  8
0
  6
CONTINUOUS
 10
3.284600
 20
0.843040
  0
VERTEX
  8
0
  6
CONTINUOUS
 10
3.087480
 20
0.849640
  0
VERTEX
  8
0
  6
CONTINUOUS
 10
3.087040
 20
1.551000
  0
VERTEX
  8
0
  6
CONTINUOUS
 10
4.904240
 20
3.843400
  0
VERTEX
  8
0
  6
CONTINUOUS
 10
5.085960
 20
3.847360
  0
VERTEX
  8
0
  6
CONTINUOUS
 10
5.087720
 20
3.849560
  0
SEQEND
  8
0
  0
TEXT
  8
0
 10
4.396040
 20
0.675400
 40
0.138162
  1
BA  186
 41
1.000000
  7
SN0
 71
     0
 72
     5
 11
4.986393
 21
0.675400
  0
TEXT
  8
0
 10
4.147880
 20
0.483560
 40
0.138162
  1
9/16" x 3-9/16"
 41
1.000000
  7
SN0
 71
     0
 72
     5
 11
5.233367
 21
0.483560
  0
TEXT
  8
0
 10
7.589120
 20
4.838240
 40
0.138162
  1
crown
 41
1.000000
  7
SN0
 71
     0
 72
     5
 11
8.032021
 21
4.838240
  0
TEXT
  8
0
 10
7.671840
 20
4.646840
 40
0.138162
  1
186
 41
1.000000
  7
SN0
 71
     0
 72
     5
 11
7.948789
 21
4.646840
  0
ENDSEC
  0
EOF
