  0
SECTION
  2
HEADER
  9
$ACADVER
  1
AC1006
  9
$EXTMIN
 10
1.936655
 20
0.371133
  9
$EXTMAX
 10
19.658267
 20
7.167117
  9
$LTSCALE
 40
0.078630
  9
$PDMODE
 70
    35
  9
$PDSIZE
 40
0.062904
  0
ENDSEC
  0
SECTION
  2
TABLES
  0
TABLE
  2
LTYPE
 70
     9
  0
LTYPE
  2
CONTINUOUS
 70
    64
  3
Solid line
 72
    65
 73
     0
 40
0.000000
  0
LTYPE
  2
DASHED
 70
    64
  3
__ __ __ __ __ __ __ __ __ __ __ __ __ __ __
 72
    65
 73
     2
 40
0.000590
 49
0.000393
 49
-0.000197
  0
LTYPE
  2
HIDDEN
 70
    64
  3
 _ _ _ _ _ _ _ _ _ _ _ _ _ _ _ _ _ _ _ _ _ _
 72
    65
 73
     2
 40
0.000295
 49
0.000197
 49
-0.000098
  0
LTYPE
  2
CENTER
 70
    64
  3
____ _ ____ _ ____ _ ____ _ ____ _ ____ _ ____
 72
    65
 73
     4
 40
0.001573
 49
0.000983
 49
-0.000197
 49
0.000197
 49
-0.000197
  0
LTYPE
  2
PHANTOM
 70
    64
  3
_____ _ _ _____ _ _ _____ _ _ _____ _ _ ____
 72
    65
 73
     6
 40
0.001966
 49
0.000983
 49
-0.000197
 49
0.000197
 49
-0.000197
 49
0.000197
 49
-0.000197
  0
LTYPE
  2
DOT
 70
    64
  3
...............................................
 72
    65
 73
     2
 40
0.000197
 49
0.000000
 49
-0.000197
  0
LTYPE
  2
DASHDOT
 70
    64
  3
__ . __ . __ . __ . __ . __ . __ . __ . __ . __
 72
    65
 73
     4
 40
0.000786
 49
0.000393
 49
-0.000197
 49
0.000000
 49
-0.000197
  0
LTYPE
  2
BORDER
 70
    64
  3
__ __ . __ __ . __ __ . __ __ . __ __ . __ __
 72
    65
 73
     6
 40
0.001376
 49
0.000393
 49
-0.000197
 49
0.000393
 49
-0.000197
 49
0.000000
 49
-0.000197
  0
LTYPE
  2
DIVIDE
 70
    64
  3
__ . . __ . . __ . . __ . . __ . . __ . . __
 72
    65
 73
     6
 40
0.000983
 49
0.000393
 49
-0.000197
 49
0.000000
 49
-0.000197
 49
0.000000
 49
-0.000197
  0
LTYPE
  2
DOTDOT
 70
    64
  3
 . .  . .  . .  . .  . .  . . 
 72
    65
 73
     5
 40
0.000432
 49
-0.000197
 49
0.000000
 49
-0.000197
 49
0.000000
 49
-0.000197
  0
ENDTAB
  0
TABLE
  2
STYLE
 70
     4
  0
STYLE
 70
     0
  2
SN0
 40
0.000000
 41
0.000786
 50
0.000000
 71
     0
 42
0.000000
  3
ROMAND
  0
STYLE
 70
    68
  2
SV0
 40
0.000000
 41
0.000786
 50
0.000000
 71
     0
 42
0.000000
  3
ROMAND
  0
STYLE
 70
     0
  2
SN1
 40
0.000000
 41
0.000786
 50
0.000000
 71
     0
 42
0.000000
  3
ROMAND
  0
STYLE
 70
    68
  2
SV1
 40
0.000000
 41
0.000786
 50
0.000000
 71
     0
 42
0.000000
  3
ROMAND
  0
ENDTAB
  0
TABLE
  2
LAYER
 70
     3
  0
LAYER
  2
FOREGROUND
 70
    64
 62
     7
  6
CONTINUOUS
  0
LAYER
  2
BACKGROUND
 70
    65
 62
    -7
  6
CONTINUOUS
  0
LAYER
  2
0
 70
    64
 62
     7
  6
CONTINUOUS
  0
ENDTAB
  0
ENDSEC
  0
SECTION
  2
ENTITIES
  0
POLYLINE
  8
FOREGROUND
  6
CONTINUOUS
 66
     1
 40
0.000000
 41
0.000000
  0
VERTEX
  8
FOREGROUND
  6
CONTINUOUS
 10
0.000000
 20
7.538251
  0
VERTEX
  8
FOREGROUND
  6
CONTINUOUS
 10
8.499894
 20
7.538251
  0
VERTEX
  8
FOREGROUND
  6
CONTINUOUS
 10
8.499894
 20
-3.462075
  0
VERTEX
  8
FOREGROUND
  6
CONTINUOUS
 10
0.000000
 20
-3.462075
  0
VERTEX
  8
FOREGROUND
  6
CONTINUOUS
 10
0.000000
 20
7.538251
  0
SEQEND
  8
0
  0
POLYLINE
  8
FOREGROUND
  6
CONTINUOUS
 66
     1
 40
0.000000
 41
0.000000
  0
VERTEX
  8
FOREGROUND
  6
CONTINUOUS
 10
0.000000
 20
7.538251
  0
VERTEX
  8
FOREGROUND
  6
CONTINUOUS
 10
8.499894
 20
7.538251
  0
VERTEX
  8
FOREGROUND
  6
CONTINUOUS
 10
8.499894
 20
-3.462075
  0
VERTEX
  8
FOREGROUND
  6
CONTINUOUS
 10
0.000000
 20
-3.462075
  0
VERTEX
  8
FOREGROUND
  6
CONTINUOUS
 10
0.000000
 20
7.538251
  0
SEQEND
  8
0
  0
POLYLINE
  8
0
  6
CONTINUOUS
 66
     1
 40
0.014153
 41
0.014153
  0
VERTEX
  8
0
  6
CONTINUOUS
 10
6.928082
 20
6.049786
  0
VERTEX
  8
0
  6
CONTINUOUS
 10
1.945304
 20
6.049786
  0
VERTEX
  8
0
  6
CONTINUOUS
 10
1.945304
 20
6.954817
  0
VERTEX
  8
0
  6
CONTINUOUS
 10
2.792935
 20
6.954817
  0
VERTEX
  8
0
  6
CONTINUOUS
 10
2.866061
 20
6.910784
  0
VERTEX
  8
0
  6
CONTINUOUS
 10
2.950981
 20
6.873828
  0
VERTEX
  8
0
  6
CONTINUOUS
 10
3.047696
 20
6.841589
  0
VERTEX
  8
0
  6
CONTINUOUS
 10
3.153846
 20
6.816428
  0
VERTEX
  8
0
  6
CONTINUOUS
 10
3.267073
 20
6.799916
  0
VERTEX
  8
0
  6
CONTINUOUS
 10
3.344917
 20
6.793625
  0
VERTEX
  8
0
  6
CONTINUOUS
 10
3.423547
 20
6.792839
  0
VERTEX
  8
0
  6
CONTINUOUS
 10
3.502963
 20
6.796770
  0
VERTEX
  8
0
  6
CONTINUOUS
 10
3.581593
 20
6.806206
  0
VERTEX
  8
0
  6
CONTINUOUS
 10
3.659437
 20
6.821932
  0
VERTEX
  8
0
  6
CONTINUOUS
 10
3.734921
 20
6.843948
  0
VERTEX
  8
0
  6
CONTINUOUS
 10
3.807261
 20
6.872255
  0
VERTEX
  8
0
  6
CONTINUOUS
 10
3.875669
 20
6.908425
  0
VERTEX
  8
0
  6
CONTINUOUS
 10
3.908693
 20
6.929655
  0
VERTEX
  8
0
  6
CONTINUOUS
 10
3.966880
 20
6.893485
  0
VERTEX
  8
0
  6
CONTINUOUS
 10
4.054945
 20
6.851025
  0
VERTEX
  8
0
  6
CONTINUOUS
 10
4.117849
 20
6.826650
  0
VERTEX
  8
0
  6
CONTINUOUS
 10
4.218495
 20
6.798343
  0
VERTEX
  8
0
  6
CONTINUOUS
 10
4.288476
 20
6.784190
  0
VERTEX
  8
0
  6
CONTINUOUS
 10
4.360029
 20
6.773968
  0
VERTEX
  8
0
  6
CONTINUOUS
 10
4.433941
 20
6.768464
  0
VERTEX
  8
0
  6
CONTINUOUS
 10
4.507853
 20
6.768464
  0
VERTEX
  8
0
  6
CONTINUOUS
 10
4.583338
 20
6.773181
  0
VERTEX
  8
0
  6
CONTINUOUS
 10
4.658037
 20
6.783403
  0
VERTEX
  8
0
  6
CONTINUOUS
 10
4.770477
 20
6.808565
  0
VERTEX
  8
0
  6
CONTINUOUS
 10
4.880559
 20
6.847880
  0
VERTEX
  8
0
  6
CONTINUOUS
 10
4.952112
 20
6.881691
  0
VERTEX
  8
0
  6
CONTINUOUS
 10
5.023666
 20
6.922578
  0
VERTEX
  8
0
  6
CONTINUOUS
 10
5.112517
 20
6.869896
  0
VERTEX
  8
0
  6
CONTINUOUS
 10
5.174635
 20
6.840017
  0
VERTEX
  8
0
  6
CONTINUOUS
 10
5.269777
 20
6.804633
  0
VERTEX
  8
0
  6
CONTINUOUS
 10
5.368851
 20
6.780258
  0
VERTEX
  8
0
  6
CONTINUOUS
 10
5.402662
 20
6.773968
  0
VERTEX
  8
0
  6
CONTINUOUS
 10
5.470284
 20
6.766105
  0
VERTEX
  8
0
  6
CONTINUOUS
 10
5.539478
 20
6.762960
  0
VERTEX
  8
0
  6
CONTINUOUS
 10
5.643269
 20
6.767677
  0
VERTEX
  8
0
  6
CONTINUOUS
 10
5.713250
 20
6.777113
  0
VERTEX
  8
0
  6
CONTINUOUS
 10
5.817828
 20
6.800702
  0
VERTEX
  8
0
  6
CONTINUOUS
 10
5.921619
 20
6.836085
  0
VERTEX
  8
0
  6
CONTINUOUS
 10
6.023838
 20
6.882477
  0
VERTEX
  8
0
  6
CONTINUOUS
 10
6.093033
 20
6.920219
  0
VERTEX
  8
0
  6
CONTINUOUS
 10
6.928869
 20
6.920219
  0
VERTEX
  8
0
  6
CONTINUOUS
 10
6.928869
 20
6.056077
  0
VERTEX
  8
0
  6
CONTINUOUS
 10
6.927296
 20
6.046641
  0
VERTEX
  8
0
  6
CONTINUOUS
 10
6.928082
 20
6.049786
  0
SEQEND
  8
0
  0
TEXT
  8
0
 10
19.626028
 20
0.377424
 40
0.010560
  1
B242
 41
1.000000
  7
SN0
 71
     0
 72
     5
 11
19.652611
 21
0.377424
  0
SOLID
  8
0
 62
    15
 10
4.509426
 20
4.722513
 11
4.509426
 21
5.442763
 12
4.583338
 22
4.722513
 13
4.583338
 23
5.441977
  0
POLYLINE
  8
0
  6
CONTINUOUS
 66
     1
 40
0.000000
 41
0.000000
  0
VERTEX
  8
0
  6
CONTINUOUS
 10
4.509426
 20
4.722513
  0
VERTEX
  8
0
  6
CONTINUOUS
 10
4.509426
 20
5.442763
  0
VERTEX
  8
0
  6
CONTINUOUS
 10
4.583338
 20
5.441977
  0
VERTEX
  8
0
  6
CONTINUOUS
 10
4.583338
 20
4.722513
  0
VERTEX
  8
0
  6
CONTINUOUS
 10
4.509426
 20
4.722513
  0
SEQEND
  8
0
  0
SOLID
  8
0
 62
    15
 10
2.867633
 20
4.908866
 11
2.867633
 21
5.628330
 12
2.872351
 22
4.906507
 13
2.872351
 23
5.625971
  0
POLYLINE
  8
0
  6
CONTINUOUS
 66
     1
 40
0.000000
 41
0.000000
  0
VERTEX
  8
0
  6
CONTINUOUS
 10
2.867633
 20
4.908866
  0
VERTEX
  8
0
  6
CONTINUOUS
 10
2.867633
 20
5.628330
  0
VERTEX
  8
0
  6
CONTINUOUS
 10
2.872351
 20
5.625971
  0
VERTEX
  8
0
  6
CONTINUOUS
 10
2.872351
 20
4.906507
  0
VERTEX
  8
0
  6
CONTINUOUS
 10
2.867633
 20
4.908866
  0
SEQEND
  8
0
  0
SOLID
  8
0
 62
    15
 10
2.872351
 20
4.906507
 11
2.872351
 21
5.625971
 12
2.916384
 22
4.878200
 13
2.916384
 23
5.598450
  0
POLYLINE
  8
0
  6
CONTINUOUS
 66
     1
 40
0.000000
 41
0.000000
  0
VERTEX
  8
0
  6
CONTINUOUS
 10
2.872351
 20
4.906507
  0
VERTEX
  8
0
  6
CONTINUOUS
 10
2.872351
 20
5.625971
  0
VERTEX
  8
0
  6
CONTINUOUS
 10
2.916384
 20
5.598450
  0
VERTEX
  8
0
  6
CONTINUOUS
 10
2.916384
 20
4.878200
  0
VERTEX
  8
0
  6
CONTINUOUS
 10
2.872351
 20
4.906507
  0
SEQEND
  8
0
  0
SOLID
  8
0
 62
    15
 10
2.916384
 20
4.878200
 11
2.916384
 21
5.598450
 12
2.968280
 22
4.852252
 13
2.968280
 23
5.571716
  0
POLYLINE
  8
0
  6
CONTINUOUS
 66
     1
 40
0.000000
 41
0.000000
  0
VERTEX
  8
0
  6
CONTINUOUS
 10
2.916384
 20
4.878200
  0
VERTEX
  8
0
  6
CONTINUOUS
 10
2.916384
 20
5.598450
  0
VERTEX
  8
0
  6
CONTINUOUS
 10
2.968280
 20
5.571716
  0
VERTEX
  8
0
  6
CONTINUOUS
 10
2.968280
 20
4.852252
  0
VERTEX
  8
0
  6
CONTINUOUS
 10
2.916384
 20
4.878200
  0
SEQEND
  8
0
  0
SOLID
  8
0
 62
    15
 10
2.968280
 20
4.852252
 11
2.968280
 21
5.571716
 12
3.025679
 22
4.827877
 13
3.025679
 23
5.547341
  0
POLYLINE
  8
0
  6
CONTINUOUS
 66
     1
 40
0.000000
 41
0.000000
  0
VERTEX
  8
0
  6
CONTINUOUS
 10
2.968280
 20
4.852252
  0
VERTEX
  8
0
  6
CONTINUOUS
 10
2.968280
 20
5.571716
  0
VERTEX
  8
0
  6
CONTINUOUS
 10
3.025679
 20
5.547341
  0
VERTEX
  8
0
  6
CONTINUOUS
 10
3.025679
 20
4.827877
  0
VERTEX
  8
0
  6
CONTINUOUS
 10
2.968280
 20
4.852252
  0
SEQEND
  8
0
  0
SOLID
  8
0
 62
    15
 10
3.025679
 20
4.827877
 11
3.025679
 21
5.547341
 12
3.089370
 22
4.805861
 13
3.089370
 23
5.525325
  0
POLYLINE
  8
0
  6
CONTINUOUS
 66
     1
 40
0.000000
 41
0.000000
  0
VERTEX
  8
0
  6
CONTINUOUS
 10
3.025679
 20
4.827877
  0
VERTEX
  8
0
  6
CONTINUOUS
 10
3.025679
 20
5.547341
  0
VERTEX
  8
0
  6
CONTINUOUS
 10
3.089370
 20
5.525325
  0
VERTEX
  8
0
  6
CONTINUOUS
 10
3.089370
 20
4.805861
  0
VERTEX
  8
0
  6
CONTINUOUS
 10
3.025679
 20
4.827877
  0
SEQEND
  8
0
  0
SOLID
  8
0
 62
    15
 10
3.089370
 20
4.805861
 11
3.089370
 21
5.525325
 12
3.156991
 22
4.786990
 13
3.156991
 23
5.506453
  0
POLYLINE
  8
0
  6
CONTINUOUS
 66
     1
 40
0.000000
 41
0.000000
  0
VERTEX
  8
0
  6
CONTINUOUS
 10
3.089370
 20
4.805861
  0
VERTEX
  8
0
  6
CONTINUOUS
 10
3.089370
 20
5.525325
  0
VERTEX
  8
0
  6
CONTINUOUS
 10
3.156991
 20
5.506453
  0
VERTEX
  8
0
  6
CONTINUOUS
 10
3.156991
 20
4.786990
  0
VERTEX
  8
0
  6
CONTINUOUS
 10
3.089370
 20
4.805861
  0
SEQEND
  8
0
  0
SOLID
  8
0
 62
    15
 10
3.156991
 20
4.786990
 11
3.156991
 21
5.506453
 12
3.228545
 22
4.771264
 13
3.228545
 23
5.490727
  0
POLYLINE
  8
0
  6
CONTINUOUS
 66
     1
 40
0.000000
 41
0.000000
  0
VERTEX
  8
0
  6
CONTINUOUS
 10
3.156991
 20
4.786990
  0
VERTEX
  8
0
  6
CONTINUOUS
 10
3.156991
 20
5.506453
  0
VERTEX
  8
0
  6
CONTINUOUS
 10
3.228545
 20
5.490727
  0
VERTEX
  8
0
  6
CONTINUOUS
 10
3.228545
 20
4.771264
  0
VERTEX
  8
0
  6
CONTINUOUS
 10
3.156991
 20
4.786990
  0
SEQEND
  8
0
  0
SOLID
  8
0
 62
    15
 10
3.228545
 20
4.771264
 11
3.228545
 21
5.490727
 12
3.304029
 22
4.758683
 13
3.304029
 23
5.478147
  0
POLYLINE
  8
0
  6
CONTINUOUS
 66
     1
 40
0.000000
 41
0.000000
  0
VERTEX
  8
0
  6
CONTINUOUS
 10
3.228545
 20
4.771264
  0
VERTEX
  8
0
  6
CONTINUOUS
 10
3.228545
 20
5.490727
  0
VERTEX
  8
0
  6
CONTINUOUS
 10
3.304029
 20
5.478147
  0
VERTEX
  8
0
  6
CONTINUOUS
 10
3.304029
 20
4.758683
  0
VERTEX
  8
0
  6
CONTINUOUS
 10
3.228545
 20
4.771264
  0
SEQEND
  8
0
  0
SOLID
  8
0
 62
    15
 10
3.304029
 20
4.758683
 11
3.304029
 21
5.478147
 12
3.381087
 22
4.750820
 13
3.381087
 23
5.470284
  0
POLYLINE
  8
0
  6
CONTINUOUS
 66
     1
 40
0.000000
 41
0.000000
  0
VERTEX
  8
0
  6
CONTINUOUS
 10
3.304029
 20
4.758683
  0
VERTEX
  8
0
  6
CONTINUOUS
 10
3.304029
 20
5.478147
  0
VERTEX
  8
0
  6
CONTINUOUS
 10
3.381087
 20
5.470284
  0
VERTEX
  8
0
  6
CONTINUOUS
 10
3.381087
 20
4.750820
  0
VERTEX
  8
0
  6
CONTINUOUS
 10
3.304029
 20
4.758683
  0
SEQEND
  8
0
  0
SOLID
  8
0
 62
    15
 10
3.381087
 20
4.750820
 11
3.381087
 21
5.470284
 12
3.459717
 22
4.746888
 13
3.459717
 23
5.466352
  0
POLYLINE
  8
0
  6
CONTINUOUS
 66
     1
 40
0.000000
 41
0.000000
  0
VERTEX
  8
0
  6
CONTINUOUS
 10
3.381087
 20
4.750820
  0
VERTEX
  8
0
  6
CONTINUOUS
 10
3.381087
 20
5.470284
  0
VERTEX
  8
0
  6
CONTINUOUS
 10
3.459717
 20
5.466352
  0
VERTEX
  8
0
  6
CONTINUOUS
 10
3.459717
 20
4.746888
  0
VERTEX
  8
0
  6
CONTINUOUS
 10
3.381087
 20
4.750820
  0
SEQEND
  8
0
  0
SOLID
  8
0
 62
    15
 10
3.459717
 20
4.746888
 11
3.459717
 21
5.466352
 12
3.539133
 22
4.748461
 13
3.539133
 23
5.467925
  0
POLYLINE
  8
0
  6
CONTINUOUS
 66
     1
 40
0.000000
 41
0.000000
  0
VERTEX
  8
0
  6
CONTINUOUS
 10
3.459717
 20
4.746888
  0
VERTEX
  8
0
  6
CONTINUOUS
 10
3.459717
 20
5.466352
  0
VERTEX
  8
0
  6
CONTINUOUS
 10
3.539133
 20
5.467925
  0
VERTEX
  8
0
  6
CONTINUOUS
 10
3.539133
 20
4.748461
  0
VERTEX
  8
0
  6
CONTINUOUS
 10
3.459717
 20
4.746888
  0
SEQEND
  8
0
  0
SOLID
  8
0
 62
    15
 10
3.539133
 20
4.748461
 11
3.539133
 21
5.467925
 12
3.617763
 22
4.754751
 13
3.617763
 23
5.475001
  0
POLYLINE
  8
0
  6
CONTINUOUS
 66
     1
 40
0.000000
 41
0.000000
  0
VERTEX
  8
0
  6
CONTINUOUS
 10
3.539133
 20
4.748461
  0
VERTEX
  8
0
  6
CONTINUOUS
 10
3.539133
 20
5.467925
  0
VERTEX
  8
0
  6
CONTINUOUS
 10
3.617763
 20
5.475001
  0
VERTEX
  8
0
  6
CONTINUOUS
 10
3.617763
 20
4.754751
  0
VERTEX
  8
0
  6
CONTINUOUS
 10
3.539133
 20
4.748461
  0
SEQEND
  8
0
  0
SOLID
  8
0
 62
    15
 10
3.617763
 20
4.754751
 11
3.617763
 21
5.475001
 12
3.696393
 22
4.767332
 13
3.696393
 23
5.486796
  0
POLYLINE
  8
0
  6
CONTINUOUS
 66
     1
 40
0.000000
 41
0.000000
  0
VERTEX
  8
0
  6
CONTINUOUS
 10
3.617763
 20
4.754751
  0
VERTEX
  8
0
  6
CONTINUOUS
 10
3.617763
 20
5.475001
  0
VERTEX
  8
0
  6
CONTINUOUS
 10
3.696393
 20
5.486796
  0
VERTEX
  8
0
  6
CONTINUOUS
 10
3.696393
 20
4.767332
  0
VERTEX
  8
0
  6
CONTINUOUS
 10
3.617763
 20
4.754751
  0
SEQEND
  8
0
  0
SOLID
  8
0
 62
    15
 10
3.696393
 20
4.767332
 11
3.696393
 21
5.486796
 12
3.772664
 22
4.786203
 13
3.772664
 23
5.505667
  0
POLYLINE
  8
0
  6
CONTINUOUS
 66
     1
 40
0.000000
 41
0.000000
  0
VERTEX
  8
0
  6
CONTINUOUS
 10
3.696393
 20
4.767332
  0
VERTEX
  8
0
  6
CONTINUOUS
 10
3.696393
 20
5.486796
  0
VERTEX
  8
0
  6
CONTINUOUS
 10
3.772664
 20
5.505667
  0
VERTEX
  8
0
  6
CONTINUOUS
 10
3.772664
 20
4.786203
  0
VERTEX
  8
0
  6
CONTINUOUS
 10
3.696393
 20
4.767332
  0
SEQEND
  8
0
  0
SOLID
  8
0
 62
    15
 10
3.772664
 20
4.786203
 11
3.772664
 21
5.505667
 12
3.846576
 22
4.811365
 13
3.846576
 23
5.530829
  0
POLYLINE
  8
0
  6
CONTINUOUS
 66
     1
 40
0.000000
 41
0.000000
  0
VERTEX
  8
0
  6
CONTINUOUS
 10
3.772664
 20
4.786203
  0
VERTEX
  8
0
  6
CONTINUOUS
 10
3.772664
 20
5.505667
  0
VERTEX
  8
0
  6
CONTINUOUS
 10
3.846576
 20
5.530829
  0
VERTEX
  8
0
  6
CONTINUOUS
 10
3.846576
 20
4.811365
  0
VERTEX
  8
0
  6
CONTINUOUS
 10
3.772664
 20
4.786203
  0
SEQEND
  8
0
  0
SOLID
  8
0
 62
    15
 10
3.846576
 20
4.811365
 11
3.846576
 21
5.530829
 12
3.917343
 22
4.843603
 13
3.917343
 23
5.563853
  0
POLYLINE
  8
0
  6
CONTINUOUS
 66
     1
 40
0.000000
 41
0.000000
  0
VERTEX
  8
0
  6
CONTINUOUS
 10
3.846576
 20
4.811365
  0
VERTEX
  8
0
  6
CONTINUOUS
 10
3.846576
 20
5.530829
  0
VERTEX
  8
0
  6
CONTINUOUS
 10
3.917343
 20
5.563853
  0
VERTEX
  8
0
  6
CONTINUOUS
 10
3.917343
 20
4.843603
  0
VERTEX
  8
0
  6
CONTINUOUS
 10
3.846576
 20
4.811365
  0
SEQEND
  8
0
  0
SOLID
  8
0
 62
    15
 10
3.917343
 20
4.843603
 11
3.917343
 21
5.563853
 12
3.984178
 22
4.883704
 13
3.984178
 23
5.603168
  0
POLYLINE
  8
0
  6
CONTINUOUS
 66
     1
 40
0.000000
 41
0.000000
  0
VERTEX
  8
0
  6
CONTINUOUS
 10
3.917343
 20
4.843603
  0
VERTEX
  8
0
  6
CONTINUOUS
 10
3.917343
 20
5.563853
  0
VERTEX
  8
0
  6
CONTINUOUS
 10
3.984178
 20
5.603168
  0
VERTEX
  8
0
  6
CONTINUOUS
 10
3.984178
 20
4.883704
  0
VERTEX
  8
0
  6
CONTINUOUS
 10
3.917343
 20
4.843603
  0
SEQEND
  8
0
  0
SOLID
  8
0
 62
    15
 10
3.984178
 20
4.883704
 11
3.984178
 21
5.603168
 12
3.988110
 22
4.879773
 13
3.988110
 23
5.599237
  0
POLYLINE
  8
0
  6
CONTINUOUS
 66
     1
 40
0.000000
 41
0.000000
  0
VERTEX
  8
0
  6
CONTINUOUS
 10
3.984178
 20
4.883704
  0
VERTEX
  8
0
  6
CONTINUOUS
 10
3.984178
 20
5.603168
  0
VERTEX
  8
0
  6
CONTINUOUS
 10
3.988110
 20
5.599237
  0
VERTEX
  8
0
  6
CONTINUOUS
 10
3.988110
 20
4.879773
  0
VERTEX
  8
0
  6
CONTINUOUS
 10
3.984178
 20
4.883704
  0
SEQEND
  8
0
  0
SOLID
  8
0
 62
    15
 10
3.988110
 20
4.879773
 11
3.988110
 21
5.599237
 12
4.041578
 22
4.847535
 13
4.041578
 23
5.566998
  0
POLYLINE
  8
0
  6
CONTINUOUS
 66
     1
 40
0.000000
 41
0.000000
  0
VERTEX
  8
0
  6
CONTINUOUS
 10
3.988110
 20
4.879773
  0
VERTEX
  8
0
  6
CONTINUOUS
 10
3.988110
 20
5.599237
  0
VERTEX
  8
0
  6
CONTINUOUS
 10
4.041578
 20
5.566998
  0
VERTEX
  8
0
  6
CONTINUOUS
 10
4.041578
 20
4.847535
  0
VERTEX
  8
0
  6
CONTINUOUS
 10
3.988110
 20
4.879773
  0
SEQEND
  8
0
  0
SOLID
  8
0
 62
    15
 10
4.041578
 20
4.847535
 11
4.041578
 21
5.566998
 12
4.099764
 22
4.818442
 13
4.099764
 23
5.537905
  0
POLYLINE
  8
0
  6
CONTINUOUS
 66
     1
 40
0.000000
 41
0.000000
  0
VERTEX
  8
0
  6
CONTINUOUS
 10
4.041578
 20
4.847535
  0
VERTEX
  8
0
  6
CONTINUOUS
 10
4.041578
 20
5.566998
  0
VERTEX
  8
0
  6
CONTINUOUS
 10
4.099764
 20
5.537905
  0
VERTEX
  8
0
  6
CONTINUOUS
 10
4.099764
 20
4.818442
  0
VERTEX
  8
0
  6
CONTINUOUS
 10
4.041578
 20
4.847535
  0
SEQEND
  8
0
  0
SOLID
  8
0
 62
    15
 10
4.099764
 20
4.818442
 11
4.099764
 21
5.537905
 12
4.161882
 22
4.792494
 13
4.161882
 23
5.511957
  0
POLYLINE
  8
0
  6
CONTINUOUS
 66
     1
 40
0.000000
 41
0.000000
  0
VERTEX
  8
0
  6
CONTINUOUS
 10
4.099764
 20
4.818442
  0
VERTEX
  8
0
  6
CONTINUOUS
 10
4.099764
 20
5.537905
  0
VERTEX
  8
0
  6
CONTINUOUS
 10
4.161882
 20
5.511957
  0
VERTEX
  8
0
  6
CONTINUOUS
 10
4.161882
 20
4.792494
  0
VERTEX
  8
0
  6
CONTINUOUS
 10
4.099764
 20
4.818442
  0
SEQEND
  8
0
  0
SOLID
  8
0
 62
    15
 10
4.161882
 20
4.792494
 11
4.161882
 21
5.511957
 12
4.226358
 22
4.770477
 13
4.226358
 23
5.489941
  0
POLYLINE
  8
0
  6
CONTINUOUS
 66
     1
 40
0.000000
 41
0.000000
  0
VERTEX
  8
0
  6
CONTINUOUS
 10
4.161882
 20
4.792494
  0
VERTEX
  8
0
  6
CONTINUOUS
 10
4.161882
 20
5.511957
  0
VERTEX
  8
0
  6
CONTINUOUS
 10
4.226358
 20
5.489941
  0
VERTEX
  8
0
  6
CONTINUOUS
 10
4.226358
 20
4.770477
  0
VERTEX
  8
0
  6
CONTINUOUS
 10
4.161882
 20
4.792494
  0
SEQEND
  8
0
  0
SOLID
  8
0
 62
    15
 10
4.226358
 20
4.770477
 11
4.226358
 21
5.489941
 12
4.293980
 22
4.752392
 13
4.293980
 23
5.471856
  0
POLYLINE
  8
0
  6
CONTINUOUS
 66
     1
 40
0.000000
 41
0.000000
  0
VERTEX
  8
0
  6
CONTINUOUS
 10
4.226358
 20
4.770477
  0
VERTEX
  8
0
  6
CONTINUOUS
 10
4.226358
 20
5.489941
  0
VERTEX
  8
0
  6
CONTINUOUS
 10
4.293980
 20
5.471856
  0
VERTEX
  8
0
  6
CONTINUOUS
 10
4.293980
 20
4.752392
  0
VERTEX
  8
0
  6
CONTINUOUS
 10
4.226358
 20
4.770477
  0
SEQEND
  8
0
  0
SOLID
  8
0
 62
    15
 10
4.293980
 20
4.752392
 11
4.293980
 21
5.471856
 12
4.363961
 22
4.738239
 13
4.363961
 23
5.457703
  0
POLYLINE
  8
0
  6
CONTINUOUS
 66
     1
 40
0.000000
 41
0.000000
  0
VERTEX
  8
0
  6
CONTINUOUS
 10
4.293980
 20
4.752392
  0
VERTEX
  8
0
  6
CONTINUOUS
 10
4.293980
 20
5.471856
  0
VERTEX
  8
0
  6
CONTINUOUS
 10
4.363961
 20
5.457703
  0
VERTEX
  8
0
  6
CONTINUOUS
 10
4.363961
 20
4.738239
  0
VERTEX
  8
0
  6
CONTINUOUS
 10
4.293980
 20
4.752392
  0
SEQEND
  8
0
  0
SOLID
  8
0
 62
    15
 10
4.363961
 20
4.738239
 11
4.363961
 21
5.457703
 12
4.435514
 22
4.728017
 13
4.435514
 23
5.447481
  0
POLYLINE
  8
0
  6
CONTINUOUS
 66
     1
 40
0.000000
 41
0.000000
  0
VERTEX
  8
0
  6
CONTINUOUS
 10
4.363961
 20
4.738239
  0
VERTEX
  8
0
  6
CONTINUOUS
 10
4.363961
 20
5.457703
  0
VERTEX
  8
0
  6
CONTINUOUS
 10
4.435514
 20
5.447481
  0
VERTEX
  8
0
  6
CONTINUOUS
 10
4.435514
 20
4.728017
  0
VERTEX
  8
0
  6
CONTINUOUS
 10
4.363961
 20
4.738239
  0
SEQEND
  8
0
  0
SOLID
  8
0
 62
    15
 10
4.435514
 20
4.728017
 11
4.435514
 21
5.447481
 12
4.509426
 22
4.722513
 13
4.509426
 23
5.442763
  0
POLYLINE
  8
0
  6
CONTINUOUS
 66
     1
 40
0.000000
 41
0.000000
  0
VERTEX
  8
0
  6
CONTINUOUS
 10
4.435514
 20
4.728017
  0
VERTEX
  8
0
  6
CONTINUOUS
 10
4.435514
 20
5.447481
  0
VERTEX
  8
0
  6
CONTINUOUS
 10
4.509426
 20
5.442763
  0
VERTEX
  8
0
  6
CONTINUOUS
 10
4.509426
 20
4.722513
  0
VERTEX
  8
0
  6
CONTINUOUS
 10
4.435514
 20
4.728017
  0
SEQEND
  8
0
  0
SOLID
  8
0
 62
    15
 10
2.020003
 20
4.908866
 11
2.020003
 21
5.628330
 12
2.867633
 22
4.908866
 13
2.867633
 23
5.628330
  0
POLYLINE
  8
0
  6
CONTINUOUS
 66
     1
 40
0.000000
 41
0.000000
  0
VERTEX
  8
0
  6
CONTINUOUS
 10
2.020003
 20
4.908866
  0
VERTEX
  8
0
  6
CONTINUOUS
 10
2.020003
 20
5.628330
  0
VERTEX
  8
0
  6
CONTINUOUS
 10
2.867633
 20
5.628330
  0
VERTEX
  8
0
  6
CONTINUOUS
 10
2.867633
 20
4.908866
  0
VERTEX
  8
0
  6
CONTINUOUS
 10
2.020003
 20
4.908866
  0
SEQEND
  8
0
  0
SOLID
  8
0
 62
    15
 10
4.583338
 20
4.722513
 11
4.583338
 21
5.441977
 12
4.658823
 22
4.727231
 13
4.658823
 23
5.446695
  0
POLYLINE
  8
0
  6
CONTINUOUS
 66
     1
 40
0.000000
 41
0.000000
  0
VERTEX
  8
0
  6
CONTINUOUS
 10
4.583338
 20
4.722513
  0
VERTEX
  8
0
  6
CONTINUOUS
 10
4.583338
 20
5.441977
  0
VERTEX
  8
0
  6
CONTINUOUS
 10
4.658823
 20
5.446695
  0
VERTEX
  8
0
  6
CONTINUOUS
 10
4.658823
 20
4.727231
  0
VERTEX
  8
0
  6
CONTINUOUS
 10
4.583338
 20
4.722513
  0
SEQEND
  8
0
  0
SOLID
  8
0
 62
    15
 10
4.658823
 20
4.727231
 11
4.658823
 21
5.446695
 12
4.733521
 22
4.737453
 13
4.733521
 23
5.456917
  0
POLYLINE
  8
0
  6
CONTINUOUS
 66
     1
 40
0.000000
 41
0.000000
  0
VERTEX
  8
0
  6
CONTINUOUS
 10
4.658823
 20
4.727231
  0
VERTEX
  8
0
  6
CONTINUOUS
 10
4.658823
 20
5.446695
  0
VERTEX
  8
0
  6
CONTINUOUS
 10
4.733521
 20
5.456917
  0
VERTEX
  8
0
  6
CONTINUOUS
 10
4.733521
 20
4.737453
  0
VERTEX
  8
0
  6
CONTINUOUS
 10
4.658823
 20
4.727231
  0
SEQEND
  8
0
  0
SOLID
  8
0
 62
    15
 10
4.733521
 20
4.737453
 11
4.733521
 21
5.456917
 12
4.809006
 22
4.753179
 13
4.809006
 23
5.472643
  0
POLYLINE
  8
0
  6
CONTINUOUS
 66
     1
 40
0.000000
 41
0.000000
  0
VERTEX
  8
0
  6
CONTINUOUS
 10
4.733521
 20
4.737453
  0
VERTEX
  8
0
  6
CONTINUOUS
 10
4.733521
 20
5.456917
  0
VERTEX
  8
0
  6
CONTINUOUS
 10
4.809006
 20
5.472643
  0
VERTEX
  8
0
  6
CONTINUOUS
 10
4.809006
 20
4.753179
  0
VERTEX
  8
0
  6
CONTINUOUS
 10
4.733521
 20
4.737453
  0
SEQEND
  8
0
  0
SOLID
  8
0
 62
    15
 10
4.809006
 20
4.753179
 11
4.809006
 21
5.472643
 12
4.882918
 22
4.774409
 13
4.882918
 23
5.494659
  0
POLYLINE
  8
0
  6
CONTINUOUS
 66
     1
 40
0.000000
 41
0.000000
  0
VERTEX
  8
0
  6
CONTINUOUS
 10
4.809006
 20
4.753179
  0
VERTEX
  8
0
  6
CONTINUOUS
 10
4.809006
 20
5.472643
  0
VERTEX
  8
0
  6
CONTINUOUS
 10
4.882918
 20
5.494659
  0
VERTEX
  8
0
  6
CONTINUOUS
 10
4.882918
 20
4.774409
  0
VERTEX
  8
0
  6
CONTINUOUS
 10
4.809006
 20
4.753179
  0
SEQEND
  8
0
  0
SOLID
  8
0
 62
    15
 10
4.882918
 20
4.774409
 11
4.882918
 21
5.494659
 12
4.956044
 22
4.802716
 13
4.956044
 23
5.522179
  0
POLYLINE
  8
0
  6
CONTINUOUS
 66
     1
 40
0.000000
 41
0.000000
  0
VERTEX
  8
0
  6
CONTINUOUS
 10
4.882918
 20
4.774409
  0
VERTEX
  8
0
  6
CONTINUOUS
 10
4.882918
 20
5.494659
  0
VERTEX
  8
0
  6
CONTINUOUS
 10
4.956044
 20
5.522179
  0
VERTEX
  8
0
  6
CONTINUOUS
 10
4.956044
 20
4.802716
  0
VERTEX
  8
0
  6
CONTINUOUS
 10
4.882918
 20
4.774409
  0
SEQEND
  8
0
  0
SOLID
  8
0
 62
    15
 10
4.956044
 20
4.802716
 11
4.956044
 21
5.522179
 12
5.027597
 22
4.836526
 13
5.027597
 23
5.555990
  0
POLYLINE
  8
0
  6
CONTINUOUS
 66
     1
 40
0.000000
 41
0.000000
  0
VERTEX
  8
0
  6
CONTINUOUS
 10
4.956044
 20
4.802716
  0
VERTEX
  8
0
  6
CONTINUOUS
 10
4.956044
 20
5.522179
  0
VERTEX
  8
0
  6
CONTINUOUS
 10
5.027597
 20
5.555990
  0
VERTEX
  8
0
  6
CONTINUOUS
 10
5.027597
 20
4.836526
  0
VERTEX
  8
0
  6
CONTINUOUS
 10
4.956044
 20
4.802716
  0
SEQEND
  8
0
  0
SOLID
  8
0
 62
    15
 10
5.027597
 20
4.836526
 11
5.027597
 21
5.555990
 12
5.097578
 22
4.877414
 13
5.097578
 23
5.596878
  0
POLYLINE
  8
0
  6
CONTINUOUS
 66
     1
 40
0.000000
 41
0.000000
  0
VERTEX
  8
0
  6
CONTINUOUS
 10
5.027597
 20
4.836526
  0
VERTEX
  8
0
  6
CONTINUOUS
 10
5.027597
 20
5.555990
  0
VERTEX
  8
0
  6
CONTINUOUS
 10
5.097578
 20
5.596878
  0
VERTEX
  8
0
  6
CONTINUOUS
 10
5.097578
 20
4.877414
  0
VERTEX
  8
0
  6
CONTINUOUS
 10
5.027597
 20
4.836526
  0
SEQEND
  8
0
  0
SOLID
  8
0
 62
    15
 10
5.097578
 20
4.877414
 11
5.097578
 21
5.596878
 12
5.098364
 22
4.877414
 13
5.098364
 23
5.596878
  0
POLYLINE
  8
0
  6
CONTINUOUS
 66
     1
 40
0.000000
 41
0.000000
  0
VERTEX
  8
0
  6
CONTINUOUS
 10
5.097578
 20
4.877414
  0
VERTEX
  8
0
  6
CONTINUOUS
 10
5.097578
 20
5.596878
  0
VERTEX
  8
0
  6
CONTINUOUS
 10
5.098364
 20
5.596878
  0
VERTEX
  8
0
  6
CONTINUOUS
 10
5.098364
 20
4.877414
  0
VERTEX
  8
0
  6
CONTINUOUS
 10
5.097578
 20
4.877414
  0
SEQEND
  8
0
  0
SOLID
  8
0
 62
    15
 10
5.098364
 20
4.877414
 11
5.098364
 21
5.596878
 12
5.157337
 22
4.840458
 13
5.157337
 23
5.559922
  0
POLYLINE
  8
0
  6
CONTINUOUS
 66
     1
 40
0.000000
 41
0.000000
  0
VERTEX
  8
0
  6
CONTINUOUS
 10
5.098364
 20
4.877414
  0
VERTEX
  8
0
  6
CONTINUOUS
 10
5.098364
 20
5.596878
  0
VERTEX
  8
0
  6
CONTINUOUS
 10
5.157337
 20
5.559922
  0
VERTEX
  8
0
  6
CONTINUOUS
 10
5.157337
 20
4.840458
  0
VERTEX
  8
0
  6
CONTINUOUS
 10
5.098364
 20
4.877414
  0
SEQEND
  8
0
  0
SOLID
  8
0
 62
    15
 10
5.157337
 20
4.840458
 11
5.157337
 21
5.559922
 12
5.217882
 22
4.809006
 13
5.217882
 23
5.528470
  0
POLYLINE
  8
0
  6
CONTINUOUS
 66
     1
 40
0.000000
 41
0.000000
  0
VERTEX
  8
0
  6
CONTINUOUS
 10
5.157337
 20
4.840458
  0
VERTEX
  8
0
  6
CONTINUOUS
 10
5.157337
 20
5.559922
  0
VERTEX
  8
0
  6
CONTINUOUS
 10
5.217882
 20
5.528470
  0
VERTEX
  8
0
  6
CONTINUOUS
 10
5.217882
 20
4.809006
  0
VERTEX
  8
0
  6
CONTINUOUS
 10
5.157337
 20
4.840458
  0
SEQEND
  8
0
  0
SOLID
  8
0
 62
    15
 10
5.217882
 20
4.809006
 11
5.217882
 21
5.528470
 12
5.280786
 22
4.781486
 13
5.280786
 23
5.501736
  0
POLYLINE
  8
0
  6
CONTINUOUS
 66
     1
 40
0.000000
 41
0.000000
  0
VERTEX
  8
0
  6
CONTINUOUS
 10
5.217882
 20
4.809006
  0
VERTEX
  8
0
  6
CONTINUOUS
 10
5.217882
 20
5.528470
  0
VERTEX
  8
0
  6
CONTINUOUS
 10
5.280786
 20
5.501736
  0
VERTEX
  8
0
  6
CONTINUOUS
 10
5.280786
 20
4.781486
  0
VERTEX
  8
0
  6
CONTINUOUS
 10
5.217882
 20
4.809006
  0
SEQEND
  8
0
  0
SOLID
  8
0
 62
    15
 10
5.280786
 20
4.781486
 11
5.280786
 21
5.501736
 12
5.345262
 22
4.759469
 13
5.345262
 23
5.478933
  0
POLYLINE
  8
0
  6
CONTINUOUS
 66
     1
 40
0.000000
 41
0.000000
  0
VERTEX
  8
0
  6
CONTINUOUS
 10
5.280786
 20
4.781486
  0
VERTEX
  8
0
  6
CONTINUOUS
 10
5.280786
 20
5.501736
  0
VERTEX
  8
0
  6
CONTINUOUS
 10
5.345262
 20
5.478933
  0
VERTEX
  8
0
  6
CONTINUOUS
 10
5.345262
 20
4.759469
  0
VERTEX
  8
0
  6
CONTINUOUS
 10
5.280786
 20
4.781486
  0
SEQEND
  8
0
  0
SOLID
  8
0
 62
    15
 10
5.345262
 20
4.759469
 11
5.345262
 21
5.478933
 12
5.411311
 22
4.741384
 13
5.411311
 23
5.461634
  0
POLYLINE
  8
0
  6
CONTINUOUS
 66
     1
 40
0.000000
 41
0.000000
  0
VERTEX
  8
0
  6
CONTINUOUS
 10
5.345262
 20
4.759469
  0
VERTEX
  8
0
  6
CONTINUOUS
 10
5.345262
 20
5.478933
  0
VERTEX
  8
0
  6
CONTINUOUS
 10
5.411311
 20
5.461634
  0
VERTEX
  8
0
  6
CONTINUOUS
 10
5.411311
 20
4.741384
  0
VERTEX
  8
0
  6
CONTINUOUS
 10
5.345262
 20
4.759469
  0
SEQEND
  8
0
  0
SOLID
  8
0
 62
    15
 10
5.411311
 20
4.741384
 11
5.411311
 21
5.461634
 12
5.478147
 22
4.728803
 13
5.478147
 23
5.448267
  0
POLYLINE
  8
0
  6
CONTINUOUS
 66
     1
 40
0.000000
 41
0.000000
  0
VERTEX
  8
0
  6
CONTINUOUS
 10
5.411311
 20
4.741384
  0
VERTEX
  8
0
  6
CONTINUOUS
 10
5.411311
 20
5.461634
  0
VERTEX
  8
0
  6
CONTINUOUS
 10
5.478147
 20
5.448267
  0
VERTEX
  8
0
  6
CONTINUOUS
 10
5.478147
 20
4.728803
  0
VERTEX
  8
0
  6
CONTINUOUS
 10
5.411311
 20
4.741384
  0
SEQEND
  8
0
  0
SOLID
  8
0
 62
    15
 10
5.478147
 20
4.728803
 11
5.478147
 21
5.448267
 12
5.545768
 22
4.720940
 13
5.545768
 23
5.440404
  0
POLYLINE
  8
0
  6
CONTINUOUS
 66
     1
 40
0.000000
 41
0.000000
  0
VERTEX
  8
0
  6
CONTINUOUS
 10
5.478147
 20
4.728803
  0
VERTEX
  8
0
  6
CONTINUOUS
 10
5.478147
 20
5.448267
  0
VERTEX
  8
0
  6
CONTINUOUS
 10
5.545768
 20
5.440404
  0
VERTEX
  8
0
  6
CONTINUOUS
 10
5.545768
 20
4.720940
  0
VERTEX
  8
0
  6
CONTINUOUS
 10
5.478147
 20
4.728803
  0
SEQEND
  8
0
  0
SOLID
  8
0
 62
    15
 10
5.545768
 20
4.720940
 11
5.545768
 21
5.440404
 12
5.614176
 22
4.717795
 13
5.614176
 23
5.437259
  0
POLYLINE
  8
0
  6
CONTINUOUS
 66
     1
 40
0.000000
 41
0.000000
  0
VERTEX
  8
0
  6
CONTINUOUS
 10
5.545768
 20
4.720940
  0
VERTEX
  8
0
  6
CONTINUOUS
 10
5.545768
 20
5.440404
  0
VERTEX
  8
0
  6
CONTINUOUS
 10
5.614176
 20
5.437259
  0
VERTEX
  8
0
  6
CONTINUOUS
 10
5.614176
 20
4.717795
  0
VERTEX
  8
0
  6
CONTINUOUS
 10
5.545768
 20
4.720940
  0
SEQEND
  8
0
  0
SOLID
  8
0
 62
    15
 10
5.614176
 20
4.717795
 11
5.614176
 21
5.437259
 12
5.684157
 22
4.719368
 13
5.684157
 23
5.439618
  0
POLYLINE
  8
0
  6
CONTINUOUS
 66
     1
 40
0.000000
 41
0.000000
  0
VERTEX
  8
0
  6
CONTINUOUS
 10
5.614176
 20
4.717795
  0
VERTEX
  8
0
  6
CONTINUOUS
 10
5.614176
 20
5.437259
  0
VERTEX
  8
0
  6
CONTINUOUS
 10
5.684157
 20
5.439618
  0
VERTEX
  8
0
  6
CONTINUOUS
 10
5.684157
 20
4.719368
  0
VERTEX
  8
0
  6
CONTINUOUS
 10
5.614176
 20
4.717795
  0
SEQEND
  8
0
  0
SOLID
  8
0
 62
    15
 10
5.684157
 20
4.719368
 11
5.684157
 21
5.439618
 12
5.753351
 22
4.726445
 13
5.753351
 23
5.445908
  0
POLYLINE
  8
0
  6
CONTINUOUS
 66
     1
 40
0.000000
 41
0.000000
  0
VERTEX
  8
0
  6
CONTINUOUS
 10
5.684157
 20
4.719368
  0
VERTEX
  8
0
  6
CONTINUOUS
 10
5.684157
 20
5.439618
  0
VERTEX
  8
0
  6
CONTINUOUS
 10
5.753351
 20
5.445908
  0
VERTEX
  8
0
  6
CONTINUOUS
 10
5.753351
 20
4.726445
  0
VERTEX
  8
0
  6
CONTINUOUS
 10
5.684157
 20
4.719368
  0
SEQEND
  8
0
  0
SOLID
  8
0
 62
    15
 10
5.753351
 20
4.726445
 11
5.753351
 21
5.445908
 12
5.823332
 22
4.738239
 13
5.823332
 23
5.457703
  0
POLYLINE
  8
0
  6
CONTINUOUS
 66
     1
 40
0.000000
 41
0.000000
  0
VERTEX
  8
0
  6
CONTINUOUS
 10
5.753351
 20
4.726445
  0
VERTEX
  8
0
  6
CONTINUOUS
 10
5.753351
 20
5.445908
  0
VERTEX
  8
0
  6
CONTINUOUS
 10
5.823332
 20
5.457703
  0
VERTEX
  8
0
  6
CONTINUOUS
 10
5.823332
 20
4.738239
  0
VERTEX
  8
0
  6
CONTINUOUS
 10
5.753351
 20
4.726445
  0
SEQEND
  8
0
  0
SOLID
  8
0
 62
    15
 10
5.823332
 20
4.738239
 11
5.823332
 21
5.457703
 12
5.892526
 22
4.755538
 13
5.892526
 23
5.475001
  0
POLYLINE
  8
0
  6
CONTINUOUS
 66
     1
 40
0.000000
 41
0.000000
  0
VERTEX
  8
0
  6
CONTINUOUS
 10
5.823332
 20
4.738239
  0
VERTEX
  8
0
  6
CONTINUOUS
 10
5.823332
 20
5.457703
  0
VERTEX
  8
0
  6
CONTINUOUS
 10
5.892526
 20
5.475001
  0
VERTEX
  8
0
  6
CONTINUOUS
 10
5.892526
 20
4.755538
  0
VERTEX
  8
0
  6
CONTINUOUS
 10
5.823332
 20
4.738239
  0
SEQEND
  8
0
  0
SOLID
  8
0
 62
    15
 10
5.892526
 20
4.755538
 11
5.892526
 21
5.475001
 12
5.962507
 22
4.777554
 13
5.962507
 23
5.497018
  0
POLYLINE
  8
0
  6
CONTINUOUS
 66
     1
 40
0.000000
 41
0.000000
  0
VERTEX
  8
0
  6
CONTINUOUS
 10
5.892526
 20
4.755538
  0
VERTEX
  8
0
  6
CONTINUOUS
 10
5.892526
 20
5.475001
  0
VERTEX
  8
0
  6
CONTINUOUS
 10
5.962507
 20
5.497018
  0
VERTEX
  8
0
  6
CONTINUOUS
 10
5.962507
 20
4.777554
  0
VERTEX
  8
0
  6
CONTINUOUS
 10
5.892526
 20
4.755538
  0
SEQEND
  8
0
  0
SOLID
  8
0
 62
    15
 10
5.962507
 20
4.777554
 11
5.962507
 21
5.497018
 12
6.030915
 22
4.804288
 13
6.030915
 23
5.523752
  0
POLYLINE
  8
0
  6
CONTINUOUS
 66
     1
 40
0.000000
 41
0.000000
  0
VERTEX
  8
0
  6
CONTINUOUS
 10
5.962507
 20
4.777554
  0
VERTEX
  8
0
  6
CONTINUOUS
 10
5.962507
 20
5.497018
  0
VERTEX
  8
0
  6
CONTINUOUS
 10
6.030915
 20
5.523752
  0
VERTEX
  8
0
  6
CONTINUOUS
 10
6.030915
 20
4.804288
  0
VERTEX
  8
0
  6
CONTINUOUS
 10
5.962507
 20
4.777554
  0
SEQEND
  8
0
  0
SOLID
  8
0
 62
    15
 10
6.030915
 20
4.804288
 11
6.030915
 21
5.523752
 12
6.099323
 22
4.836526
 13
6.099323
 23
5.556777
  0
POLYLINE
  8
0
  6
CONTINUOUS
 66
     1
 40
0.000000
 41
0.000000
  0
VERTEX
  8
0
  6
CONTINUOUS
 10
6.030915
 20
4.804288
  0
VERTEX
  8
0
  6
CONTINUOUS
 10
6.030915
 20
5.523752
  0
VERTEX
  8
0
  6
CONTINUOUS
 10
6.099323
 20
5.556777
  0
VERTEX
  8
0
  6
CONTINUOUS
 10
6.099323
 20
4.836526
  0
VERTEX
  8
0
  6
CONTINUOUS
 10
6.030915
 20
4.804288
  0
SEQEND
  8
0
  0
SOLID
  8
0
 62
    15
 10
6.099323
 20
4.836526
 11
6.099323
 21
5.556777
 12
6.166945
 22
4.874269
 13
6.166945
 23
5.593733
  0
POLYLINE
  8
0
  6
CONTINUOUS
 66
     1
 40
0.000000
 41
0.000000
  0
VERTEX
  8
0
  6
CONTINUOUS
 10
6.099323
 20
4.836526
  0
VERTEX
  8
0
  6
CONTINUOUS
 10
6.099323
 20
5.556777
  0
VERTEX
  8
0
  6
CONTINUOUS
 10
6.166945
 20
5.593733
  0
VERTEX
  8
0
  6
CONTINUOUS
 10
6.166945
 20
4.874269
  0
VERTEX
  8
0
  6
CONTINUOUS
 10
6.099323
 20
4.836526
  0
SEQEND
  8
0
  0
SOLID
  8
0
 62
    15
 10
6.166945
 20
4.874269
 11
6.166945
 21
5.593733
 12
7.003567
 22
4.874269
 13
7.003567
 23
5.593733
  0
POLYLINE
  8
0
  6
CONTINUOUS
 66
     1
 40
0.000000
 41
0.000000
  0
VERTEX
  8
0
  6
CONTINUOUS
 10
6.166945
 20
4.874269
  0
VERTEX
  8
0
  6
CONTINUOUS
 10
6.166945
 20
5.593733
  0
VERTEX
  8
0
  6
CONTINUOUS
 10
7.003567
 20
5.593733
  0
VERTEX
  8
0
  6
CONTINUOUS
 10
7.003567
 20
4.874269
  0
VERTEX
  8
0
  6
CONTINUOUS
 10
6.166945
 20
4.874269
  0
SEQEND
  8
0
  0
SOLID
  8
0
 62
    15
 10
7.002781
 20
4.000690
 11
7.002781
 21
4.720940
 12
7.002781
 22
4.003836
 13
7.002781
 23
4.724086
  0
POLYLINE
  8
0
  6
CONTINUOUS
 66
     1
 40
0.000000
 41
0.000000
  0
VERTEX
  8
0
  6
CONTINUOUS
 10
7.002781
 20
4.000690
  0
VERTEX
  8
0
  6
CONTINUOUS
 10
7.002781
 20
4.720940
  0
VERTEX
  8
0
  6
CONTINUOUS
 10
7.002781
 20
4.724086
  0
VERTEX
  8
0
  6
CONTINUOUS
 10
7.002781
 20
4.003836
  0
VERTEX
  8
0
  6
CONTINUOUS
 10
7.002781
 20
4.000690
  0
SEQEND
  8
0
  0
POLYLINE
  8
0
  6
CONTINUOUS
 66
     1
 40
0.000000
 41
0.000000
  0
VERTEX
  8
0
  6
CONTINUOUS
 10
7.002781
 20
4.003836
  0
VERTEX
  8
0
  6
CONTINUOUS
 10
2.020003
 20
4.003836
  0
VERTEX
  8
0
  6
CONTINUOUS
 10
2.020003
 20
4.908866
  0
VERTEX
  8
0
  6
CONTINUOUS
 10
2.867633
 20
4.908866
  0
VERTEX
  8
0
  6
CONTINUOUS
 10
2.916384
 20
4.878200
  0
VERTEX
  8
0
  6
CONTINUOUS
 10
2.968280
 20
4.852252
  0
VERTEX
  8
0
  6
CONTINUOUS
 10
3.025679
 20
4.827877
  0
VERTEX
  8
0
  6
CONTINUOUS
 10
3.089370
 20
4.805861
  0
VERTEX
  8
0
  6
CONTINUOUS
 10
3.156991
 20
4.786990
  0
VERTEX
  8
0
  6
CONTINUOUS
 10
3.228545
 20
4.771264
  0
VERTEX
  8
0
  6
CONTINUOUS
 10
3.304029
 20
4.758683
  0
VERTEX
  8
0
  6
CONTINUOUS
 10
3.381087
 20
4.750820
  0
VERTEX
  8
0
  6
CONTINUOUS
 10
3.459717
 20
4.746888
  0
VERTEX
  8
0
  6
CONTINUOUS
 10
3.539133
 20
4.748461
  0
VERTEX
  8
0
  6
CONTINUOUS
 10
3.617763
 20
4.754751
  0
VERTEX
  8
0
  6
CONTINUOUS
 10
3.696393
 20
4.767332
  0
VERTEX
  8
0
  6
CONTINUOUS
 10
3.772664
 20
4.786203
  0
VERTEX
  8
0
  6
CONTINUOUS
 10
3.846576
 20
4.811365
  0
VERTEX
  8
0
  6
CONTINUOUS
 10
3.917343
 20
4.843603
  0
VERTEX
  8
0
  6
CONTINUOUS
 10
3.984178
 20
4.883704
  0
VERTEX
  8
0
  6
CONTINUOUS
 10
4.041578
 20
4.847535
  0
VERTEX
  8
0
  6
CONTINUOUS
 10
4.099764
 20
4.818442
  0
VERTEX
  8
0
  6
CONTINUOUS
 10
4.161882
 20
4.792494
  0
VERTEX
  8
0
  6
CONTINUOUS
 10
4.226358
 20
4.770477
  0
VERTEX
  8
0
  6
CONTINUOUS
 10
4.293980
 20
4.752392
  0
VERTEX
  8
0
  6
CONTINUOUS
 10
4.363961
 20
4.738239
  0
VERTEX
  8
0
  6
CONTINUOUS
 10
4.435514
 20
4.728017
  0
VERTEX
  8
0
  6
CONTINUOUS
 10
4.509426
 20
4.722513
  0
VERTEX
  8
0
  6
CONTINUOUS
 10
4.583338
 20
4.722513
  0
VERTEX
  8
0
  6
CONTINUOUS
 10
4.658823
 20
4.727231
  0
VERTEX
  8
0
  6
CONTINUOUS
 10
4.733521
 20
4.737453
  0
VERTEX
  8
0
  6
CONTINUOUS
 10
4.809006
 20
4.753179
  0
VERTEX
  8
0
  6
CONTINUOUS
 10
4.882918
 20
4.774409
  0
VERTEX
  8
0
  6
CONTINUOUS
 10
4.956044
 20
4.802716
  0
VERTEX
  8
0
  6
CONTINUOUS
 10
5.027597
 20
4.836526
  0
VERTEX
  8
0
  6
CONTINUOUS
 10
5.098364
 20
4.877414
  0
VERTEX
  8
0
  6
CONTINUOUS
 10
5.157337
 20
4.840458
  0
VERTEX
  8
0
  6
CONTINUOUS
 10
5.217882
 20
4.809006
  0
VERTEX
  8
0
  6
CONTINUOUS
 10
5.280786
 20
4.781486
  0
VERTEX
  8
0
  6
CONTINUOUS
 10
5.345262
 20
4.759469
  0
VERTEX
  8
0
  6
CONTINUOUS
 10
5.411311
 20
4.741384
  0
VERTEX
  8
0
  6
CONTINUOUS
 10
5.478147
 20
4.728803
  0
VERTEX
  8
0
  6
CONTINUOUS
 10
5.545768
 20
4.720940
  0
VERTEX
  8
0
  6
CONTINUOUS
 10
5.614176
 20
4.717795
  0
VERTEX
  8
0
  6
CONTINUOUS
 10
5.684157
 20
4.719368
  0
VERTEX
  8
0
  6
CONTINUOUS
 10
5.753351
 20
4.726445
  0
VERTEX
  8
0
  6
CONTINUOUS
 10
5.823332
 20
4.738239
  0
VERTEX
  8
0
  6
CONTINUOUS
 10
5.892526
 20
4.755538
  0
VERTEX
  8
0
  6
CONTINUOUS
 10
5.962507
 20
4.777554
  0
VERTEX
  8
0
  6
CONTINUOUS
 10
6.030915
 20
4.804288
  0
VERTEX
  8
0
  6
CONTINUOUS
 10
6.099323
 20
4.836526
  0
VERTEX
  8
0
  6
CONTINUOUS
 10
6.166945
 20
4.874269
  0
VERTEX
  8
0
  6
CONTINUOUS
 10
7.003567
 20
4.874269
  0
VERTEX
  8
0
  6
CONTINUOUS
 10
7.002781
 20
4.000690
  0
VERTEX
  8
0
  6
CONTINUOUS
 10
7.002781
 20
4.003836
  0
SEQEND
  8
0
  0
TEXT
  8
0
 10
4.216923
 20
3.716836
 40
0.134837
  1
BA  184
 41
1.000000
  7
SN1
 71
     0
 72
     5
 11
4.802622
 21
3.716836
  0
TEXT
  8
0
 10
4.203556
 20
3.524979
 40
0.134837
  1
7/8" x 5"
 41
1.000000
  7
SN1
 71
     0
 72
     5
 11
4.814065
 21
3.524979
  0
TEXT
  8
0
 10
7.788294
 20
7.016148
 40
0.134837
  1
case
 41
1.000000
  7
SN1
 71
     0
 72
     5
 11
8.135637
 21
7.016148
  0
TEXT
  8
0
 10
7.825250
 20
6.825077
 40
0.134837
  1
184
 41
1.000000
  7
SN1
 71
     0
 72
     5
 11
8.099049
 21
6.825077
  0
ENDSEC
  0
EOF
