  0
SECTION
  2
HEADER
  9
$ACADVER
  1
AC1006
  9
$EXTMIN
 10
2.905760
 20
0.370920
  9
$EXTMAX
 10
8.035720
 20
4.187040
  9
$LTSCALE
 40
0.044000
  9
$PDMODE
 70
    35
  9
$PDSIZE
 40
0.035200
  0
ENDSEC
  0
SECTION
  2
TABLES
  0
TABLE
  2
LTYPE
 70
     9
  0
LTYPE
  2
CONTINUOUS
 70
    64
  3
Solid line
 72
    65
 73
     0
 40
0.000000
  0
LTYPE
  2
DASHED
 70
    64
  3
__ __ __ __ __ __ __ __ __ __ __ __ __ __ __
 72
    65
 73
     2
 40
0.000330
 49
0.000220
 49
-0.000110
  0
LTYPE
  2
HIDDEN
 70
    64
  3
 _ _ _ _ _ _ _ _ _ _ _ _ _ _ _ _ _ _ _ _ _ _
 72
    65
 73
     2
 40
0.000165
 49
0.000110
 49
-0.000055
  0
LTYPE
  2
CENTER
 70
    64
  3
____ _ ____ _ ____ _ ____ _ ____ _ ____ _ ____
 72
    65
 73
     4
 40
0.000880
 49
0.000550
 49
-0.000110
 49
0.000110
 49
-0.000110
  0
LTYPE
  2
PHANTOM
 70
    64
  3
_____ _ _ _____ _ _ _____ _ _ _____ _ _ ____
 72
    65
 73
     6
 40
0.001100
 49
0.000550
 49
-0.000110
 49
0.000110
 49
-0.000110
 49
0.000110
 49
-0.000110
  0
LTYPE
  2
DOT
 70
    64
  3
...............................................
 72
    65
 73
     2
 40
0.000110
 49
0.000000
 49
-0.000110
  0
LTYPE
  2
DASHDOT
 70
    64
  3
__ . __ . __ . __ . __ . __ . __ . __ . __ . __
 72
    65
 73
     4
 40
0.000440
 49
0.000220
 49
-0.000110
 49
0.000000
 49
-0.000110
  0
LTYPE
  2
BORDER
 70
    64
  3
__ __ . __ __ . __ __ . __ __ . __ __ . __ __
 72
    65
 73
     6
 40
0.000770
 49
0.000220
 49
-0.000110
 49
0.000220
 49
-0.000110
 49
0.000000
 49
-0.000110
  0
LTYPE
  2
DIVIDE
 70
    64
  3
__ . . __ . . __ . . __ . . __ . . __ . . __
 72
    65
 73
     6
 40
0.000550
 49
0.000220
 49
-0.000110
 49
0.000000
 49
-0.000110
 49
0.000000
 49
-0.000110
  0
LTYPE
  2
DOTDOT
 70
    64
  3
 . .  . .  . .  . .  . .  . . 
 72
    65
 73
     5
 40
0.000242
 49
-0.000110
 49
0.000000
 49
-0.000110
 49
0.000000
 49
-0.000110
  0
ENDTAB
  0
TABLE
  2
STYLE
 70
     2
  0
STYLE
 70
     0
  2
SN0
 40
0.000000
 41
0.000440
 50
0.000000
 71
     0
 42
0.000000
  3
ROMAND
  0
STYLE
 70
    68
  2
SV0
 40
0.000000
 41
0.000440
 50
0.000000
 71
     0
 42
0.000000
  3
ROMAND
  0
ENDTAB
  0
TABLE
  2
LAYER
 70
     3
  0
LAYER
  2
FOREGROUND
 70
    64
 62
     7
  6
CONTINUOUS
  0
LAYER
  2
BACKGROUND
 70
    65
 62
    -7
  6
CONTINUOUS
  0
LAYER
  2
0
 70
    64
 62
     7
  6
CONTINUOUS
  0
ENDTAB
  0
ENDSEC
  0
SECTION
  2
ENTITIES
  0
POLYLINE
  8
FOREGROUND
  6
CONTINUOUS
 66
     1
 40
0.000000
 41
0.000000
  0
VERTEX
  8
FOREGROUND
  6
CONTINUOUS
 10
0.000000
 20
4.557960
  0
VERTEX
  8
FOREGROUND
  6
CONTINUOUS
 10
8.499920
 20
4.557960
  0
VERTEX
  8
FOREGROUND
  6
CONTINUOUS
 10
8.499920
 20
-6.442040
  0
VERTEX
  8
FOREGROUND
  6
CONTINUOUS
 10
0.000000
 20
-6.442040
  0
VERTEX
  8
FOREGROUND
  6
CONTINUOUS
 10
0.000000
 20
4.557960
  0
SEQEND
  8
0
  0
POLYLINE
  8
FOREGROUND
  6
CONTINUOUS
 66
     1
 40
0.000000
 41
0.000000
  0
VERTEX
  8
FOREGROUND
  6
CONTINUOUS
 10
0.000000
 20
4.557960
  0
VERTEX
  8
FOREGROUND
  6
CONTINUOUS
 10
8.499920
 20
4.557960
  0
VERTEX
  8
FOREGROUND
  6
CONTINUOUS
 10
8.499920
 20
-6.442040
  0
VERTEX
  8
FOREGROUND
  6
CONTINUOUS
 10
0.000000
 20
-6.442040
  0
VERTEX
  8
FOREGROUND
  6
CONTINUOUS
 10
0.000000
 20
4.557960
  0
SEQEND
  8
0
  0
SOLID
  8
0
 62
    15
 10
5.284400
 20
1.769240
 11
5.290120
 21
2.492600
 12
5.320480
 22
1.749880
 13
5.326200
 23
2.473240
  0
POLYLINE
  8
0
  6
CONTINUOUS
 66
     1
 40
0.000000
 41
0.000000
  0
VERTEX
  8
0
  6
CONTINUOUS
 10
5.284400
 20
1.769240
  0
VERTEX
  8
0
  6
CONTINUOUS
 10
5.290120
 20
2.492600
  0
VERTEX
  8
0
  6
CONTINUOUS
 10
5.326200
 20
2.473240
  0
VERTEX
  8
0
  6
CONTINUOUS
 10
5.320480
 20
1.749880
  0
VERTEX
  8
0
  6
CONTINUOUS
 10
5.284400
 20
1.769240
  0
SEQEND
  8
0
  0
SOLID
  8
0
 62
    15
 10
4.239400
 20
1.735800
 11
4.245120
 21
2.458720
 12
4.329600
 22
1.702800
 13
4.334880
 23
2.425720
  0
POLYLINE
  8
0
  6
CONTINUOUS
 66
     1
 40
0.000000
 41
0.000000
  0
VERTEX
  8
0
  6
CONTINUOUS
 10
4.239400
 20
1.735800
  0
VERTEX
  8
0
  6
CONTINUOUS
 10
4.245120
 20
2.458720
  0
VERTEX
  8
0
  6
CONTINUOUS
 10
4.334880
 20
2.425720
  0
VERTEX
  8
0
  6
CONTINUOUS
 10
4.329600
 20
1.702800
  0
VERTEX
  8
0
  6
CONTINUOUS
 10
4.239400
 20
1.735800
  0
SEQEND
  8
0
  0
SOLID
  8
0
 62
    15
 10
4.329600
 20
1.702800
 11
4.334880
 21
2.425720
 12
4.417600
 22
1.678160
 13
4.423320
 23
2.401080
  0
POLYLINE
  8
0
  6
CONTINUOUS
 66
     1
 40
0.000000
 41
0.000000
  0
VERTEX
  8
0
  6
CONTINUOUS
 10
4.329600
 20
1.702800
  0
VERTEX
  8
0
  6
CONTINUOUS
 10
4.334880
 20
2.425720
  0
VERTEX
  8
0
  6
CONTINUOUS
 10
4.423320
 20
2.401080
  0
VERTEX
  8
0
  6
CONTINUOUS
 10
4.417600
 20
1.678160
  0
VERTEX
  8
0
  6
CONTINUOUS
 10
4.329600
 20
1.702800
  0
SEQEND
  8
0
  0
SOLID
  8
0
 62
    15
 10
4.417600
 20
1.678160
 11
4.423320
 21
2.401080
 12
4.503840
 22
1.661000
 13
4.509120
 23
2.383920
  0
POLYLINE
  8
0
  6
CONTINUOUS
 66
     1
 40
0.000000
 41
0.000000
  0
VERTEX
  8
0
  6
CONTINUOUS
 10
4.417600
 20
1.678160
  0
VERTEX
  8
0
  6
CONTINUOUS
 10
4.423320
 20
2.401080
  0
VERTEX
  8
0
  6
CONTINUOUS
 10
4.509120
 20
2.383920
  0
VERTEX
  8
0
  6
CONTINUOUS
 10
4.503840
 20
1.661000
  0
VERTEX
  8
0
  6
CONTINUOUS
 10
4.417600
 20
1.678160
  0
SEQEND
  8
0
  0
SOLID
  8
0
 62
    15
 10
4.503840
 20
1.661000
 11
4.509120
 21
2.383920
 12
4.587000
 22
1.651320
 13
4.592720
 23
2.374240
  0
POLYLINE
  8
0
  6
CONTINUOUS
 66
     1
 40
0.000000
 41
0.000000
  0
VERTEX
  8
0
  6
CONTINUOUS
 10
4.503840
 20
1.661000
  0
VERTEX
  8
0
  6
CONTINUOUS
 10
4.509120
 20
2.383920
  0
VERTEX
  8
0
  6
CONTINUOUS
 10
4.592720
 20
2.374240
  0
VERTEX
  8
0
  6
CONTINUOUS
 10
4.587000
 20
1.651320
  0
VERTEX
  8
0
  6
CONTINUOUS
 10
4.503840
 20
1.661000
  0
SEQEND
  8
0
  0
SOLID
  8
0
 62
    15
 10
4.587000
 20
1.651320
 11
4.592720
 21
2.374240
 12
4.667080
 22
1.647800
 13
4.672800
 23
2.370720
  0
POLYLINE
  8
0
  6
CONTINUOUS
 66
     1
 40
0.000000
 41
0.000000
  0
VERTEX
  8
0
  6
CONTINUOUS
 10
4.587000
 20
1.651320
  0
VERTEX
  8
0
  6
CONTINUOUS
 10
4.592720
 20
2.374240
  0
VERTEX
  8
0
  6
CONTINUOUS
 10
4.672800
 20
2.370720
  0
VERTEX
  8
0
  6
CONTINUOUS
 10
4.667080
 20
1.647800
  0
VERTEX
  8
0
  6
CONTINUOUS
 10
4.587000
 20
1.651320
  0
SEQEND
  8
0
  0
SOLID
  8
0
 62
    15
 10
4.667080
 20
1.647800
 11
4.672800
 21
2.370720
 12
4.744080
 22
1.649560
 13
4.749360
 23
2.372480
  0
POLYLINE
  8
0
  6
CONTINUOUS
 66
     1
 40
0.000000
 41
0.000000
  0
VERTEX
  8
0
  6
CONTINUOUS
 10
4.667080
 20
1.647800
  0
VERTEX
  8
0
  6
CONTINUOUS
 10
4.672800
 20
2.370720
  0
VERTEX
  8
0
  6
CONTINUOUS
 10
4.749360
 20
2.372480
  0
VERTEX
  8
0
  6
CONTINUOUS
 10
4.744080
 20
1.649560
  0
VERTEX
  8
0
  6
CONTINUOUS
 10
4.667080
 20
1.647800
  0
SEQEND
  8
0
  0
SOLID
  8
0
 62
    15
 10
4.744080
 20
1.649560
 11
4.749360
 21
2.372480
 12
4.816240
 22
1.656160
 13
4.821960
 23
2.379080
  0
POLYLINE
  8
0
  6
CONTINUOUS
 66
     1
 40
0.000000
 41
0.000000
  0
VERTEX
  8
0
  6
CONTINUOUS
 10
4.744080
 20
1.649560
  0
VERTEX
  8
0
  6
CONTINUOUS
 10
4.749360
 20
2.372480
  0
VERTEX
  8
0
  6
CONTINUOUS
 10
4.821960
 20
2.379080
  0
VERTEX
  8
0
  6
CONTINUOUS
 10
4.816240
 20
1.656160
  0
VERTEX
  8
0
  6
CONTINUOUS
 10
4.744080
 20
1.649560
  0
SEQEND
  8
0
  0
SOLID
  8
0
 62
    15
 10
4.816240
 20
1.656160
 11
4.821960
 21
2.379080
 12
4.884440
 22
1.666720
 13
4.889720
 23
2.389640
  0
POLYLINE
  8
0
  6
CONTINUOUS
 66
     1
 40
0.000000
 41
0.000000
  0
VERTEX
  8
0
  6
CONTINUOUS
 10
4.816240
 20
1.656160
  0
VERTEX
  8
0
  6
CONTINUOUS
 10
4.821960
 20
2.379080
  0
VERTEX
  8
0
  6
CONTINUOUS
 10
4.889720
 20
2.389640
  0
VERTEX
  8
0
  6
CONTINUOUS
 10
4.884440
 20
1.666720
  0
VERTEX
  8
0
  6
CONTINUOUS
 10
4.816240
 20
1.656160
  0
SEQEND
  8
0
  0
SOLID
  8
0
 62
    15
 10
4.884440
 20
1.666720
 11
4.889720
 21
2.389640
 12
4.946920
 22
1.680360
 13
4.952640
 23
2.403280
  0
POLYLINE
  8
0
  6
CONTINUOUS
 66
     1
 40
0.000000
 41
0.000000
  0
VERTEX
  8
0
  6
CONTINUOUS
 10
4.884440
 20
1.666720
  0
VERTEX
  8
0
  6
CONTINUOUS
 10
4.889720
 20
2.389640
  0
VERTEX
  8
0
  6
CONTINUOUS
 10
4.952640
 20
2.403280
  0
VERTEX
  8
0
  6
CONTINUOUS
 10
4.946920
 20
1.680360
  0
VERTEX
  8
0
  6
CONTINUOUS
 10
4.884440
 20
1.666720
  0
SEQEND
  8
0
  0
SOLID
  8
0
 62
    15
 10
4.946920
 20
1.680360
 11
4.952640
 21
2.403280
 12
5.004120
 22
1.696200
 13
5.009840
 23
2.419120
  0
POLYLINE
  8
0
  6
CONTINUOUS
 66
     1
 40
0.000000
 41
0.000000
  0
VERTEX
  8
0
  6
CONTINUOUS
 10
4.946920
 20
1.680360
  0
VERTEX
  8
0
  6
CONTINUOUS
 10
4.952640
 20
2.403280
  0
VERTEX
  8
0
  6
CONTINUOUS
 10
5.009840
 20
2.419120
  0
VERTEX
  8
0
  6
CONTINUOUS
 10
5.004120
 20
1.696200
  0
VERTEX
  8
0
  6
CONTINUOUS
 10
4.946920
 20
1.680360
  0
SEQEND
  8
0
  0
SOLID
  8
0
 62
    15
 10
5.004120
 20
1.696200
 11
5.009840
 21
2.419120
 12
5.055160
 22
1.713800
 13
5.060880
 23
2.436720
  0
POLYLINE
  8
0
  6
CONTINUOUS
 66
     1
 40
0.000000
 41
0.000000
  0
VERTEX
  8
0
  6
CONTINUOUS
 10
5.004120
 20
1.696200
  0
VERTEX
  8
0
  6
CONTINUOUS
 10
5.009840
 20
2.419120
  0
VERTEX
  8
0
  6
CONTINUOUS
 10
5.060880
 20
2.436720
  0
VERTEX
  8
0
  6
CONTINUOUS
 10
5.055160
 20
1.713800
  0
VERTEX
  8
0
  6
CONTINUOUS
 10
5.004120
 20
1.696200
  0
SEQEND
  8
0
  0
SOLID
  8
0
 62
    15
 10
5.055160
 20
1.713800
 11
5.060880
 21
2.436720
 12
5.099600
 22
1.732280
 13
5.105320
 23
2.455200
  0
POLYLINE
  8
0
  6
CONTINUOUS
 66
     1
 40
0.000000
 41
0.000000
  0
VERTEX
  8
0
  6
CONTINUOUS
 10
5.055160
 20
1.713800
  0
VERTEX
  8
0
  6
CONTINUOUS
 10
5.060880
 20
2.436720
  0
VERTEX
  8
0
  6
CONTINUOUS
 10
5.105320
 20
2.455200
  0
VERTEX
  8
0
  6
CONTINUOUS
 10
5.099600
 20
1.732280
  0
VERTEX
  8
0
  6
CONTINUOUS
 10
5.055160
 20
1.713800
  0
SEQEND
  8
0
  0
SOLID
  8
0
 62
    15
 10
5.099600
 20
1.732280
 11
5.105320
 21
2.455200
 12
5.137000
 22
1.750320
 13
5.142720
 23
2.473240
  0
POLYLINE
  8
0
  6
CONTINUOUS
 66
     1
 40
0.000000
 41
0.000000
  0
VERTEX
  8
0
  6
CONTINUOUS
 10
5.099600
 20
1.732280
  0
VERTEX
  8
0
  6
CONTINUOUS
 10
5.105320
 20
2.455200
  0
VERTEX
  8
0
  6
CONTINUOUS
 10
5.142720
 20
2.473240
  0
VERTEX
  8
0
  6
CONTINUOUS
 10
5.137000
 20
1.750320
  0
VERTEX
  8
0
  6
CONTINUOUS
 10
5.099600
 20
1.732280
  0
SEQEND
  8
0
  0
SOLID
  8
0
 62
    15
 10
5.137000
 20
1.750320
 11
5.142720
 21
2.473240
 12
5.166920
 22
1.767920
 13
5.172640
 23
2.490840
  0
POLYLINE
  8
0
  6
CONTINUOUS
 66
     1
 40
0.000000
 41
0.000000
  0
VERTEX
  8
0
  6
CONTINUOUS
 10
5.137000
 20
1.750320
  0
VERTEX
  8
0
  6
CONTINUOUS
 10
5.142720
 20
2.473240
  0
VERTEX
  8
0
  6
CONTINUOUS
 10
5.172640
 20
2.490840
  0
VERTEX
  8
0
  6
CONTINUOUS
 10
5.166920
 20
1.767920
  0
VERTEX
  8
0
  6
CONTINUOUS
 10
5.137000
 20
1.750320
  0
SEQEND
  8
0
  0
SOLID
  8
0
 62
    15
 10
5.166920
 20
1.767920
 11
5.172640
 21
2.490840
 12
5.188920
 22
1.784200
 13
5.194200
 23
2.507120
  0
POLYLINE
  8
0
  6
CONTINUOUS
 66
     1
 40
0.000000
 41
0.000000
  0
VERTEX
  8
0
  6
CONTINUOUS
 10
5.166920
 20
1.767920
  0
VERTEX
  8
0
  6
CONTINUOUS
 10
5.172640
 20
2.490840
  0
VERTEX
  8
0
  6
CONTINUOUS
 10
5.194200
 20
2.507120
  0
VERTEX
  8
0
  6
CONTINUOUS
 10
5.188920
 20
1.784200
  0
VERTEX
  8
0
  6
CONTINUOUS
 10
5.166920
 20
1.767920
  0
SEQEND
  8
0
  0
SOLID
  8
0
 62
    15
 10
5.188920
 20
1.784200
 11
5.194200
 21
2.507120
 12
5.208280
 22
1.794320
 13
5.214000
 23
2.517240
  0
POLYLINE
  8
0
  6
CONTINUOUS
 66
     1
 40
0.000000
 41
0.000000
  0
VERTEX
  8
0
  6
CONTINUOUS
 10
5.188920
 20
1.784200
  0
VERTEX
  8
0
  6
CONTINUOUS
 10
5.194200
 20
2.507120
  0
VERTEX
  8
0
  6
CONTINUOUS
 10
5.214000
 20
2.517240
  0
VERTEX
  8
0
  6
CONTINUOUS
 10
5.208280
 20
1.794320
  0
VERTEX
  8
0
  6
CONTINUOUS
 10
5.188920
 20
1.784200
  0
SEQEND
  8
0
  0
SOLID
  8
0
 62
    15
 10
5.208280
 20
1.794320
 11
5.214000
 21
2.517240
 12
5.227200
 22
1.796960
 13
5.232920
 23
2.519880
  0
POLYLINE
  8
0
  6
CONTINUOUS
 66
     1
 40
0.000000
 41
0.000000
  0
VERTEX
  8
0
  6
CONTINUOUS
 10
5.208280
 20
1.794320
  0
VERTEX
  8
0
  6
CONTINUOUS
 10
5.214000
 20
2.517240
  0
VERTEX
  8
0
  6
CONTINUOUS
 10
5.232920
 20
2.519880
  0
VERTEX
  8
0
  6
CONTINUOUS
 10
5.227200
 20
1.796960
  0
VERTEX
  8
0
  6
CONTINUOUS
 10
5.208280
 20
1.794320
  0
SEQEND
  8
0
  0
SOLID
  8
0
 62
    15
 10
5.227200
 20
1.796960
 11
5.232920
 21
2.519880
 12
5.243920
 22
1.794320
 13
5.249200
 23
2.517240
  0
POLYLINE
  8
0
  6
CONTINUOUS
 66
     1
 40
0.000000
 41
0.000000
  0
VERTEX
  8
0
  6
CONTINUOUS
 10
5.227200
 20
1.796960
  0
VERTEX
  8
0
  6
CONTINUOUS
 10
5.232920
 20
2.519880
  0
VERTEX
  8
0
  6
CONTINUOUS
 10
5.249200
 20
2.517240
  0
VERTEX
  8
0
  6
CONTINUOUS
 10
5.243920
 20
1.794320
  0
VERTEX
  8
0
  6
CONTINUOUS
 10
5.227200
 20
1.796960
  0
SEQEND
  8
0
  0
SOLID
  8
0
 62
    15
 10
5.243920
 20
1.794320
 11
5.249200
 21
2.517240
 12
5.256240
 22
1.788160
 13
5.261960
 23
2.511080
  0
POLYLINE
  8
0
  6
CONTINUOUS
 66
     1
 40
0.000000
 41
0.000000
  0
VERTEX
  8
0
  6
CONTINUOUS
 10
5.243920
 20
1.794320
  0
VERTEX
  8
0
  6
CONTINUOUS
 10
5.249200
 20
2.517240
  0
VERTEX
  8
0
  6
CONTINUOUS
 10
5.261960
 20
2.511080
  0
VERTEX
  8
0
  6
CONTINUOUS
 10
5.256240
 20
1.788160
  0
VERTEX
  8
0
  6
CONTINUOUS
 10
5.243920
 20
1.794320
  0
SEQEND
  8
0
  0
SOLID
  8
0
 62
    15
 10
5.256240
 20
1.788160
 11
5.261960
 21
2.511080
 12
5.284400
 22
1.769240
 13
5.290120
 23
2.492600
  0
POLYLINE
  8
0
  6
CONTINUOUS
 66
     1
 40
0.000000
 41
0.000000
  0
VERTEX
  8
0
  6
CONTINUOUS
 10
5.256240
 20
1.788160
  0
VERTEX
  8
0
  6
CONTINUOUS
 10
5.261960
 20
2.511080
  0
VERTEX
  8
0
  6
CONTINUOUS
 10
5.290120
 20
2.492600
  0
VERTEX
  8
0
  6
CONTINUOUS
 10
5.284400
 20
1.769240
  0
VERTEX
  8
0
  6
CONTINUOUS
 10
5.256240
 20
1.788160
  0
SEQEND
  8
0
  0
SOLID
  8
0
 62
    15
 10
4.148760
 20
1.778480
 11
4.154040
 21
2.501400
 12
4.239400
 22
1.735800
 13
4.245120
 23
2.458720
  0
POLYLINE
  8
0
  6
CONTINUOUS
 66
     1
 40
0.000000
 41
0.000000
  0
VERTEX
  8
0
  6
CONTINUOUS
 10
4.148760
 20
1.778480
  0
VERTEX
  8
0
  6
CONTINUOUS
 10
4.154040
 20
2.501400
  0
VERTEX
  8
0
  6
CONTINUOUS
 10
4.245120
 20
2.458720
  0
VERTEX
  8
0
  6
CONTINUOUS
 10
4.239400
 20
1.735800
  0
VERTEX
  8
0
  6
CONTINUOUS
 10
4.148760
 20
1.778480
  0
SEQEND
  8
0
  0
SOLID
  8
0
 62
    15
 10
5.320480
 20
1.749880
 11
5.326200
 21
2.473240
 12
5.363600
 22
1.730960
 13
5.368880
 23
2.453880
  0
POLYLINE
  8
0
  6
CONTINUOUS
 66
     1
 40
0.000000
 41
0.000000
  0
VERTEX
  8
0
  6
CONTINUOUS
 10
5.320480
 20
1.749880
  0
VERTEX
  8
0
  6
CONTINUOUS
 10
5.326200
 20
2.473240
  0
VERTEX
  8
0
  6
CONTINUOUS
 10
5.368880
 20
2.453880
  0
VERTEX
  8
0
  6
CONTINUOUS
 10
5.363600
 20
1.730960
  0
VERTEX
  8
0
  6
CONTINUOUS
 10
5.320480
 20
1.749880
  0
SEQEND
  8
0
  0
SOLID
  8
0
 62
    15
 10
5.363600
 20
1.730960
 11
5.368880
 21
2.453880
 12
5.412880
 22
1.712480
 13
5.418160
 23
2.435400
  0
POLYLINE
  8
0
  6
CONTINUOUS
 66
     1
 40
0.000000
 41
0.000000
  0
VERTEX
  8
0
  6
CONTINUOUS
 10
5.363600
 20
1.730960
  0
VERTEX
  8
0
  6
CONTINUOUS
 10
5.368880
 20
2.453880
  0
VERTEX
  8
0
  6
CONTINUOUS
 10
5.418160
 20
2.435400
  0
VERTEX
  8
0
  6
CONTINUOUS
 10
5.412880
 20
1.712480
  0
VERTEX
  8
0
  6
CONTINUOUS
 10
5.363600
 20
1.730960
  0
SEQEND
  8
0
  0
SOLID
  8
0
 62
    15
 10
5.412880
 20
1.712480
 11
5.418160
 21
2.435400
 12
5.467880
 22
1.695760
 13
5.473160
 23
2.418680
  0
POLYLINE
  8
0
  6
CONTINUOUS
 66
     1
 40
0.000000
 41
0.000000
  0
VERTEX
  8
0
  6
CONTINUOUS
 10
5.412880
 20
1.712480
  0
VERTEX
  8
0
  6
CONTINUOUS
 10
5.418160
 20
2.435400
  0
VERTEX
  8
0
  6
CONTINUOUS
 10
5.473160
 20
2.418680
  0
VERTEX
  8
0
  6
CONTINUOUS
 10
5.467880
 20
1.695760
  0
VERTEX
  8
0
  6
CONTINUOUS
 10
5.412880
 20
1.712480
  0
SEQEND
  8
0
  0
SOLID
  8
0
 62
    15
 10
5.467880
 20
1.695760
 11
5.473160
 21
2.418680
 12
5.527720
 22
1.680800
 13
5.533440
 23
2.403720
  0
POLYLINE
  8
0
  6
CONTINUOUS
 66
     1
 40
0.000000
 41
0.000000
  0
VERTEX
  8
0
  6
CONTINUOUS
 10
5.467880
 20
1.695760
  0
VERTEX
  8
0
  6
CONTINUOUS
 10
5.473160
 20
2.418680
  0
VERTEX
  8
0
  6
CONTINUOUS
 10
5.533440
 20
2.403720
  0
VERTEX
  8
0
  6
CONTINUOUS
 10
5.527720
 20
1.680800
  0
VERTEX
  8
0
  6
CONTINUOUS
 10
5.467880
 20
1.695760
  0
SEQEND
  8
0
  0
SOLID
  8
0
 62
    15
 10
5.527720
 20
1.680800
 11
5.533440
 21
2.403720
 12
5.592400
 22
1.668920
 13
5.598120
 23
2.391840
  0
POLYLINE
  8
0
  6
CONTINUOUS
 66
     1
 40
0.000000
 41
0.000000
  0
VERTEX
  8
0
  6
CONTINUOUS
 10
5.527720
 20
1.680800
  0
VERTEX
  8
0
  6
CONTINUOUS
 10
5.533440
 20
2.403720
  0
VERTEX
  8
0
  6
CONTINUOUS
 10
5.598120
 20
2.391840
  0
VERTEX
  8
0
  6
CONTINUOUS
 10
5.592400
 20
1.668920
  0
VERTEX
  8
0
  6
CONTINUOUS
 10
5.527720
 20
1.680800
  0
SEQEND
  8
0
  0
SOLID
  8
0
 62
    15
 10
5.592400
 20
1.668920
 11
5.598120
 21
2.391840
 12
5.661040
 22
1.660120
 13
5.666320
 23
2.383480
  0
POLYLINE
  8
0
  6
CONTINUOUS
 66
     1
 40
0.000000
 41
0.000000
  0
VERTEX
  8
0
  6
CONTINUOUS
 10
5.592400
 20
1.668920
  0
VERTEX
  8
0
  6
CONTINUOUS
 10
5.598120
 20
2.391840
  0
VERTEX
  8
0
  6
CONTINUOUS
 10
5.666320
 20
2.383480
  0
VERTEX
  8
0
  6
CONTINUOUS
 10
5.661040
 20
1.660120
  0
VERTEX
  8
0
  6
CONTINUOUS
 10
5.592400
 20
1.668920
  0
SEQEND
  8
0
  0
SOLID
  8
0
 62
    15
 10
5.661040
 20
1.660120
 11
5.666320
 21
2.383480
 12
5.732760
 22
1.655720
 13
5.738040
 23
2.378640
  0
POLYLINE
  8
0
  6
CONTINUOUS
 66
     1
 40
0.000000
 41
0.000000
  0
VERTEX
  8
0
  6
CONTINUOUS
 10
5.661040
 20
1.660120
  0
VERTEX
  8
0
  6
CONTINUOUS
 10
5.666320
 20
2.383480
  0
VERTEX
  8
0
  6
CONTINUOUS
 10
5.738040
 20
2.378640
  0
VERTEX
  8
0
  6
CONTINUOUS
 10
5.732760
 20
1.655720
  0
VERTEX
  8
0
  6
CONTINUOUS
 10
5.661040
 20
1.660120
  0
SEQEND
  8
0
  0
SOLID
  8
0
 62
    15
 10
5.732760
 20
1.655720
 11
5.738040
 21
2.378640
 12
5.806680
 22
1.656160
 13
5.812400
 23
2.379080
  0
POLYLINE
  8
0
  6
CONTINUOUS
 66
     1
 40
0.000000
 41
0.000000
  0
VERTEX
  8
0
  6
CONTINUOUS
 10
5.732760
 20
1.655720
  0
VERTEX
  8
0
  6
CONTINUOUS
 10
5.738040
 20
2.378640
  0
VERTEX
  8
0
  6
CONTINUOUS
 10
5.812400
 20
2.379080
  0
VERTEX
  8
0
  6
CONTINUOUS
 10
5.806680
 20
1.656160
  0
VERTEX
  8
0
  6
CONTINUOUS
 10
5.732760
 20
1.655720
  0
SEQEND
  8
0
  0
SOLID
  8
0
 62
    15
 10
5.806680
 20
1.656160
 11
5.812400
 21
2.379080
 12
5.883240
 22
1.661880
 13
5.888520
 23
2.384800
  0
POLYLINE
  8
0
  6
CONTINUOUS
 66
     1
 40
0.000000
 41
0.000000
  0
VERTEX
  8
0
  6
CONTINUOUS
 10
5.806680
 20
1.656160
  0
VERTEX
  8
0
  6
CONTINUOUS
 10
5.812400
 20
2.379080
  0
VERTEX
  8
0
  6
CONTINUOUS
 10
5.888520
 20
2.384800
  0
VERTEX
  8
0
  6
CONTINUOUS
 10
5.883240
 20
1.661880
  0
VERTEX
  8
0
  6
CONTINUOUS
 10
5.806680
 20
1.656160
  0
SEQEND
  8
0
  0
SOLID
  8
0
 62
    15
 10
5.883240
 20
1.661880
 11
5.888520
 21
2.384800
 12
5.960240
 22
1.673320
 13
5.965960
 23
2.396240
  0
POLYLINE
  8
0
  6
CONTINUOUS
 66
     1
 40
0.000000
 41
0.000000
  0
VERTEX
  8
0
  6
CONTINUOUS
 10
5.883240
 20
1.661880
  0
VERTEX
  8
0
  6
CONTINUOUS
 10
5.888520
 20
2.384800
  0
VERTEX
  8
0
  6
CONTINUOUS
 10
5.965960
 20
2.396240
  0
VERTEX
  8
0
  6
CONTINUOUS
 10
5.960240
 20
1.673320
  0
VERTEX
  8
0
  6
CONTINUOUS
 10
5.883240
 20
1.661880
  0
SEQEND
  8
0
  0
SOLID
  8
0
 62
    15
 10
5.960240
 20
1.673320
 11
5.965960
 21
2.396240
 12
6.038560
 22
1.691800
 13
6.043840
 23
2.414720
  0
POLYLINE
  8
0
  6
CONTINUOUS
 66
     1
 40
0.000000
 41
0.000000
  0
VERTEX
  8
0
  6
CONTINUOUS
 10
5.960240
 20
1.673320
  0
VERTEX
  8
0
  6
CONTINUOUS
 10
5.965960
 20
2.396240
  0
VERTEX
  8
0
  6
CONTINUOUS
 10
6.043840
 20
2.414720
  0
VERTEX
  8
0
  6
CONTINUOUS
 10
6.038560
 20
1.691800
  0
VERTEX
  8
0
  6
CONTINUOUS
 10
5.960240
 20
1.673320
  0
SEQEND
  8
0
  0
SOLID
  8
0
 62
    15
 10
6.038560
 20
1.691800
 11
6.043840
 21
2.414720
 12
6.116440
 22
1.717320
 13
6.122160
 23
2.440240
  0
POLYLINE
  8
0
  6
CONTINUOUS
 66
     1
 40
0.000000
 41
0.000000
  0
VERTEX
  8
0
  6
CONTINUOUS
 10
6.038560
 20
1.691800
  0
VERTEX
  8
0
  6
CONTINUOUS
 10
6.043840
 20
2.414720
  0
VERTEX
  8
0
  6
CONTINUOUS
 10
6.122160
 20
2.440240
  0
VERTEX
  8
0
  6
CONTINUOUS
 10
6.116440
 20
1.717320
  0
VERTEX
  8
0
  6
CONTINUOUS
 10
6.038560
 20
1.691800
  0
SEQEND
  8
0
  0
SOLID
  8
0
 62
    15
 10
6.116440
 20
1.717320
 11
6.122160
 21
2.440240
 12
6.193880
 22
1.751200
 13
6.199600
 23
2.474120
  0
POLYLINE
  8
0
  6
CONTINUOUS
 66
     1
 40
0.000000
 41
0.000000
  0
VERTEX
  8
0
  6
CONTINUOUS
 10
6.116440
 20
1.717320
  0
VERTEX
  8
0
  6
CONTINUOUS
 10
6.122160
 20
2.440240
  0
VERTEX
  8
0
  6
CONTINUOUS
 10
6.199600
 20
2.474120
  0
VERTEX
  8
0
  6
CONTINUOUS
 10
6.193880
 20
1.751200
  0
VERTEX
  8
0
  6
CONTINUOUS
 10
6.116440
 20
1.717320
  0
SEQEND
  8
0
  0
SOLID
  8
0
 62
    15
 10
6.193880
 20
1.751200
 11
6.199600
 21
2.474120
 12
6.270000
 22
1.793440
 13
6.275720
 23
2.516360
  0
POLYLINE
  8
0
  6
CONTINUOUS
 66
     1
 40
0.000000
 41
0.000000
  0
VERTEX
  8
0
  6
CONTINUOUS
 10
6.193880
 20
1.751200
  0
VERTEX
  8
0
  6
CONTINUOUS
 10
6.199600
 20
2.474120
  0
VERTEX
  8
0
  6
CONTINUOUS
 10
6.275720
 20
2.516360
  0
VERTEX
  8
0
  6
CONTINUOUS
 10
6.270000
 20
1.793440
  0
VERTEX
  8
0
  6
CONTINUOUS
 10
6.193880
 20
1.751200
  0
SEQEND
  8
0
  0
SOLID
  8
0
 62
    15
 10
7.128440
 20
1.793440
 11
7.134160
 21
2.516360
 12
7.128440
 22
0.887920
 13
7.134160
 23
1.611280
  0
POLYLINE
  8
0
  6
CONTINUOUS
 66
     1
 40
0.000000
 41
0.000000
  0
VERTEX
  8
0
  6
CONTINUOUS
 10
7.128440
 20
1.793440
  0
VERTEX
  8
0
  6
CONTINUOUS
 10
7.134160
 20
2.516360
  0
VERTEX
  8
0
  6
CONTINUOUS
 10
7.134160
 20
1.611280
  0
VERTEX
  8
0
  6
CONTINUOUS
 10
7.128440
 20
0.887920
  0
VERTEX
  8
0
  6
CONTINUOUS
 10
7.128440
 20
1.793440
  0
SEQEND
  8
0
  0
SOLID
  8
0
 62
    15
 10
6.270000
 20
1.793440
 11
6.275720
 21
2.516360
 12
7.128440
 22
1.793440
 13
7.134160
 23
2.516360
  0
POLYLINE
  8
0
  6
CONTINUOUS
 66
     1
 40
0.000000
 41
0.000000
  0
VERTEX
  8
0
  6
CONTINUOUS
 10
6.270000
 20
1.793440
  0
VERTEX
  8
0
  6
CONTINUOUS
 10
6.275720
 20
2.516360
  0
VERTEX
  8
0
  6
CONTINUOUS
 10
7.134160
 20
2.516360
  0
VERTEX
  8
0
  6
CONTINUOUS
 10
7.128440
 20
1.793440
  0
VERTEX
  8
0
  6
CONTINUOUS
 10
6.270000
 20
1.793440
  0
SEQEND
  8
0
  0
SOLID
  8
0
 62
    15
 10
2.944040
 20
1.491600
 11
2.949760
 21
2.214520
 12
3.249400
 22
1.490280
 13
3.254680
 23
2.213200
  0
POLYLINE
  8
0
  6
CONTINUOUS
 66
     1
 40
0.000000
 41
0.000000
  0
VERTEX
  8
0
  6
CONTINUOUS
 10
2.944040
 20
1.491600
  0
VERTEX
  8
0
  6
CONTINUOUS
 10
2.949760
 20
2.214520
  0
VERTEX
  8
0
  6
CONTINUOUS
 10
3.254680
 20
2.213200
  0
VERTEX
  8
0
  6
CONTINUOUS
 10
3.249400
 20
1.490280
  0
VERTEX
  8
0
  6
CONTINUOUS
 10
2.944040
 20
1.491600
  0
SEQEND
  8
0
  0
SOLID
  8
0
 62
    15
 10
3.249400
 20
1.490280
 11
3.254680
 21
2.213200
 12
3.277120
 22
1.778920
 13
3.282400
 23
2.501840
  0
POLYLINE
  8
0
  6
CONTINUOUS
 66
     1
 40
0.000000
 41
0.000000
  0
VERTEX
  8
0
  6
CONTINUOUS
 10
3.249400
 20
1.490280
  0
VERTEX
  8
0
  6
CONTINUOUS
 10
3.254680
 20
2.213200
  0
VERTEX
  8
0
  6
CONTINUOUS
 10
3.282400
 20
2.501840
  0
VERTEX
  8
0
  6
CONTINUOUS
 10
3.277120
 20
1.778920
  0
VERTEX
  8
0
  6
CONTINUOUS
 10
3.249400
 20
1.490280
  0
SEQEND
  8
0
  0
SOLID
  8
0
 62
    15
 10
3.277120
 20
1.778920
 11
3.282400
 21
2.501840
 12
4.145240
 22
1.778920
 13
4.150520
 23
2.501840
  0
POLYLINE
  8
0
  6
CONTINUOUS
 66
     1
 40
0.000000
 41
0.000000
  0
VERTEX
  8
0
  6
CONTINUOUS
 10
3.277120
 20
1.778920
  0
VERTEX
  8
0
  6
CONTINUOUS
 10
3.282400
 20
2.501840
  0
VERTEX
  8
0
  6
CONTINUOUS
 10
4.150520
 20
2.501840
  0
VERTEX
  8
0
  6
CONTINUOUS
 10
4.145240
 20
1.778920
  0
VERTEX
  8
0
  6
CONTINUOUS
 10
3.277120
 20
1.778920
  0
SEQEND
  8
0
  0
SOLID
  8
0
 62
    15
 10
4.145240
 20
1.778920
 11
4.150520
 21
2.501840
 12
4.148760
 22
1.778480
 13
4.154040
 23
2.501400
  0
POLYLINE
  8
0
  6
CONTINUOUS
 66
     1
 40
0.000000
 41
0.000000
  0
VERTEX
  8
0
  6
CONTINUOUS
 10
4.145240
 20
1.778920
  0
VERTEX
  8
0
  6
CONTINUOUS
 10
4.150520
 20
2.501840
  0
VERTEX
  8
0
  6
CONTINUOUS
 10
4.154040
 20
2.501400
  0
VERTEX
  8
0
  6
CONTINUOUS
 10
4.148760
 20
1.778480
  0
VERTEX
  8
0
  6
CONTINUOUS
 10
4.145240
 20
1.778920
  0
SEQEND
  8
0
  0
POLYLINE
  8
0
  6
CONTINUOUS
 66
     1
 40
0.000000
 41
0.000000
  0
VERTEX
  8
0
  6
CONTINUOUS
 10
4.148760
 20
1.778480
  0
VERTEX
  8
0
  6
CONTINUOUS
 10
4.239400
 20
1.735800
  0
VERTEX
  8
0
  6
CONTINUOUS
 10
4.329600
 20
1.702800
  0
VERTEX
  8
0
  6
CONTINUOUS
 10
4.417600
 20
1.678160
  0
VERTEX
  8
0
  6
CONTINUOUS
 10
4.503840
 20
1.661000
  0
VERTEX
  8
0
  6
CONTINUOUS
 10
4.587000
 20
1.651320
  0
VERTEX
  8
0
  6
CONTINUOUS
 10
4.667080
 20
1.647800
  0
VERTEX
  8
0
  6
CONTINUOUS
 10
4.744080
 20
1.649560
  0
VERTEX
  8
0
  6
CONTINUOUS
 10
4.816240
 20
1.656160
  0
VERTEX
  8
0
  6
CONTINUOUS
 10
4.884440
 20
1.666720
  0
VERTEX
  8
0
  6
CONTINUOUS
 10
4.946920
 20
1.680360
  0
VERTEX
  8
0
  6
CONTINUOUS
 10
5.004120
 20
1.696200
  0
VERTEX
  8
0
  6
CONTINUOUS
 10
5.055160
 20
1.713800
  0
VERTEX
  8
0
  6
CONTINUOUS
 10
5.099600
 20
1.732280
  0
VERTEX
  8
0
  6
CONTINUOUS
 10
5.137000
 20
1.750320
  0
VERTEX
  8
0
  6
CONTINUOUS
 10
5.166920
 20
1.767920
  0
VERTEX
  8
0
  6
CONTINUOUS
 10
5.188920
 20
1.784200
  0
VERTEX
  8
0
  6
CONTINUOUS
 10
5.208280
 20
1.794320
  0
VERTEX
  8
0
  6
CONTINUOUS
 10
5.227200
 20
1.796960
  0
VERTEX
  8
0
  6
CONTINUOUS
 10
5.243920
 20
1.794320
  0
VERTEX
  8
0
  6
CONTINUOUS
 10
5.256240
 20
1.788160
  0
VERTEX
  8
0
  6
CONTINUOUS
 10
5.284400
 20
1.769240
  0
VERTEX
  8
0
  6
CONTINUOUS
 10
5.320480
 20
1.749880
  0
VERTEX
  8
0
  6
CONTINUOUS
 10
5.363600
 20
1.730960
  0
VERTEX
  8
0
  6
CONTINUOUS
 10
5.412880
 20
1.712480
  0
VERTEX
  8
0
  6
CONTINUOUS
 10
5.467880
 20
1.695760
  0
VERTEX
  8
0
  6
CONTINUOUS
 10
5.527720
 20
1.680800
  0
VERTEX
  8
0
  6
CONTINUOUS
 10
5.592400
 20
1.668920
  0
VERTEX
  8
0
  6
CONTINUOUS
 10
5.661040
 20
1.660120
  0
VERTEX
  8
0
  6
CONTINUOUS
 10
5.732760
 20
1.655720
  0
VERTEX
  8
0
  6
CONTINUOUS
 10
5.806680
 20
1.656160
  0
VERTEX
  8
0
  6
CONTINUOUS
 10
5.883240
 20
1.661880
  0
VERTEX
  8
0
  6
CONTINUOUS
 10
5.960240
 20
1.673320
  0
VERTEX
  8
0
  6
CONTINUOUS
 10
6.038560
 20
1.691800
  0
VERTEX
  8
0
  6
CONTINUOUS
 10
6.116440
 20
1.717320
  0
VERTEX
  8
0
  6
CONTINUOUS
 10
6.193880
 20
1.751200
  0
VERTEX
  8
0
  6
CONTINUOUS
 10
6.270000
 20
1.793440
  0
VERTEX
  8
0
  6
CONTINUOUS
 10
7.128440
 20
1.793440
  0
VERTEX
  8
0
  6
CONTINUOUS
 10
7.128440
 20
0.887920
  0
VERTEX
  8
0
  6
CONTINUOUS
 10
2.944040
 20
0.887920
  0
VERTEX
  8
0
  6
CONTINUOUS
 10
2.944040
 20
1.491600
  0
VERTEX
  8
0
  6
CONTINUOUS
 10
3.249400
 20
1.490280
  0
VERTEX
  8
0
  6
CONTINUOUS
 10
3.277120
 20
1.778920
  0
VERTEX
  8
0
  6
CONTINUOUS
 10
4.145240
 20
1.778920
  0
VERTEX
  8
0
  6
CONTINUOUS
 10
4.148760
 20
1.778480
  0
SEQEND
  8
0
  0
TEXT
  8
0
 10
4.744520
 20
0.605440
 40
0.138257
  1
BA  183
 41
1.000000
  7
SN0
 71
     0
 72
     5
 11
5.335235
 21
0.605440
  0
TEXT
  8
0
 10
4.542560
 20
0.414040
 40
0.138257
  1
7/8" x 4-3/16"
 41
1.000000
  7
SN0
 71
     0
 72
     5
 11
5.536233
 21
0.414040
  0
TEXT
  8
0
 10
7.685480
 20
4.034800
 40
0.138257
  1
case
 41
1.000000
  7
SN0
 71
     0
 72
     5
 11
8.036626
 21
4.034800
  0
TEXT
  8
0
 10
7.722440
 20
3.842960
 40
0.138257
  1
183
 41
1.000000
  7
SN0
 71
     0
 72
     5
 11
7.999714
 21
3.842960
  0
POLYLINE
  8
0
  6
CONTINUOUS
 66
     1
 40
0.014080
 41
0.014080
  0
VERTEX
  8
0
  6
CONTINUOUS
 10
4.117960
 20
3.968800
  0
VERTEX
  8
0
  6
CONTINUOUS
 10
4.163720
 20
3.946360
  0
VERTEX
  8
0
  6
CONTINUOUS
 10
4.209040
 20
3.926120
  0
VERTEX
  8
0
  6
CONTINUOUS
 10
4.253920
 20
3.908520
  0
VERTEX
  8
0
  6
CONTINUOUS
 10
4.343240
 20
3.879480
  0
VERTEX
  8
0
  6
CONTINUOUS
 10
4.430360
 20
3.858800
  0
VERTEX
  8
0
  6
CONTINUOUS
 10
4.473040
 20
3.851320
  0
VERTEX
  8
0
  6
CONTINUOUS
 10
4.514840
 20
3.845600
  0
VERTEX
  8
0
  6
CONTINUOUS
 10
4.597120
 20
3.839000
  0
VERTEX
  8
0
  6
CONTINUOUS
 10
4.675440
 20
3.838560
  0
VERTEX
  8
0
  6
CONTINUOUS
 10
4.713280
 20
3.839880
  0
VERTEX
  8
0
  6
CONTINUOUS
 10
4.785880
 20
3.846480
  0
VERTEX
  8
0
  6
CONTINUOUS
 10
4.853640
 20
3.857040
  0
VERTEX
  8
0
  6
CONTINUOUS
 10
4.916560
 20
3.870680
  0
VERTEX
  8
0
  6
CONTINUOUS
 10
4.973320
 20
3.886520
  0
VERTEX
  8
0
  6
CONTINUOUS
 10
5.024800
 20
3.904120
  0
VERTEX
  8
0
  6
CONTINUOUS
 10
5.088600
 20
3.931840
  0
VERTEX
  8
0
  6
CONTINUOUS
 10
5.136560
 20
3.958680
  0
VERTEX
  8
0
  6
CONTINUOUS
 10
5.167800
 20
3.980680
  0
VERTEX
  8
0
  6
CONTINUOUS
 10
5.177920
 20
3.985080
  0
VERTEX
  8
0
  6
CONTINUOUS
 10
5.187160
 20
3.987280
  0
VERTEX
  8
0
  6
CONTINUOUS
 10
5.196840
 20
3.987720
  0
VERTEX
  8
0
  6
CONTINUOUS
 10
5.213120
 20
3.985080
  0
VERTEX
  8
0
  6
CONTINUOUS
 10
5.225880
 20
3.978920
  0
VERTEX
  8
0
  6
CONTINUOUS
 10
5.254040
 20
3.960000
  0
VERTEX
  8
0
  6
CONTINUOUS
 10
5.310360
 20
3.930960
  0
VERTEX
  8
0
  6
CONTINUOUS
 10
5.356560
 20
3.912040
  0
VERTEX
  8
0
  6
CONTINUOUS
 10
5.437080
 20
3.886080
  0
VERTEX
  8
0
  6
CONTINUOUS
 10
5.529040
 20
3.864960
  0
VERTEX
  8
0
  6
CONTINUOUS
 10
5.595480
 20
3.854840
  0
VERTEX
  8
0
  6
CONTINUOUS
 10
5.665880
 20
3.847800
  0
VERTEX
  8
0
  6
CONTINUOUS
 10
5.738920
 20
3.845600
  0
VERTEX
  8
0
  6
CONTINUOUS
 10
5.814160
 20
3.848680
  0
VERTEX
  8
0
  6
CONTINUOUS
 10
5.891160
 20
3.857040
  0
VERTEX
  8
0
  6
CONTINUOUS
 10
5.929880
 20
3.863640
  0
VERTEX
  8
0
  6
CONTINUOUS
 10
5.969040
 20
3.872000
  0
VERTEX
  8
0
  6
CONTINUOUS
 10
6.046920
 20
3.894000
  0
VERTEX
  8
0
  6
CONTINUOUS
 10
6.086080
 20
3.907640
  0
VERTEX
  8
0
  6
CONTINUOUS
 10
6.124800
 20
3.923480
  0
VERTEX
  8
0
  6
CONTINUOUS
 10
6.163520
 20
3.941520
  0
VERTEX
  8
0
  6
CONTINUOUS
 10
6.201800
 20
3.961320
  0
VERTEX
  8
0
  6
CONTINUOUS
 10
6.239640
 20
3.983760
  0
VERTEX
  8
0
  6
CONTINUOUS
 10
7.097640
 20
3.983760
  0
VERTEX
  8
0
  6
CONTINUOUS
 10
7.097640
 20
3.078680
  0
VERTEX
  8
0
  6
CONTINUOUS
 10
2.913680
 20
3.078680
  0
VERTEX
  8
0
  6
CONTINUOUS
 10
2.913680
 20
3.681920
  0
VERTEX
  8
0
  6
CONTINUOUS
 10
3.218600
 20
3.681040
  0
VERTEX
  8
0
  6
CONTINUOUS
 10
3.246320
 20
3.969240
  0
VERTEX
  8
0
  6
CONTINUOUS
 10
4.117960
 20
3.968800
  0
SEQEND
  8
0
  0
ENDSEC
  0
EOF
