  0
SECTION
  2
HEADER
  9
$ACADVER
  1
AC1006
  9
$EXTMIN
 10
0.999753
 20
0.307078
  9
$EXTMAX
 10
19.436092
 20
7.582105
  9
$LTSCALE
 40
0.077741
  9
$PDMODE
 70
    35
  9
$PDSIZE
 40
0.062193
  0
ENDSEC
  0
SECTION
  2
TABLES
  0
TABLE
  2
LTYPE
 70
     9
  0
LTYPE
  2
CONTINUOUS
 70
    64
  3
Solid line
 72
    65
 73
     0
 40
0.000000
  0
LTYPE
  2
DASHED
 70
    64
  3
__ __ __ __ __ __ __ __ __ __ __ __ __ __ __
 72
    65
 73
     2
 40
0.000583
 49
0.000389
 49
-0.000194
  0
LTYPE
  2
HIDDEN
 70
    64
  3
 _ _ _ _ _ _ _ _ _ _ _ _ _ _ _ _ _ _ _ _ _ _
 72
    65
 73
     2
 40
0.000292
 49
0.000194
 49
-0.000097
  0
LTYPE
  2
CENTER
 70
    64
  3
____ _ ____ _ ____ _ ____ _ ____ _ ____ _ ____
 72
    65
 73
     4
 40
0.001555
 49
0.000972
 49
-0.000194
 49
0.000194
 49
-0.000194
  0
LTYPE
  2
PHANTOM
 70
    64
  3
_____ _ _ _____ _ _ _____ _ _ _____ _ _ ____
 72
    65
 73
     6
 40
0.001944
 49
0.000972
 49
-0.000194
 49
0.000194
 49
-0.000194
 49
0.000194
 49
-0.000194
  0
LTYPE
  2
DOT
 70
    64
  3
...............................................
 72
    65
 73
     2
 40
0.000194
 49
0.000000
 49
-0.000194
  0
LTYPE
  2
DASHDOT
 70
    64
  3
__ . __ . __ . __ . __ . __ . __ . __ . __ . __
 72
    65
 73
     4
 40
0.000777
 49
0.000389
 49
-0.000194
 49
0.000000
 49
-0.000194
  0
LTYPE
  2
BORDER
 70
    64
  3
__ __ . __ __ . __ __ . __ __ . __ __ . __ __
 72
    65
 73
     6
 40
0.001360
 49
0.000389
 49
-0.000194
 49
0.000389
 49
-0.000194
 49
0.000000
 49
-0.000194
  0
LTYPE
  2
DIVIDE
 70
    64
  3
__ . . __ . . __ . . __ . . __ . . __ . . __
 72
    65
 73
     6
 40
0.000972
 49
0.000389
 49
-0.000194
 49
0.000000
 49
-0.000194
 49
0.000000
 49
-0.000194
  0
LTYPE
  2
DOTDOT
 70
    64
  3
 . .  . .  . .  . .  . .  . . 
 72
    65
 73
     5
 40
0.000428
 49
-0.000194
 49
0.000000
 49
-0.000194
 49
0.000000
 49
-0.000194
  0
ENDTAB
  0
TABLE
  2
STYLE
 70
     4
  0
STYLE
 70
     0
  2
SN0
 40
0.000000
 41
0.000777
 50
0.000000
 71
     0
 42
0.000000
  3
ROMAND
  0
STYLE
 70
    68
  2
SV0
 40
0.000000
 41
0.000777
 50
0.000000
 71
     0
 42
0.000000
  3
ROMAND
  0
STYLE
 70
     0
  2
SN1
 40
0.000000
 41
0.000777
 50
0.000000
 71
     0
 42
0.000000
  3
ROMAND
  0
STYLE
 70
    68
  2
SV1
 40
0.000000
 41
0.000777
 50
0.000000
 71
     0
 42
0.000000
  3
ROMAND
  0
ENDTAB
  0
TABLE
  2
LAYER
 70
     3
  0
LAYER
  2
FOREGROUND
 70
    64
 62
     7
  6
CONTINUOUS
  0
LAYER
  2
BACKGROUND
 70
    65
 62
    -7
  6
CONTINUOUS
  0
LAYER
  2
0
 70
    64
 62
     7
  6
CONTINUOUS
  0
ENDTAB
  0
ENDSEC
  0
SECTION
  2
ENTITIES
  0
POLYLINE
  8
FOREGROUND
  6
CONTINUOUS
 66
     1
 40
0.000000
 41
0.000000
  0
VERTEX
  8
FOREGROUND
  6
CONTINUOUS
 10
0.000000
 20
7.889183
  0
VERTEX
  8
FOREGROUND
  6
CONTINUOUS
 10
8.500229
 20
7.889183
  0
VERTEX
  8
FOREGROUND
  6
CONTINUOUS
 10
8.500229
 20
-3.111205
  0
VERTEX
  8
FOREGROUND
  6
CONTINUOUS
 10
0.000000
 20
-3.111205
  0
VERTEX
  8
FOREGROUND
  6
CONTINUOUS
 10
0.000000
 20
7.889183
  0
SEQEND
  8
0
  0
POLYLINE
  8
FOREGROUND
  6
CONTINUOUS
 66
     1
 40
0.000000
 41
0.000000
  0
VERTEX
  8
FOREGROUND
  6
CONTINUOUS
 10
0.000000
 20
7.889183
  0
VERTEX
  8
FOREGROUND
  6
CONTINUOUS
 10
8.500229
 20
7.889183
  0
VERTEX
  8
FOREGROUND
  6
CONTINUOUS
 10
8.500229
 20
-3.111205
  0
VERTEX
  8
FOREGROUND
  6
CONTINUOUS
 10
0.000000
 20
-3.111205
  0
VERTEX
  8
FOREGROUND
  6
CONTINUOUS
 10
0.000000
 20
7.889183
  0
SEQEND
  8
0
  0
TEXT
  8
0
 10
19.403441
 20
0.312520
 40
0.010985
  1
B242
 41
1.000000
  7
SN0
 71
     0
 72
     5
 11
19.431096
 21
0.312520
  0
POLYLINE
  8
0
  6
CONTINUOUS
 66
     1
 40
0.013993
 41
0.013993
  0
VERTEX
  8
0
  6
CONTINUOUS
 10
4.107848
 20
6.731616
  0
VERTEX
  8
0
  6
CONTINUOUS
 10
4.114067
 20
6.611894
  0
VERTEX
  8
0
  6
CONTINUOUS
 10
4.119509
 20
6.606452
  0
VERTEX
  8
0
  6
CONTINUOUS
 10
4.384607
 20
6.587017
  0
VERTEX
  8
0
  6
CONTINUOUS
 10
4.556415
 20
6.568359
  0
VERTEX
  8
0
  6
CONTINUOUS
 10
4.707233
 20
6.546591
  0
VERTEX
  8
0
  6
CONTINUOUS
 10
4.877487
 20
6.511608
  0
VERTEX
  8
0
  6
CONTINUOUS
 10
4.983215
 20
6.480511
  0
VERTEX
  8
0
  6
CONTINUOUS
 10
5.072617
 20
6.445528
  0
VERTEX
  8
0
  6
CONTINUOUS
 10
5.146471
 20
6.406657
  0
VERTEX
  8
0
  6
CONTINUOUS
 10
5.205555
 20
6.363122
  0
VERTEX
  8
0
  6
CONTINUOUS
 10
5.251422
 20
6.314923
  0
VERTEX
  8
0
  6
CONTINUOUS
 10
5.286406
 20
6.262058
  0
VERTEX
  8
0
  6
CONTINUOUS
 10
5.794056
 20
6.267500
  0
VERTEX
  8
0
  6
CONTINUOUS
 10
5.810382
 20
6.735503
  0
VERTEX
  8
0
  6
CONTINUOUS
 10
6.673310
 20
6.735503
  0
VERTEX
  8
0
  6
CONTINUOUS
 10
6.694300
 20
6.478179
  0
VERTEX
  8
0
  6
CONTINUOUS
 10
7.044136
 20
6.461854
  0
VERTEX
  8
0
  6
CONTINUOUS
 10
7.066681
 20
6.222410
  0
VERTEX
  8
0
  6
CONTINUOUS
 10
7.156860
 20
6.222410
  0
VERTEX
  8
0
  6
CONTINUOUS
 10
7.156860
 20
6.220856
  0
VERTEX
  8
0
  6
CONTINUOUS
 10
7.171631
 20
6.269055
  0
VERTEX
  8
0
  6
CONTINUOUS
 10
7.194176
 20
6.314145
  0
VERTEX
  8
0
  6
CONTINUOUS
 10
7.222940
 20
6.354571
  0
VERTEX
  8
0
  6
CONTINUOUS
 10
7.257924
 20
6.388777
  0
VERTEX
  8
0
  6
CONTINUOUS
 10
7.297572
 20
6.417541
  0
VERTEX
  8
0
  6
CONTINUOUS
 10
7.342662
 20
6.439309
  0
VERTEX
  8
0
  6
CONTINUOUS
 10
7.390862
 20
6.452525
  0
VERTEX
  8
0
  6
CONTINUOUS
 10
7.442171
 20
6.457189
  0
VERTEX
  8
0
  6
CONTINUOUS
 10
7.472490
 20
6.455634
  0
VERTEX
  8
0
  6
CONTINUOUS
 10
7.502032
 20
6.450970
  0
VERTEX
  8
0
  6
CONTINUOUS
 10
7.558005
 20
6.433089
  0
VERTEX
  8
0
  6
CONTINUOUS
 10
7.609315
 20
6.405880
  0
VERTEX
  8
0
  6
CONTINUOUS
 10
7.653627
 20
6.368564
  0
VERTEX
  8
0
  6
CONTINUOUS
 10
7.690943
 20
6.324251
  0
VERTEX
  8
0
  6
CONTINUOUS
 10
7.718152
 20
6.272942
  0
VERTEX
  8
0
  6
CONTINUOUS
 10
7.736033
 20
6.216969
  0
VERTEX
  8
0
  6
CONTINUOUS
 10
7.740697
 20
6.187427
  0
VERTEX
  8
0
  6
CONTINUOUS
 10
7.742252
 20
6.157108
  0
VERTEX
  8
0
  6
CONTINUOUS
 10
7.740697
 20
6.126789
  0
VERTEX
  8
0
  6
CONTINUOUS
 10
7.736033
 20
6.097247
  0
VERTEX
  8
0
  6
CONTINUOUS
 10
7.718152
 20
6.041273
  0
VERTEX
  8
0
  6
CONTINUOUS
 10
7.690943
 20
5.989964
  0
VERTEX
  8
0
  6
CONTINUOUS
 10
7.653627
 20
5.945652
  0
VERTEX
  8
0
  6
CONTINUOUS
 10
7.609315
 20
5.908336
  0
VERTEX
  8
0
  6
CONTINUOUS
 10
7.558005
 20
5.881126
  0
VERTEX
  8
0
  6
CONTINUOUS
 10
7.502032
 20
5.863246
  0
VERTEX
  8
0
  6
CONTINUOUS
 10
7.472490
 20
5.858581
  0
VERTEX
  8
0
  6
CONTINUOUS
 10
7.404855
 20
5.857027
  0
VERTEX
  8
0
  6
CONTINUOUS
 10
7.404078
 20
5.855472
  0
VERTEX
  8
0
  6
CONTINUOUS
 10
1.046397
 20
5.855472
  0
VERTEX
  8
0
  6
CONTINUOUS
 10
1.046397
 20
6.743277
  0
VERTEX
  8
0
  6
CONTINUOUS
 10
1.624792
 20
6.742499
  0
VERTEX
  8
0
  6
CONTINUOUS
 10
1.695537
 20
6.283826
  0
VERTEX
  8
0
  6
CONTINUOUS
 10
2.120782
 20
6.272942
  0
VERTEX
  8
0
  6
CONTINUOUS
 10
2.137107
 20
6.298597
  0
VERTEX
  8
0
  6
CONTINUOUS
 10
2.178310
 20
6.345242
  0
VERTEX
  8
0
  6
CONTINUOUS
 10
2.228065
 20
6.386444
  0
VERTEX
  8
0
  6
CONTINUOUS
 10
2.286370
 20
6.423760
  0
VERTEX
  8
0
  6
CONTINUOUS
 10
2.386657
 20
6.470405
  0
VERTEX
  8
0
  6
CONTINUOUS
 10
2.460511
 20
6.496837
  0
VERTEX
  8
0
  6
CONTINUOUS
 10
2.539030
 20
6.519382
  0
VERTEX
  8
0
  6
CONTINUOUS
 10
2.621435
 20
6.538817
  0
VERTEX
  8
0
  6
CONTINUOUS
 10
2.706951
 20
6.555920
  0
VERTEX
  8
0
  6
CONTINUOUS
 10
2.881091
 20
6.581575
  0
VERTEX
  8
0
  6
CONTINUOUS
 10
3.137637
 20
6.605675
  0
VERTEX
  8
0
  6
CONTINUOUS
 10
3.294675
 20
6.616559
  0
VERTEX
  8
0
  6
CONTINUOUS
 10
3.307891
 20
6.737058
  0
VERTEX
  8
0
  6
CONTINUOUS
 10
4.089190
 20
6.737058
  0
VERTEX
  8
0
  6
CONTINUOUS
 10
4.107848
 20
6.731616
  0
SEQEND
  8
0
  0
SOLID
  8
0
 62
    15
 10
7.251705
 20
4.476342
 11
7.254814
 21
5.204000
 12
7.296795
 22
4.497332
 13
7.299127
 23
5.224990
  0
POLYLINE
  8
0
  6
CONTINUOUS
 66
     1
 40
0.000000
 41
0.000000
  0
VERTEX
  8
0
  6
CONTINUOUS
 10
7.251705
 20
4.476342
  0
VERTEX
  8
0
  6
CONTINUOUS
 10
7.254814
 20
5.204000
  0
VERTEX
  8
0
  6
CONTINUOUS
 10
7.299127
 20
5.224990
  0
VERTEX
  8
0
  6
CONTINUOUS
 10
7.296795
 20
4.497332
  0
VERTEX
  8
0
  6
CONTINUOUS
 10
7.251705
 20
4.476342
  0
SEQEND
  8
0
  0
SOLID
  8
0
 62
    15
 10
4.068978
 20
4.669917
 11
4.071310
 21
5.397576
 12
4.074419
 22
4.664476
 13
4.076752
 23
5.392911
  0
POLYLINE
  8
0
  6
CONTINUOUS
 66
     1
 40
0.000000
 41
0.000000
  0
VERTEX
  8
0
  6
CONTINUOUS
 10
4.068978
 20
4.669917
  0
VERTEX
  8
0
  6
CONTINUOUS
 10
4.071310
 20
5.397576
  0
VERTEX
  8
0
  6
CONTINUOUS
 10
4.076752
 20
5.392911
  0
VERTEX
  8
0
  6
CONTINUOUS
 10
4.074419
 20
4.664476
  0
VERTEX
  8
0
  6
CONTINUOUS
 10
4.068978
 20
4.669917
  0
SEQEND
  8
0
  0
SOLID
  8
0
 62
    15
 10
4.074419
 20
4.664476
 11
4.076752
 21
5.392911
 12
4.212021
 22
4.655924
 13
4.214354
 23
5.383582
  0
POLYLINE
  8
0
  6
CONTINUOUS
 66
     1
 40
0.000000
 41
0.000000
  0
VERTEX
  8
0
  6
CONTINUOUS
 10
4.074419
 20
4.664476
  0
VERTEX
  8
0
  6
CONTINUOUS
 10
4.076752
 20
5.392911
  0
VERTEX
  8
0
  6
CONTINUOUS
 10
4.214354
 20
5.383582
  0
VERTEX
  8
0
  6
CONTINUOUS
 10
4.212021
 20
4.655924
  0
VERTEX
  8
0
  6
CONTINUOUS
 10
4.074419
 20
4.664476
  0
SEQEND
  8
0
  0
SOLID
  8
0
 62
    15
 10
4.212021
 20
4.655924
 11
4.214354
 21
5.383582
 12
4.338740
 22
4.645040
 13
4.341849
 23
5.373476
  0
POLYLINE
  8
0
  6
CONTINUOUS
 66
     1
 40
0.000000
 41
0.000000
  0
VERTEX
  8
0
  6
CONTINUOUS
 10
4.212021
 20
4.655924
  0
VERTEX
  8
0
  6
CONTINUOUS
 10
4.214354
 20
5.383582
  0
VERTEX
  8
0
  6
CONTINUOUS
 10
4.341849
 20
5.373476
  0
VERTEX
  8
0
  6
CONTINUOUS
 10
4.338740
 20
4.645040
  0
VERTEX
  8
0
  6
CONTINUOUS
 10
4.212021
 20
4.655924
  0
SEQEND
  8
0
  0
SOLID
  8
0
 62
    15
 10
4.338740
 20
4.645040
 11
4.341849
 21
5.373476
 12
4.456129
 22
4.633379
 13
4.458461
 23
5.361037
  0
POLYLINE
  8
0
  6
CONTINUOUS
 66
     1
 40
0.000000
 41
0.000000
  0
VERTEX
  8
0
  6
CONTINUOUS
 10
4.338740
 20
4.645040
  0
VERTEX
  8
0
  6
CONTINUOUS
 10
4.341849
 20
5.373476
  0
VERTEX
  8
0
  6
CONTINUOUS
 10
4.458461
 20
5.361037
  0
VERTEX
  8
0
  6
CONTINUOUS
 10
4.456129
 20
4.633379
  0
VERTEX
  8
0
  6
CONTINUOUS
 10
4.338740
 20
4.645040
  0
SEQEND
  8
0
  0
SOLID
  8
0
 62
    15
 10
4.456129
 20
4.633379
 11
4.458461
 21
5.361037
 12
4.563412
 22
4.620163
 13
4.566522
 23
5.347821
  0
POLYLINE
  8
0
  6
CONTINUOUS
 66
     1
 40
0.000000
 41
0.000000
  0
VERTEX
  8
0
  6
CONTINUOUS
 10
4.456129
 20
4.633379
  0
VERTEX
  8
0
  6
CONTINUOUS
 10
4.458461
 20
5.361037
  0
VERTEX
  8
0
  6
CONTINUOUS
 10
4.566522
 20
5.347821
  0
VERTEX
  8
0
  6
CONTINUOUS
 10
4.563412
 20
4.620163
  0
VERTEX
  8
0
  6
CONTINUOUS
 10
4.456129
 20
4.633379
  0
SEQEND
  8
0
  0
SOLID
  8
0
 62
    15
 10
4.563412
 20
4.620163
 11
4.566522
 21
5.347821
 12
4.661366
 22
4.604615
 13
4.664476
 23
5.333050
  0
POLYLINE
  8
0
  6
CONTINUOUS
 66
     1
 40
0.000000
 41
0.000000
  0
VERTEX
  8
0
  6
CONTINUOUS
 10
4.563412
 20
4.620163
  0
VERTEX
  8
0
  6
CONTINUOUS
 10
4.566522
 20
5.347821
  0
VERTEX
  8
0
  6
CONTINUOUS
 10
4.664476
 20
5.333050
  0
VERTEX
  8
0
  6
CONTINUOUS
 10
4.661366
 20
4.604615
  0
VERTEX
  8
0
  6
CONTINUOUS
 10
4.563412
 20
4.620163
  0
SEQEND
  8
0
  0
SOLID
  8
0
 62
    15
 10
4.661366
 20
4.604615
 11
4.664476
 21
5.333050
 12
4.750768
 22
4.588289
 13
4.753878
 23
5.315947
  0
POLYLINE
  8
0
  6
CONTINUOUS
 66
     1
 40
0.000000
 41
0.000000
  0
VERTEX
  8
0
  6
CONTINUOUS
 10
4.661366
 20
4.604615
  0
VERTEX
  8
0
  6
CONTINUOUS
 10
4.664476
 20
5.333050
  0
VERTEX
  8
0
  6
CONTINUOUS
 10
4.753878
 20
5.315947
  0
VERTEX
  8
0
  6
CONTINUOUS
 10
4.750768
 20
4.588289
  0
VERTEX
  8
0
  6
CONTINUOUS
 10
4.661366
 20
4.604615
  0
SEQEND
  8
0
  0
SOLID
  8
0
 62
    15
 10
4.750768
 20
4.588289
 11
4.753878
 21
5.315947
 12
4.831619
 22
4.569631
 13
4.834729
 23
5.298067
  0
POLYLINE
  8
0
  6
CONTINUOUS
 66
     1
 40
0.000000
 41
0.000000
  0
VERTEX
  8
0
  6
CONTINUOUS
 10
4.750768
 20
4.588289
  0
VERTEX
  8
0
  6
CONTINUOUS
 10
4.753878
 20
5.315947
  0
VERTEX
  8
0
  6
CONTINUOUS
 10
4.834729
 20
5.298067
  0
VERTEX
  8
0
  6
CONTINUOUS
 10
4.831619
 20
4.569631
  0
VERTEX
  8
0
  6
CONTINUOUS
 10
4.750768
 20
4.588289
  0
SEQEND
  8
0
  0
SOLID
  8
0
 62
    15
 10
4.831619
 20
4.569631
 11
4.834729
 21
5.298067
 12
4.904696
 22
4.549419
 13
4.907028
 23
5.277854
  0
POLYLINE
  8
0
  6
CONTINUOUS
 66
     1
 40
0.000000
 41
0.000000
  0
VERTEX
  8
0
  6
CONTINUOUS
 10
4.831619
 20
4.569631
  0
VERTEX
  8
0
  6
CONTINUOUS
 10
4.834729
 20
5.298067
  0
VERTEX
  8
0
  6
CONTINUOUS
 10
4.907028
 20
5.277854
  0
VERTEX
  8
0
  6
CONTINUOUS
 10
4.904696
 20
4.549419
  0
VERTEX
  8
0
  6
CONTINUOUS
 10
4.831619
 20
4.569631
  0
SEQEND
  8
0
  0
SOLID
  8
0
 62
    15
 10
4.904696
 20
4.549419
 11
4.907028
 21
5.277854
 12
4.969221
 22
4.527651
 13
4.972331
 23
5.256087
  0
POLYLINE
  8
0
  6
CONTINUOUS
 66
     1
 40
0.000000
 41
0.000000
  0
VERTEX
  8
0
  6
CONTINUOUS
 10
4.904696
 20
4.549419
  0
VERTEX
  8
0
  6
CONTINUOUS
 10
4.907028
 20
5.277854
  0
VERTEX
  8
0
  6
CONTINUOUS
 10
4.972331
 20
5.256087
  0
VERTEX
  8
0
  6
CONTINUOUS
 10
4.969221
 20
4.527651
  0
VERTEX
  8
0
  6
CONTINUOUS
 10
4.904696
 20
4.549419
  0
SEQEND
  8
0
  0
SOLID
  8
0
 62
    15
 10
4.969221
 20
4.527651
 11
4.972331
 21
5.256087
 12
5.026750
 22
4.504329
 13
5.029860
 23
5.231987
  0
POLYLINE
  8
0
  6
CONTINUOUS
 66
     1
 40
0.000000
 41
0.000000
  0
VERTEX
  8
0
  6
CONTINUOUS
 10
4.969221
 20
4.527651
  0
VERTEX
  8
0
  6
CONTINUOUS
 10
4.972331
 20
5.256087
  0
VERTEX
  8
0
  6
CONTINUOUS
 10
5.029860
 20
5.231987
  0
VERTEX
  8
0
  6
CONTINUOUS
 10
5.026750
 20
4.504329
  0
VERTEX
  8
0
  6
CONTINUOUS
 10
4.969221
 20
4.527651
  0
SEQEND
  8
0
  0
SOLID
  8
0
 62
    15
 10
5.026750
 20
4.504329
 11
5.029860
 21
5.231987
 12
5.078059
 22
4.478674
 13
5.080391
 23
5.206332
  0
POLYLINE
  8
0
  6
CONTINUOUS
 66
     1
 40
0.000000
 41
0.000000
  0
VERTEX
  8
0
  6
CONTINUOUS
 10
5.026750
 20
4.504329
  0
VERTEX
  8
0
  6
CONTINUOUS
 10
5.029860
 20
5.231987
  0
VERTEX
  8
0
  6
CONTINUOUS
 10
5.080391
 20
5.206332
  0
VERTEX
  8
0
  6
CONTINUOUS
 10
5.078059
 20
4.478674
  0
VERTEX
  8
0
  6
CONTINUOUS
 10
5.026750
 20
4.504329
  0
SEQEND
  8
0
  0
SOLID
  8
0
 62
    15
 10
5.078059
 20
4.478674
 11
5.080391
 21
5.206332
 12
5.121594
 22
4.450687
 13
5.124704
 23
5.179123
  0
POLYLINE
  8
0
  6
CONTINUOUS
 66
     1
 40
0.000000
 41
0.000000
  0
VERTEX
  8
0
  6
CONTINUOUS
 10
5.078059
 20
4.478674
  0
VERTEX
  8
0
  6
CONTINUOUS
 10
5.080391
 20
5.206332
  0
VERTEX
  8
0
  6
CONTINUOUS
 10
5.124704
 20
5.179123
  0
VERTEX
  8
0
  6
CONTINUOUS
 10
5.121594
 20
4.450687
  0
VERTEX
  8
0
  6
CONTINUOUS
 10
5.078059
 20
4.478674
  0
SEQEND
  8
0
  0
SOLID
  8
0
 62
    15
 10
5.121594
 20
4.450687
 11
5.124704
 21
5.179123
 12
5.159687
 22
4.421145
 13
5.162797
 23
5.149581
  0
POLYLINE
  8
0
  6
CONTINUOUS
 66
     1
 40
0.000000
 41
0.000000
  0
VERTEX
  8
0
  6
CONTINUOUS
 10
5.121594
 20
4.450687
  0
VERTEX
  8
0
  6
CONTINUOUS
 10
5.124704
 20
5.179123
  0
VERTEX
  8
0
  6
CONTINUOUS
 10
5.162797
 20
5.149581
  0
VERTEX
  8
0
  6
CONTINUOUS
 10
5.159687
 20
4.421145
  0
VERTEX
  8
0
  6
CONTINUOUS
 10
5.121594
 20
4.450687
  0
SEQEND
  8
0
  0
SOLID
  8
0
 62
    15
 10
5.159687
 20
4.421145
 11
5.162797
 21
5.149581
 12
5.192339
 22
4.390049
 13
5.194671
 23
5.117707
  0
POLYLINE
  8
0
  6
CONTINUOUS
 66
     1
 40
0.000000
 41
0.000000
  0
VERTEX
  8
0
  6
CONTINUOUS
 10
5.159687
 20
4.421145
  0
VERTEX
  8
0
  6
CONTINUOUS
 10
5.162797
 20
5.149581
  0
VERTEX
  8
0
  6
CONTINUOUS
 10
5.194671
 20
5.117707
  0
VERTEX
  8
0
  6
CONTINUOUS
 10
5.192339
 20
4.390049
  0
VERTEX
  8
0
  6
CONTINUOUS
 10
5.159687
 20
4.421145
  0
SEQEND
  8
0
  0
SOLID
  8
0
 62
    15
 10
5.192339
 20
4.390049
 11
5.194671
 21
5.117707
 12
5.218771
 22
4.356620
 13
5.221880
 23
5.084278
  0
POLYLINE
  8
0
  6
CONTINUOUS
 66
     1
 40
0.000000
 41
0.000000
  0
VERTEX
  8
0
  6
CONTINUOUS
 10
5.192339
 20
4.390049
  0
VERTEX
  8
0
  6
CONTINUOUS
 10
5.194671
 20
5.117707
  0
VERTEX
  8
0
  6
CONTINUOUS
 10
5.221880
 20
5.084278
  0
VERTEX
  8
0
  6
CONTINUOUS
 10
5.218771
 20
4.356620
  0
VERTEX
  8
0
  6
CONTINUOUS
 10
5.192339
 20
4.390049
  0
SEQEND
  8
0
  0
SOLID
  8
0
 62
    15
 10
5.218771
 20
4.356620
 11
5.221880
 21
5.084278
 12
5.240538
 22
4.320859
 13
5.243648
 23
5.048517
  0
POLYLINE
  8
0
  6
CONTINUOUS
 66
     1
 40
0.000000
 41
0.000000
  0
VERTEX
  8
0
  6
CONTINUOUS
 10
5.218771
 20
4.356620
  0
VERTEX
  8
0
  6
CONTINUOUS
 10
5.221880
 20
5.084278
  0
VERTEX
  8
0
  6
CONTINUOUS
 10
5.243648
 20
5.048517
  0
VERTEX
  8
0
  6
CONTINUOUS
 10
5.240538
 20
4.320859
  0
VERTEX
  8
0
  6
CONTINUOUS
 10
5.218771
 20
4.356620
  0
SEQEND
  8
0
  0
SOLID
  8
0
 62
    15
 10
5.240538
 20
4.320859
 11
5.243648
 21
5.048517
 12
5.748966
 22
4.326301
 13
5.751298
 23
5.053959
  0
POLYLINE
  8
0
  6
CONTINUOUS
 66
     1
 40
0.000000
 41
0.000000
  0
VERTEX
  8
0
  6
CONTINUOUS
 10
5.240538
 20
4.320859
  0
VERTEX
  8
0
  6
CONTINUOUS
 10
5.243648
 20
5.048517
  0
VERTEX
  8
0
  6
CONTINUOUS
 10
5.751298
 20
5.053959
  0
VERTEX
  8
0
  6
CONTINUOUS
 10
5.748966
 20
4.326301
  0
VERTEX
  8
0
  6
CONTINUOUS
 10
5.240538
 20
4.320859
  0
SEQEND
  8
0
  0
SOLID
  8
0
 62
    15
 10
5.748966
 20
4.326301
 11
5.751298
 21
5.053959
 12
5.764514
 22
4.790416
 13
5.767624
 23
5.518075
  0
POLYLINE
  8
0
  6
CONTINUOUS
 66
     1
 40
0.000000
 41
0.000000
  0
VERTEX
  8
0
  6
CONTINUOUS
 10
5.748966
 20
4.326301
  0
VERTEX
  8
0
  6
CONTINUOUS
 10
5.751298
 20
5.053959
  0
VERTEX
  8
0
  6
CONTINUOUS
 10
5.767624
 20
5.518075
  0
VERTEX
  8
0
  6
CONTINUOUS
 10
5.764514
 20
4.790416
  0
VERTEX
  8
0
  6
CONTINUOUS
 10
5.748966
 20
4.326301
  0
SEQEND
  8
0
  0
SOLID
  8
0
 62
    15
 10
5.764514
 20
4.790416
 11
5.767624
 21
5.518075
 12
5.764514
 22
4.794303
 13
5.767624
 23
5.521962
  0
POLYLINE
  8
0
  6
CONTINUOUS
 66
     1
 40
0.000000
 41
0.000000
  0
VERTEX
  8
0
  6
CONTINUOUS
 10
5.764514
 20
4.790416
  0
VERTEX
  8
0
  6
CONTINUOUS
 10
5.767624
 20
5.518075
  0
VERTEX
  8
0
  6
CONTINUOUS
 10
5.767624
 20
5.521962
  0
VERTEX
  8
0
  6
CONTINUOUS
 10
5.764514
 20
4.794303
  0
VERTEX
  8
0
  6
CONTINUOUS
 10
5.764514
 20
4.790416
  0
SEQEND
  8
0
  0
SOLID
  8
0
 62
    15
 10
5.764514
 20
4.794303
 11
5.767624
 21
5.521962
 12
6.627442
 22
4.794303
 13
6.629775
 23
5.521962
  0
POLYLINE
  8
0
  6
CONTINUOUS
 66
     1
 40
0.000000
 41
0.000000
  0
VERTEX
  8
0
  6
CONTINUOUS
 10
5.764514
 20
4.794303
  0
VERTEX
  8
0
  6
CONTINUOUS
 10
5.767624
 20
5.521962
  0
VERTEX
  8
0
  6
CONTINUOUS
 10
6.629775
 20
5.521962
  0
VERTEX
  8
0
  6
CONTINUOUS
 10
6.627442
 20
4.794303
  0
VERTEX
  8
0
  6
CONTINUOUS
 10
5.764514
 20
4.794303
  0
SEQEND
  8
0
  0
SOLID
  8
0
 62
    15
 10
7.111770
 20
4.279656
 11
7.114103
 21
5.007315
 12
7.126541
 22
4.327856
 13
7.128874
 23
5.055514
  0
POLYLINE
  8
0
  6
CONTINUOUS
 66
     1
 40
0.000000
 41
0.000000
  0
VERTEX
  8
0
  6
CONTINUOUS
 10
7.111770
 20
4.279656
  0
VERTEX
  8
0
  6
CONTINUOUS
 10
7.114103
 20
5.007315
  0
VERTEX
  8
0
  6
CONTINUOUS
 10
7.128874
 20
5.055514
  0
VERTEX
  8
0
  6
CONTINUOUS
 10
7.126541
 20
4.327856
  0
VERTEX
  8
0
  6
CONTINUOUS
 10
7.111770
 20
4.279656
  0
SEQEND
  8
0
  0
SOLID
  8
0
 62
    15
 10
7.111770
 20
4.280434
 11
7.114103
 21
5.008869
 12
7.111770
 22
4.279656
 13
7.114103
 23
5.007315
  0
POLYLINE
  8
0
  6
CONTINUOUS
 66
     1
 40
0.000000
 41
0.000000
  0
VERTEX
  8
0
  6
CONTINUOUS
 10
7.111770
 20
4.280434
  0
VERTEX
  8
0
  6
CONTINUOUS
 10
7.114103
 20
5.008869
  0
VERTEX
  8
0
  6
CONTINUOUS
 10
7.114103
 20
5.007315
  0
VERTEX
  8
0
  6
CONTINUOUS
 10
7.111770
 20
4.279656
  0
VERTEX
  8
0
  6
CONTINUOUS
 10
7.111770
 20
4.280434
  0
SEQEND
  8
0
  0
SOLID
  8
0
 62
    15
 10
7.020813
 20
4.280434
 11
7.023145
 21
5.008869
 12
7.111770
 22
4.280434
 13
7.114103
 23
5.008869
  0
POLYLINE
  8
0
  6
CONTINUOUS
 66
     1
 40
0.000000
 41
0.000000
  0
VERTEX
  8
0
  6
CONTINUOUS
 10
7.020813
 20
4.280434
  0
VERTEX
  8
0
  6
CONTINUOUS
 10
7.023145
 20
5.008869
  0
VERTEX
  8
0
  6
CONTINUOUS
 10
7.114103
 20
5.008869
  0
VERTEX
  8
0
  6
CONTINUOUS
 10
7.111770
 20
4.280434
  0
VERTEX
  8
0
  6
CONTINUOUS
 10
7.020813
 20
4.280434
  0
SEQEND
  8
0
  0
SOLID
  8
0
 62
    15
 10
6.998268
 20
4.520654
 11
7.000600
 21
5.248312
 12
7.020813
 22
4.280434
 13
7.023145
 23
5.008869
  0
POLYLINE
  8
0
  6
CONTINUOUS
 66
     1
 40
0.000000
 41
0.000000
  0
VERTEX
  8
0
  6
CONTINUOUS
 10
6.998268
 20
4.520654
  0
VERTEX
  8
0
  6
CONTINUOUS
 10
7.000600
 20
5.248312
  0
VERTEX
  8
0
  6
CONTINUOUS
 10
7.023145
 20
5.008869
  0
VERTEX
  8
0
  6
CONTINUOUS
 10
7.020813
 20
4.280434
  0
VERTEX
  8
0
  6
CONTINUOUS
 10
6.998268
 20
4.520654
  0
SEQEND
  8
0
  0
SOLID
  8
0
 62
    15
 10
6.648433
 20
4.536980
 11
6.651542
 21
5.264638
 12
6.998268
 22
4.520654
 13
7.000600
 23
5.248312
  0
POLYLINE
  8
0
  6
CONTINUOUS
 66
     1
 40
0.000000
 41
0.000000
  0
VERTEX
  8
0
  6
CONTINUOUS
 10
6.648433
 20
4.536980
  0
VERTEX
  8
0
  6
CONTINUOUS
 10
6.651542
 20
5.264638
  0
VERTEX
  8
0
  6
CONTINUOUS
 10
7.000600
 20
5.248312
  0
VERTEX
  8
0
  6
CONTINUOUS
 10
6.998268
 20
4.520654
  0
VERTEX
  8
0
  6
CONTINUOUS
 10
6.648433
 20
4.536980
  0
SEQEND
  8
0
  0
SOLID
  8
0
 62
    15
 10
6.628997
 20
4.792749
 11
6.631329
 21
5.520407
 12
6.648433
 22
4.536980
 13
6.651542
 23
5.264638
  0
POLYLINE
  8
0
  6
CONTINUOUS
 66
     1
 40
0.000000
 41
0.000000
  0
VERTEX
  8
0
  6
CONTINUOUS
 10
6.628997
 20
4.792749
  0
VERTEX
  8
0
  6
CONTINUOUS
 10
6.631329
 20
5.520407
  0
VERTEX
  8
0
  6
CONTINUOUS
 10
6.651542
 20
5.264638
  0
VERTEX
  8
0
  6
CONTINUOUS
 10
6.648433
 20
4.536980
  0
VERTEX
  8
0
  6
CONTINUOUS
 10
6.628997
 20
4.792749
  0
SEQEND
  8
0
  0
SOLID
  8
0
 62
    15
 10
6.627442
 20
4.794303
 11
6.629775
 21
5.521962
 12
6.628997
 22
4.792749
 13
6.631329
 23
5.520407
  0
POLYLINE
  8
0
  6
CONTINUOUS
 66
     1
 40
0.000000
 41
0.000000
  0
VERTEX
  8
0
  6
CONTINUOUS
 10
6.627442
 20
4.794303
  0
VERTEX
  8
0
  6
CONTINUOUS
 10
6.629775
 20
5.521962
  0
VERTEX
  8
0
  6
CONTINUOUS
 10
6.631329
 20
5.520407
  0
VERTEX
  8
0
  6
CONTINUOUS
 10
6.628997
 20
4.792749
  0
VERTEX
  8
0
  6
CONTINUOUS
 10
6.627442
 20
4.794303
  0
SEQEND
  8
0
  0
SOLID
  8
0
 62
    15
 10
7.126541
 20
4.327856
 11
7.128874
 21
5.055514
 12
7.148309
 22
4.372946
 13
7.151418
 23
5.100604
  0
POLYLINE
  8
0
  6
CONTINUOUS
 66
     1
 40
0.000000
 41
0.000000
  0
VERTEX
  8
0
  6
CONTINUOUS
 10
7.126541
 20
4.327856
  0
VERTEX
  8
0
  6
CONTINUOUS
 10
7.128874
 20
5.055514
  0
VERTEX
  8
0
  6
CONTINUOUS
 10
7.151418
 20
5.100604
  0
VERTEX
  8
0
  6
CONTINUOUS
 10
7.148309
 20
4.372946
  0
VERTEX
  8
0
  6
CONTINUOUS
 10
7.126541
 20
4.327856
  0
SEQEND
  8
0
  0
SOLID
  8
0
 62
    15
 10
7.148309
 20
4.372946
 11
7.151418
 21
5.100604
 12
7.177073
 22
4.412594
 13
7.180183
 23
5.141030
  0
POLYLINE
  8
0
  6
CONTINUOUS
 66
     1
 40
0.000000
 41
0.000000
  0
VERTEX
  8
0
  6
CONTINUOUS
 10
7.148309
 20
4.372946
  0
VERTEX
  8
0
  6
CONTINUOUS
 10
7.151418
 20
5.100604
  0
VERTEX
  8
0
  6
CONTINUOUS
 10
7.180183
 20
5.141030
  0
VERTEX
  8
0
  6
CONTINUOUS
 10
7.177073
 20
4.412594
  0
VERTEX
  8
0
  6
CONTINUOUS
 10
7.148309
 20
4.372946
  0
SEQEND
  8
0
  0
SOLID
  8
0
 62
    15
 10
7.177073
 20
4.412594
 11
7.180183
 21
5.141030
 12
7.212057
 22
4.447577
 13
7.214389
 23
5.175236
  0
POLYLINE
  8
0
  6
CONTINUOUS
 66
     1
 40
0.000000
 41
0.000000
  0
VERTEX
  8
0
  6
CONTINUOUS
 10
7.177073
 20
4.412594
  0
VERTEX
  8
0
  6
CONTINUOUS
 10
7.180183
 20
5.141030
  0
VERTEX
  8
0
  6
CONTINUOUS
 10
7.214389
 20
5.175236
  0
VERTEX
  8
0
  6
CONTINUOUS
 10
7.212057
 20
4.447577
  0
VERTEX
  8
0
  6
CONTINUOUS
 10
7.177073
 20
4.412594
  0
SEQEND
  8
0
  0
SOLID
  8
0
 62
    15
 10
7.212057
 20
4.447577
 11
7.214389
 21
5.175236
 12
7.251705
 22
4.476342
 13
7.254814
 23
5.204000
  0
POLYLINE
  8
0
  6
CONTINUOUS
 66
     1
 40
0.000000
 41
0.000000
  0
VERTEX
  8
0
  6
CONTINUOUS
 10
7.212057
 20
4.447577
  0
VERTEX
  8
0
  6
CONTINUOUS
 10
7.214389
 20
5.175236
  0
VERTEX
  8
0
  6
CONTINUOUS
 10
7.254814
 20
5.204000
  0
VERTEX
  8
0
  6
CONTINUOUS
 10
7.251705
 20
4.476342
  0
VERTEX
  8
0
  6
CONTINUOUS
 10
7.212057
 20
4.447577
  0
SEQEND
  8
0
  0
SOLID
  8
0
 62
    15
 10
4.061981
 20
4.790416
 11
4.065090
 21
5.518075
 12
4.068978
 22
4.669917
 13
4.071310
 23
5.397576
  0
POLYLINE
  8
0
  6
CONTINUOUS
 66
     1
 40
0.000000
 41
0.000000
  0
VERTEX
  8
0
  6
CONTINUOUS
 10
4.061981
 20
4.790416
  0
VERTEX
  8
0
  6
CONTINUOUS
 10
4.065090
 20
5.518075
  0
VERTEX
  8
0
  6
CONTINUOUS
 10
4.071310
 20
5.397576
  0
VERTEX
  8
0
  6
CONTINUOUS
 10
4.068978
 20
4.669917
  0
VERTEX
  8
0
  6
CONTINUOUS
 10
4.061981
 20
4.790416
  0
SEQEND
  8
0
  0
SOLID
  8
0
 62
    15
 10
7.296795
 20
4.497332
 11
7.299127
 21
5.224990
 12
7.344994
 22
4.510548
 13
7.348104
 23
5.238984
  0
POLYLINE
  8
0
  6
CONTINUOUS
 66
     1
 40
0.000000
 41
0.000000
  0
VERTEX
  8
0
  6
CONTINUOUS
 10
7.296795
 20
4.497332
  0
VERTEX
  8
0
  6
CONTINUOUS
 10
7.299127
 20
5.224990
  0
VERTEX
  8
0
  6
CONTINUOUS
 10
7.348104
 20
5.238984
  0
VERTEX
  8
0
  6
CONTINUOUS
 10
7.344994
 20
4.510548
  0
VERTEX
  8
0
  6
CONTINUOUS
 10
7.296795
 20
4.497332
  0
SEQEND
  8
0
  0
SOLID
  8
0
 62
    15
 10
7.344994
 20
4.510548
 11
7.348104
 21
5.238984
 12
7.397081
 22
4.515212
 13
7.399413
 23
5.243648
  0
POLYLINE
  8
0
  6
CONTINUOUS
 66
     1
 40
0.000000
 41
0.000000
  0
VERTEX
  8
0
  6
CONTINUOUS
 10
7.344994
 20
4.510548
  0
VERTEX
  8
0
  6
CONTINUOUS
 10
7.348104
 20
5.238984
  0
VERTEX
  8
0
  6
CONTINUOUS
 10
7.399413
 20
5.243648
  0
VERTEX
  8
0
  6
CONTINUOUS
 10
7.397081
 20
4.515212
  0
VERTEX
  8
0
  6
CONTINUOUS
 10
7.344994
 20
4.510548
  0
SEQEND
  8
0
  0
SOLID
  8
0
 62
    15
 10
7.397081
 20
4.515212
 11
7.399413
 21
5.243648
 12
7.456942
 22
4.508993
 13
7.459274
 23
5.237429
  0
POLYLINE
  8
0
  6
CONTINUOUS
 66
     1
 40
0.000000
 41
0.000000
  0
VERTEX
  8
0
  6
CONTINUOUS
 10
7.397081
 20
4.515212
  0
VERTEX
  8
0
  6
CONTINUOUS
 10
7.399413
 20
5.243648
  0
VERTEX
  8
0
  6
CONTINUOUS
 10
7.459274
 20
5.237429
  0
VERTEX
  8
0
  6
CONTINUOUS
 10
7.456942
 20
4.508993
  0
VERTEX
  8
0
  6
CONTINUOUS
 10
7.397081
 20
4.515212
  0
SEQEND
  8
0
  0
SOLID
  8
0
 62
    15
 10
7.456942
 20
4.508993
 11
7.459274
 21
5.237429
 12
7.512915
 22
4.491890
 13
7.515248
 23
5.219548
  0
POLYLINE
  8
0
  6
CONTINUOUS
 66
     1
 40
0.000000
 41
0.000000
  0
VERTEX
  8
0
  6
CONTINUOUS
 10
7.456942
 20
4.508993
  0
VERTEX
  8
0
  6
CONTINUOUS
 10
7.459274
 20
5.237429
  0
VERTEX
  8
0
  6
CONTINUOUS
 10
7.515248
 20
5.219548
  0
VERTEX
  8
0
  6
CONTINUOUS
 10
7.512915
 20
4.491890
  0
VERTEX
  8
0
  6
CONTINUOUS
 10
7.456942
 20
4.508993
  0
SEQEND
  8
0
  0
SOLID
  8
0
 62
    15
 10
7.512915
 20
4.491890
 11
7.515248
 21
5.219548
 12
7.563447
 22
4.463903
 13
7.566557
 23
5.191561
  0
POLYLINE
  8
0
  6
CONTINUOUS
 66
     1
 40
0.000000
 41
0.000000
  0
VERTEX
  8
0
  6
CONTINUOUS
 10
7.512915
 20
4.491890
  0
VERTEX
  8
0
  6
CONTINUOUS
 10
7.515248
 20
5.219548
  0
VERTEX
  8
0
  6
CONTINUOUS
 10
7.566557
 20
5.191561
  0
VERTEX
  8
0
  6
CONTINUOUS
 10
7.563447
 20
4.463903
  0
VERTEX
  8
0
  6
CONTINUOUS
 10
7.512915
 20
4.491890
  0
SEQEND
  8
0
  0
SOLID
  8
0
 62
    15
 10
7.608537
 20
4.427365
 11
7.610869
 21
5.155023
 12
7.645075
 22
4.382275
 13
7.647408
 23
5.110710
  0
POLYLINE
  8
0
  6
CONTINUOUS
 66
     1
 40
0.000000
 41
0.000000
  0
VERTEX
  8
0
  6
CONTINUOUS
 10
7.608537
 20
4.427365
  0
VERTEX
  8
0
  6
CONTINUOUS
 10
7.610869
 20
5.155023
  0
VERTEX
  8
0
  6
CONTINUOUS
 10
7.647408
 20
5.110710
  0
VERTEX
  8
0
  6
CONTINUOUS
 10
7.645075
 20
4.382275
  0
VERTEX
  8
0
  6
CONTINUOUS
 10
7.608537
 20
4.427365
  0
SEQEND
  8
0
  0
SOLID
  8
0
 62
    15
 10
7.563447
 20
4.463903
 11
7.566557
 21
5.191561
 12
7.608537
 22
4.427365
 13
7.610869
 23
5.155023
  0
POLYLINE
  8
0
  6
CONTINUOUS
 66
     1
 40
0.000000
 41
0.000000
  0
VERTEX
  8
0
  6
CONTINUOUS
 10
7.563447
 20
4.463903
  0
VERTEX
  8
0
  6
CONTINUOUS
 10
7.566557
 20
5.191561
  0
VERTEX
  8
0
  6
CONTINUOUS
 10
7.610869
 20
5.155023
  0
VERTEX
  8
0
  6
CONTINUOUS
 10
7.608537
 20
4.427365
  0
VERTEX
  8
0
  6
CONTINUOUS
 10
7.563447
 20
4.463903
  0
SEQEND
  8
0
  0
SOLID
  8
0
 62
    15
 10
7.645075
 20
4.382275
 11
7.647408
 21
5.110710
 12
7.673062
 22
4.331743
 13
7.675395
 23
5.059401
  0
POLYLINE
  8
0
  6
CONTINUOUS
 66
     1
 40
0.000000
 41
0.000000
  0
VERTEX
  8
0
  6
CONTINUOUS
 10
7.645075
 20
4.382275
  0
VERTEX
  8
0
  6
CONTINUOUS
 10
7.647408
 20
5.110710
  0
VERTEX
  8
0
  6
CONTINUOUS
 10
7.675395
 20
5.059401
  0
VERTEX
  8
0
  6
CONTINUOUS
 10
7.673062
 20
4.331743
  0
VERTEX
  8
0
  6
CONTINUOUS
 10
7.645075
 20
4.382275
  0
SEQEND
  8
0
  0
SOLID
  8
0
 62
    15
 10
7.673062
 20
4.331743
 11
7.675395
 21
5.059401
 12
7.690165
 22
4.275769
 13
7.693275
 23
5.003427
  0
POLYLINE
  8
0
  6
CONTINUOUS
 66
     1
 40
0.000000
 41
0.000000
  0
VERTEX
  8
0
  6
CONTINUOUS
 10
7.673062
 20
4.331743
  0
VERTEX
  8
0
  6
CONTINUOUS
 10
7.675395
 20
5.059401
  0
VERTEX
  8
0
  6
CONTINUOUS
 10
7.693275
 20
5.003427
  0
VERTEX
  8
0
  6
CONTINUOUS
 10
7.690165
 20
4.275769
  0
VERTEX
  8
0
  6
CONTINUOUS
 10
7.673062
 20
4.331743
  0
SEQEND
  8
0
  0
SOLID
  8
0
 62
    15
 10
7.690165
 20
4.275769
 11
7.693275
 21
5.003427
 12
7.696385
 22
4.215131
 13
7.699494
 23
4.943567
  0
POLYLINE
  8
0
  6
CONTINUOUS
 66
     1
 40
0.000000
 41
0.000000
  0
VERTEX
  8
0
  6
CONTINUOUS
 10
7.690165
 20
4.275769
  0
VERTEX
  8
0
  6
CONTINUOUS
 10
7.693275
 20
5.003427
  0
VERTEX
  8
0
  6
CONTINUOUS
 10
7.699494
 20
4.943567
  0
VERTEX
  8
0
  6
CONTINUOUS
 10
7.696385
 20
4.215131
  0
VERTEX
  8
0
  6
CONTINUOUS
 10
7.690165
 20
4.275769
  0
SEQEND
  8
0
  0
SOLID
  8
0
 62
    15
 10
1.000530
 20
4.802078
 11
1.003640
 21
5.529736
 12
1.576593
 22
4.802078
 13
1.579702
 23
5.529736
  0
POLYLINE
  8
0
  6
CONTINUOUS
 66
     1
 40
0.000000
 41
0.000000
  0
VERTEX
  8
0
  6
CONTINUOUS
 10
1.000530
 20
4.802078
  0
VERTEX
  8
0
  6
CONTINUOUS
 10
1.003640
 20
5.529736
  0
VERTEX
  8
0
  6
CONTINUOUS
 10
1.579702
 20
5.529736
  0
VERTEX
  8
0
  6
CONTINUOUS
 10
1.576593
 20
4.802078
  0
VERTEX
  8
0
  6
CONTINUOUS
 10
1.000530
 20
4.802078
  0
SEQEND
  8
0
  0
SOLID
  8
0
 62
    15
 10
1.576593
 20
4.802078
 11
1.579702
 21
5.529736
 12
1.579702
 22
4.800523
 13
1.582035
 23
5.528958
  0
POLYLINE
  8
0
  6
CONTINUOUS
 66
     1
 40
0.000000
 41
0.000000
  0
VERTEX
  8
0
  6
CONTINUOUS
 10
1.576593
 20
4.802078
  0
VERTEX
  8
0
  6
CONTINUOUS
 10
1.579702
 20
5.529736
  0
VERTEX
  8
0
  6
CONTINUOUS
 10
1.582035
 20
5.528958
  0
VERTEX
  8
0
  6
CONTINUOUS
 10
1.579702
 20
4.800523
  0
VERTEX
  8
0
  6
CONTINUOUS
 10
1.576593
 20
4.802078
  0
SEQEND
  8
0
  0
SOLID
  8
0
 62
    15
 10
1.579702
 20
4.800523
 11
1.582035
 21
5.528958
 12
1.650447
 22
4.341849
 13
1.652779
 23
5.070285
  0
POLYLINE
  8
0
  6
CONTINUOUS
 66
     1
 40
0.000000
 41
0.000000
  0
VERTEX
  8
0
  6
CONTINUOUS
 10
1.579702
 20
4.800523
  0
VERTEX
  8
0
  6
CONTINUOUS
 10
1.582035
 20
5.528958
  0
VERTEX
  8
0
  6
CONTINUOUS
 10
1.652779
 20
5.070285
  0
VERTEX
  8
0
  6
CONTINUOUS
 10
1.650447
 20
4.341849
  0
VERTEX
  8
0
  6
CONTINUOUS
 10
1.579702
 20
4.800523
  0
SEQEND
  8
0
  0
SOLID
  8
0
 62
    15
 10
1.650447
 20
4.341849
 11
1.652779
 21
5.070285
 12
2.075692
 22
4.331743
 13
2.078024
 23
5.059401
  0
POLYLINE
  8
0
  6
CONTINUOUS
 66
     1
 40
0.000000
 41
0.000000
  0
VERTEX
  8
0
  6
CONTINUOUS
 10
1.650447
 20
4.341849
  0
VERTEX
  8
0
  6
CONTINUOUS
 10
1.652779
 20
5.070285
  0
VERTEX
  8
0
  6
CONTINUOUS
 10
2.078024
 20
5.059401
  0
VERTEX
  8
0
  6
CONTINUOUS
 10
2.075692
 20
4.331743
  0
VERTEX
  8
0
  6
CONTINUOUS
 10
1.650447
 20
4.341849
  0
SEQEND
  8
0
  0
SOLID
  8
0
 62
    15
 10
2.075692
 20
4.331743
 11
2.078024
 21
5.059401
 12
2.111453
 22
4.380720
 13
2.113785
 23
5.109156
  0
POLYLINE
  8
0
  6
CONTINUOUS
 66
     1
 40
0.000000
 41
0.000000
  0
VERTEX
  8
0
  6
CONTINUOUS
 10
2.075692
 20
4.331743
  0
VERTEX
  8
0
  6
CONTINUOUS
 10
2.078024
 20
5.059401
  0
VERTEX
  8
0
  6
CONTINUOUS
 10
2.113785
 20
5.109156
  0
VERTEX
  8
0
  6
CONTINUOUS
 10
2.111453
 20
4.380720
  0
VERTEX
  8
0
  6
CONTINUOUS
 10
2.075692
 20
4.331743
  0
SEQEND
  8
0
  0
SOLID
  8
0
 62
    15
 10
2.111453
 20
4.380720
 11
2.113785
 21
5.109156
 12
2.156543
 22
4.425033
 13
2.159652
 23
5.152691
  0
POLYLINE
  8
0
  6
CONTINUOUS
 66
     1
 40
0.000000
 41
0.000000
  0
VERTEX
  8
0
  6
CONTINUOUS
 10
2.111453
 20
4.380720
  0
VERTEX
  8
0
  6
CONTINUOUS
 10
2.113785
 20
5.109156
  0
VERTEX
  8
0
  6
CONTINUOUS
 10
2.159652
 20
5.152691
  0
VERTEX
  8
0
  6
CONTINUOUS
 10
2.156543
 20
4.425033
  0
VERTEX
  8
0
  6
CONTINUOUS
 10
2.111453
 20
4.380720
  0
SEQEND
  8
0
  0
SOLID
  8
0
 62
    15
 10
2.156543
 20
4.425033
 11
2.159652
 21
5.152691
 12
2.210961
 22
4.464681
 13
2.213294
 23
5.192339
  0
POLYLINE
  8
0
  6
CONTINUOUS
 66
     1
 40
0.000000
 41
0.000000
  0
VERTEX
  8
0
  6
CONTINUOUS
 10
2.156543
 20
4.425033
  0
VERTEX
  8
0
  6
CONTINUOUS
 10
2.159652
 20
5.152691
  0
VERTEX
  8
0
  6
CONTINUOUS
 10
2.213294
 20
5.192339
  0
VERTEX
  8
0
  6
CONTINUOUS
 10
2.210961
 20
4.464681
  0
VERTEX
  8
0
  6
CONTINUOUS
 10
2.156543
 20
4.425033
  0
SEQEND
  8
0
  0
SOLID
  8
0
 62
    15
 10
2.210961
 20
4.464681
 11
2.213294
 21
5.192339
 12
2.272377
 22
4.498887
 13
2.275487
 23
5.226545
  0
POLYLINE
  8
0
  6
CONTINUOUS
 66
     1
 40
0.000000
 41
0.000000
  0
VERTEX
  8
0
  6
CONTINUOUS
 10
2.210961
 20
4.464681
  0
VERTEX
  8
0
  6
CONTINUOUS
 10
2.213294
 20
5.192339
  0
VERTEX
  8
0
  6
CONTINUOUS
 10
2.275487
 20
5.226545
  0
VERTEX
  8
0
  6
CONTINUOUS
 10
2.272377
 20
4.498887
  0
VERTEX
  8
0
  6
CONTINUOUS
 10
2.210961
 20
4.464681
  0
SEQEND
  8
0
  0
SOLID
  8
0
 62
    15
 10
2.272377
 20
4.498887
 11
2.275487
 21
5.226545
 12
2.340789
 22
4.529206
 13
2.343899
 23
5.257641
  0
POLYLINE
  8
0
  6
CONTINUOUS
 66
     1
 40
0.000000
 41
0.000000
  0
VERTEX
  8
0
  6
CONTINUOUS
 10
2.272377
 20
4.498887
  0
VERTEX
  8
0
  6
CONTINUOUS
 10
2.275487
 20
5.226545
  0
VERTEX
  8
0
  6
CONTINUOUS
 10
2.343899
 20
5.257641
  0
VERTEX
  8
0
  6
CONTINUOUS
 10
2.340789
 20
4.529206
  0
VERTEX
  8
0
  6
CONTINUOUS
 10
2.272377
 20
4.498887
  0
SEQEND
  8
0
  0
SOLID
  8
0
 62
    15
 10
2.340789
 20
4.529206
 11
2.343899
 21
5.257641
 12
2.414644
 22
4.555638
 13
2.417753
 23
5.283296
  0
POLYLINE
  8
0
  6
CONTINUOUS
 66
     1
 40
0.000000
 41
0.000000
  0
VERTEX
  8
0
  6
CONTINUOUS
 10
2.340789
 20
4.529206
  0
VERTEX
  8
0
  6
CONTINUOUS
 10
2.343899
 20
5.257641
  0
VERTEX
  8
0
  6
CONTINUOUS
 10
2.417753
 20
5.283296
  0
VERTEX
  8
0
  6
CONTINUOUS
 10
2.414644
 20
4.555638
  0
VERTEX
  8
0
  6
CONTINUOUS
 10
2.340789
 20
4.529206
  0
SEQEND
  8
0
  0
SOLID
  8
0
 62
    15
 10
2.414644
 20
4.555638
 11
2.417753
 21
5.283296
 12
2.493940
 22
4.578183
 13
2.496272
 23
5.306618
  0
POLYLINE
  8
0
  6
CONTINUOUS
 66
     1
 40
0.000000
 41
0.000000
  0
VERTEX
  8
0
  6
CONTINUOUS
 10
2.414644
 20
4.555638
  0
VERTEX
  8
0
  6
CONTINUOUS
 10
2.417753
 20
5.283296
  0
VERTEX
  8
0
  6
CONTINUOUS
 10
2.496272
 20
5.306618
  0
VERTEX
  8
0
  6
CONTINUOUS
 10
2.493940
 20
4.578183
  0
VERTEX
  8
0
  6
CONTINUOUS
 10
2.414644
 20
4.555638
  0
SEQEND
  8
0
  0
SOLID
  8
0
 62
    15
 10
2.493940
 20
4.578183
 11
2.496272
 21
5.306618
 12
2.576345
 22
4.597618
 13
2.578678
 23
5.326054
  0
POLYLINE
  8
0
  6
CONTINUOUS
 66
     1
 40
0.000000
 41
0.000000
  0
VERTEX
  8
0
  6
CONTINUOUS
 10
2.493940
 20
4.578183
  0
VERTEX
  8
0
  6
CONTINUOUS
 10
2.496272
 20
5.306618
  0
VERTEX
  8
0
  6
CONTINUOUS
 10
2.578678
 20
5.326054
  0
VERTEX
  8
0
  6
CONTINUOUS
 10
2.576345
 20
4.597618
  0
VERTEX
  8
0
  6
CONTINUOUS
 10
2.493940
 20
4.578183
  0
SEQEND
  8
0
  0
SOLID
  8
0
 62
    15
 10
2.576345
 20
4.597618
 11
2.578678
 21
5.326054
 12
2.748154
 22
4.628715
 13
2.750486
 23
5.356373
  0
POLYLINE
  8
0
  6
CONTINUOUS
 66
     1
 40
0.000000
 41
0.000000
  0
VERTEX
  8
0
  6
CONTINUOUS
 10
2.576345
 20
4.597618
  0
VERTEX
  8
0
  6
CONTINUOUS
 10
2.578678
 20
5.326054
  0
VERTEX
  8
0
  6
CONTINUOUS
 10
2.750486
 20
5.356373
  0
VERTEX
  8
0
  6
CONTINUOUS
 10
2.748154
 20
4.628715
  0
VERTEX
  8
0
  6
CONTINUOUS
 10
2.576345
 20
4.597618
  0
SEQEND
  8
0
  0
SOLID
  8
0
 62
    15
 10
2.748154
 20
4.628715
 11
2.750486
 21
5.356373
 12
2.922294
 22
4.649705
 13
2.925404
 23
5.377363
  0
POLYLINE
  8
0
  6
CONTINUOUS
 66
     1
 40
0.000000
 41
0.000000
  0
VERTEX
  8
0
  6
CONTINUOUS
 10
2.748154
 20
4.628715
  0
VERTEX
  8
0
  6
CONTINUOUS
 10
2.750486
 20
5.356373
  0
VERTEX
  8
0
  6
CONTINUOUS
 10
2.925404
 20
5.377363
  0
VERTEX
  8
0
  6
CONTINUOUS
 10
2.922294
 20
4.649705
  0
VERTEX
  8
0
  6
CONTINUOUS
 10
2.748154
 20
4.628715
  0
SEQEND
  8
0
  0
SOLID
  8
0
 62
    15
 10
2.922294
 20
4.649705
 11
2.925404
 21
5.377363
 12
3.091770
 22
4.664476
 13
3.094880
 23
5.392134
  0
POLYLINE
  8
0
  6
CONTINUOUS
 66
     1
 40
0.000000
 41
0.000000
  0
VERTEX
  8
0
  6
CONTINUOUS
 10
2.922294
 20
4.649705
  0
VERTEX
  8
0
  6
CONTINUOUS
 10
2.925404
 20
5.377363
  0
VERTEX
  8
0
  6
CONTINUOUS
 10
3.094880
 20
5.392134
  0
VERTEX
  8
0
  6
CONTINUOUS
 10
3.091770
 20
4.664476
  0
VERTEX
  8
0
  6
CONTINUOUS
 10
2.922294
 20
4.649705
  0
SEQEND
  8
0
  0
SOLID
  8
0
 62
    15
 10
3.091770
 20
4.664476
 11
3.094880
 21
5.392134
 12
3.172621
 22
4.669917
 13
3.174953
 23
5.398353
  0
POLYLINE
  8
0
  6
CONTINUOUS
 66
     1
 40
0.000000
 41
0.000000
  0
VERTEX
  8
0
  6
CONTINUOUS
 10
3.091770
 20
4.664476
  0
VERTEX
  8
0
  6
CONTINUOUS
 10
3.094880
 20
5.392134
  0
VERTEX
  8
0
  6
CONTINUOUS
 10
3.174953
 20
5.398353
  0
VERTEX
  8
0
  6
CONTINUOUS
 10
3.172621
 20
4.669917
  0
VERTEX
  8
0
  6
CONTINUOUS
 10
3.091770
 20
4.664476
  0
SEQEND
  8
0
  0
SOLID
  8
0
 62
    15
 10
3.172621
 20
4.669917
 11
3.174953
 21
5.398353
 12
3.248807
 22
4.675359
 13
3.251139
 23
5.403018
  0
POLYLINE
  8
0
  6
CONTINUOUS
 66
     1
 40
0.000000
 41
0.000000
  0
VERTEX
  8
0
  6
CONTINUOUS
 10
3.172621
 20
4.669917
  0
VERTEX
  8
0
  6
CONTINUOUS
 10
3.174953
 20
5.398353
  0
VERTEX
  8
0
  6
CONTINUOUS
 10
3.251139
 20
5.403018
  0
VERTEX
  8
0
  6
CONTINUOUS
 10
3.248807
 20
4.675359
  0
VERTEX
  8
0
  6
CONTINUOUS
 10
3.172621
 20
4.669917
  0
SEQEND
  8
0
  0
SOLID
  8
0
 62
    15
 10
3.248807
 20
4.675359
 11
3.251139
 21
5.403018
 12
3.250362
 22
4.680801
 13
3.252694
 23
5.408459
  0
POLYLINE
  8
0
  6
CONTINUOUS
 66
     1
 40
0.000000
 41
0.000000
  0
VERTEX
  8
0
  6
CONTINUOUS
 10
3.248807
 20
4.675359
  0
VERTEX
  8
0
  6
CONTINUOUS
 10
3.251139
 20
5.403018
  0
VERTEX
  8
0
  6
CONTINUOUS
 10
3.252694
 20
5.408459
  0
VERTEX
  8
0
  6
CONTINUOUS
 10
3.250362
 20
4.680801
  0
VERTEX
  8
0
  6
CONTINUOUS
 10
3.248807
 20
4.675359
  0
SEQEND
  8
0
  0
SOLID
  8
0
 62
    15
 10
3.250362
 20
4.680801
 11
3.252694
 21
5.408459
 12
3.260468
 22
4.784975
 13
3.263578
 23
5.512633
  0
POLYLINE
  8
0
  6
CONTINUOUS
 66
     1
 40
0.000000
 41
0.000000
  0
VERTEX
  8
0
  6
CONTINUOUS
 10
3.250362
 20
4.680801
  0
VERTEX
  8
0
  6
CONTINUOUS
 10
3.252694
 20
5.408459
  0
VERTEX
  8
0
  6
CONTINUOUS
 10
3.263578
 20
5.512633
  0
VERTEX
  8
0
  6
CONTINUOUS
 10
3.260468
 20
4.784975
  0
VERTEX
  8
0
  6
CONTINUOUS
 10
3.250362
 20
4.680801
  0
SEQEND
  8
0
  0
SOLID
  8
0
 62
    15
 10
3.260468
 20
4.784975
 11
3.263578
 21
5.512633
 12
3.262023
 22
4.795081
 13
3.265133
 23
5.523517
  0
POLYLINE
  8
0
  6
CONTINUOUS
 66
     1
 40
0.000000
 41
0.000000
  0
VERTEX
  8
0
  6
CONTINUOUS
 10
3.260468
 20
4.784975
  0
VERTEX
  8
0
  6
CONTINUOUS
 10
3.263578
 20
5.512633
  0
VERTEX
  8
0
  6
CONTINUOUS
 10
3.265133
 20
5.523517
  0
VERTEX
  8
0
  6
CONTINUOUS
 10
3.262023
 20
4.795081
  0
VERTEX
  8
0
  6
CONTINUOUS
 10
3.260468
 20
4.784975
  0
SEQEND
  8
0
  0
SOLID
  8
0
 62
    15
 10
3.262023
 20
4.795081
 11
3.265133
 21
5.523517
 12
4.043323
 22
4.795081
 13
4.046433
 23
5.523517
  0
POLYLINE
  8
0
  6
CONTINUOUS
 66
     1
 40
0.000000
 41
0.000000
  0
VERTEX
  8
0
  6
CONTINUOUS
 10
3.262023
 20
4.795081
  0
VERTEX
  8
0
  6
CONTINUOUS
 10
3.265133
 20
5.523517
  0
VERTEX
  8
0
  6
CONTINUOUS
 10
4.046433
 20
5.523517
  0
VERTEX
  8
0
  6
CONTINUOUS
 10
4.043323
 20
4.795081
  0
VERTEX
  8
0
  6
CONTINUOUS
 10
3.262023
 20
4.795081
  0
SEQEND
  8
0
  0
SOLID
  8
0
 62
    15
 10
4.043323
 20
4.795081
 11
4.046433
 21
5.523517
 12
4.061981
 22
4.790416
 13
4.065090
 23
5.518075
  0
POLYLINE
  8
0
  6
CONTINUOUS
 66
     1
 40
0.000000
 41
0.000000
  0
VERTEX
  8
0
  6
CONTINUOUS
 10
4.043323
 20
4.795081
  0
VERTEX
  8
0
  6
CONTINUOUS
 10
4.046433
 20
5.523517
  0
VERTEX
  8
0
  6
CONTINUOUS
 10
4.065090
 20
5.518075
  0
VERTEX
  8
0
  6
CONTINUOUS
 10
4.061981
 20
4.790416
  0
VERTEX
  8
0
  6
CONTINUOUS
 10
4.043323
 20
4.795081
  0
SEQEND
  8
0
  0
POLYLINE
  8
0
  6
CONTINUOUS
 66
     1
 40
0.000000
 41
0.000000
  0
VERTEX
  8
0
  6
CONTINUOUS
 10
4.061981
 20
4.790416
  0
VERTEX
  8
0
  6
CONTINUOUS
 10
4.068978
 20
4.669917
  0
VERTEX
  8
0
  6
CONTINUOUS
 10
4.074419
 20
4.664476
  0
VERTEX
  8
0
  6
CONTINUOUS
 10
4.212021
 20
4.655924
  0
VERTEX
  8
0
  6
CONTINUOUS
 10
4.456129
 20
4.633379
  0
VERTEX
  8
0
  6
CONTINUOUS
 10
4.563412
 20
4.620163
  0
VERTEX
  8
0
  6
CONTINUOUS
 10
4.750768
 20
4.588289
  0
VERTEX
  8
0
  6
CONTINUOUS
 10
4.831619
 20
4.569631
  0
VERTEX
  8
0
  6
CONTINUOUS
 10
4.904696
 20
4.549419
  0
VERTEX
  8
0
  6
CONTINUOUS
 10
4.969221
 20
4.527651
  0
VERTEX
  8
0
  6
CONTINUOUS
 10
5.026750
 20
4.504329
  0
VERTEX
  8
0
  6
CONTINUOUS
 10
5.078059
 20
4.478674
  0
VERTEX
  8
0
  6
CONTINUOUS
 10
5.121594
 20
4.450687
  0
VERTEX
  8
0
  6
CONTINUOUS
 10
5.159687
 20
4.421145
  0
VERTEX
  8
0
  6
CONTINUOUS
 10
5.192339
 20
4.390049
  0
VERTEX
  8
0
  6
CONTINUOUS
 10
5.218771
 20
4.356620
  0
VERTEX
  8
0
  6
CONTINUOUS
 10
5.240538
 20
4.320859
  0
VERTEX
  8
0
  6
CONTINUOUS
 10
5.748966
 20
4.326301
  0
VERTEX
  8
0
  6
CONTINUOUS
 10
5.764514
 20
4.794303
  0
VERTEX
  8
0
  6
CONTINUOUS
 10
6.627442
 20
4.794303
  0
VERTEX
  8
0
  6
CONTINUOUS
 10
6.628997
 20
4.792749
  0
VERTEX
  8
0
  6
CONTINUOUS
 10
6.648433
 20
4.536980
  0
VERTEX
  8
0
  6
CONTINUOUS
 10
6.998268
 20
4.520654
  0
VERTEX
  8
0
  6
CONTINUOUS
 10
7.020813
 20
4.280434
  0
VERTEX
  8
0
  6
CONTINUOUS
 10
7.111770
 20
4.279656
  0
VERTEX
  8
0
  6
CONTINUOUS
 10
7.126541
 20
4.327856
  0
VERTEX
  8
0
  6
CONTINUOUS
 10
7.148309
 20
4.372946
  0
VERTEX
  8
0
  6
CONTINUOUS
 10
7.177073
 20
4.412594
  0
VERTEX
  8
0
  6
CONTINUOUS
 10
7.212057
 20
4.447577
  0
VERTEX
  8
0
  6
CONTINUOUS
 10
7.251705
 20
4.476342
  0
VERTEX
  8
0
  6
CONTINUOUS
 10
7.296795
 20
4.497332
  0
VERTEX
  8
0
  6
CONTINUOUS
 10
7.344994
 20
4.510548
  0
VERTEX
  8
0
  6
CONTINUOUS
 10
7.397081
 20
4.515212
  0
VERTEX
  8
0
  6
CONTINUOUS
 10
7.456942
 20
4.508993
  0
VERTEX
  8
0
  6
CONTINUOUS
 10
7.512915
 20
4.491890
  0
VERTEX
  8
0
  6
CONTINUOUS
 10
7.563447
 20
4.463903
  0
VERTEX
  8
0
  6
CONTINUOUS
 10
7.608537
 20
4.427365
  0
VERTEX
  8
0
  6
CONTINUOUS
 10
7.645075
 20
4.382275
  0
VERTEX
  8
0
  6
CONTINUOUS
 10
7.673062
 20
4.331743
  0
VERTEX
  8
0
  6
CONTINUOUS
 10
7.690165
 20
4.275769
  0
VERTEX
  8
0
  6
CONTINUOUS
 10
7.696385
 20
4.215131
  0
VERTEX
  8
0
  6
CONTINUOUS
 10
7.690165
 20
4.155270
  0
VERTEX
  8
0
  6
CONTINUOUS
 10
7.673062
 20
4.099297
  0
VERTEX
  8
0
  6
CONTINUOUS
 10
7.645075
 20
4.048765
  0
VERTEX
  8
0
  6
CONTINUOUS
 10
7.608537
 20
4.003675
  0
VERTEX
  8
0
  6
CONTINUOUS
 10
7.563447
 20
3.967136
  0
VERTEX
  8
0
  6
CONTINUOUS
 10
7.512915
 20
3.939150
  0
VERTEX
  8
0
  6
CONTINUOUS
 10
7.456942
 20
3.921269
  0
VERTEX
  8
0
  6
CONTINUOUS
 10
7.397081
 20
3.915827
  0
VERTEX
  8
0
  6
CONTINUOUS
 10
7.359765
 20
3.915827
  0
VERTEX
  8
0
  6
CONTINUOUS
 10
7.358210
 20
3.914272
  0
VERTEX
  8
0
  6
CONTINUOUS
 10
1.000530
 20
3.914272
  0
VERTEX
  8
0
  6
CONTINUOUS
 10
1.000530
 20
4.802078
  0
VERTEX
  8
0
  6
CONTINUOUS
 10
1.576593
 20
4.802078
  0
VERTEX
  8
0
  6
CONTINUOUS
 10
1.579702
 20
4.800523
  0
VERTEX
  8
0
  6
CONTINUOUS
 10
1.650447
 20
4.341849
  0
VERTEX
  8
0
  6
CONTINUOUS
 10
2.075692
 20
4.331743
  0
VERTEX
  8
0
  6
CONTINUOUS
 10
2.111453
 20
4.380720
  0
VERTEX
  8
0
  6
CONTINUOUS
 10
2.156543
 20
4.425033
  0
VERTEX
  8
0
  6
CONTINUOUS
 10
2.210961
 20
4.464681
  0
VERTEX
  8
0
  6
CONTINUOUS
 10
2.272377
 20
4.498887
  0
VERTEX
  8
0
  6
CONTINUOUS
 10
2.340789
 20
4.529206
  0
VERTEX
  8
0
  6
CONTINUOUS
 10
2.414644
 20
4.555638
  0
VERTEX
  8
0
  6
CONTINUOUS
 10
2.493940
 20
4.578183
  0
VERTEX
  8
0
  6
CONTINUOUS
 10
2.576345
 20
4.597618
  0
VERTEX
  8
0
  6
CONTINUOUS
 10
2.748154
 20
4.628715
  0
VERTEX
  8
0
  6
CONTINUOUS
 10
2.922294
 20
4.649705
  0
VERTEX
  8
0
  6
CONTINUOUS
 10
3.172621
 20
4.669917
  0
VERTEX
  8
0
  6
CONTINUOUS
 10
3.248807
 20
4.675359
  0
VERTEX
  8
0
  6
CONTINUOUS
 10
3.262023
 20
4.795081
  0
VERTEX
  8
0
  6
CONTINUOUS
 10
4.043323
 20
4.795081
  0
VERTEX
  8
0
  6
CONTINUOUS
 10
4.061981
 20
4.790416
  0
SEQEND
  8
0
  0
TEXT
  8
0
 10
4.053429
 20
3.639846
 40
0.133515
  1
BA  182
 41
1.000000
  7
SN1
 71
     0
 72
     5
 11
4.632330
 21
3.639846
  0
TEXT
  8
0
 10
3.805435
 20
3.447825
 40
0.133515
  1
7/8" x 6-11/16"
 41
1.000000
  7
SN1
 71
     0
 72
     5
 11
4.870133
 21
3.447825
  0
TEXT
  8
0
 10
7.641966
 20
7.432064
 40
0.133515
  1
case
 41
1.000000
  7
SN1
 71
     0
 72
     5
 11
7.986725
 21
7.432064
  0
TEXT
  8
0
 10
7.678504
 20
7.240821
 40
0.133515
  1
182
 41
1.000000
  7
SN1
 71
     0
 72
     5
 11
7.949518
 21
7.240821
  0
ENDSEC
  0
EOF
