  0
SECTION
  2
HEADER
  9
$ACADVER
  1
AC1006
  9
$EXTMIN
 10
0.506880
 20
0.343640
  9
$EXTMAX
 10
8.125040
 20
2.788720
  9
$LTSCALE
 40
0.044000
  9
$PDMODE
 70
    35
  9
$PDSIZE
 40
0.035200
  0
ENDSEC
  0
SECTION
  2
TABLES
  0
TABLE
  2
LTYPE
 70
     9
  0
LTYPE
  2
CONTINUOUS
 70
    64
  3
Solid line
 72
    65
 73
     0
 40
0.000000
  0
LTYPE
  2
DASHED
 70
    64
  3
__ __ __ __ __ __ __ __ __ __ __ __ __ __ __
 72
    65
 73
     2
 40
0.000330
 49
0.000220
 49
-0.000110
  0
LTYPE
  2
HIDDEN
 70
    64
  3
 _ _ _ _ _ _ _ _ _ _ _ _ _ _ _ _ _ _ _ _ _ _
 72
    65
 73
     2
 40
0.000165
 49
0.000110
 49
-0.000055
  0
LTYPE
  2
CENTER
 70
    64
  3
____ _ ____ _ ____ _ ____ _ ____ _ ____ _ ____
 72
    65
 73
     4
 40
0.000880
 49
0.000550
 49
-0.000110
 49
0.000110
 49
-0.000110
  0
LTYPE
  2
PHANTOM
 70
    64
  3
_____ _ _ _____ _ _ _____ _ _ _____ _ _ ____
 72
    65
 73
     6
 40
0.001100
 49
0.000550
 49
-0.000110
 49
0.000110
 49
-0.000110
 49
0.000110
 49
-0.000110
  0
LTYPE
  2
DOT
 70
    64
  3
...............................................
 72
    65
 73
     2
 40
0.000110
 49
0.000000
 49
-0.000110
  0
LTYPE
  2
DASHDOT
 70
    64
  3
__ . __ . __ . __ . __ . __ . __ . __ . __ . __
 72
    65
 73
     4
 40
0.000440
 49
0.000220
 49
-0.000110
 49
0.000000
 49
-0.000110
  0
LTYPE
  2
BORDER
 70
    64
  3
__ __ . __ __ . __ __ . __ __ . __ __ . __ __
 72
    65
 73
     6
 40
0.000770
 49
0.000220
 49
-0.000110
 49
0.000220
 49
-0.000110
 49
0.000000
 49
-0.000110
  0
LTYPE
  2
DIVIDE
 70
    64
  3
__ . . __ . . __ . . __ . . __ . . __ . . __
 72
    65
 73
     6
 40
0.000550
 49
0.000220
 49
-0.000110
 49
0.000000
 49
-0.000110
 49
0.000000
 49
-0.000110
  0
LTYPE
  2
DOTDOT
 70
    64
  3
 . .  . .  . .  . .  . .  . . 
 72
    65
 73
     5
 40
0.000242
 49
-0.000110
 49
0.000000
 49
-0.000110
 49
0.000000
 49
-0.000110
  0
ENDTAB
  0
TABLE
  2
STYLE
 70
     2
  0
STYLE
 70
     0
  2
SN0
 40
0.000000
 41
0.000440
 50
0.000000
 71
     0
 42
0.000000
  3
ROMAND
  0
STYLE
 70
    68
  2
SV0
 40
0.000000
 41
0.000440
 50
0.000000
 71
     0
 42
0.000000
  3
ROMAND
  0
ENDTAB
  0
TABLE
  2
LAYER
 70
     3
  0
LAYER
  2
FOREGROUND
 70
    64
 62
     7
  6
CONTINUOUS
  0
LAYER
  2
BACKGROUND
 70
    65
 62
    -7
  6
CONTINUOUS
  0
LAYER
  2
0
 70
    64
 62
     7
  6
CONTINUOUS
  0
ENDTAB
  0
ENDSEC
  0
SECTION
  2
ENTITIES
  0
POLYLINE
  8
FOREGROUND
  6
CONTINUOUS
 66
     1
 40
0.000000
 41
0.000000
  0
VERTEX
  8
FOREGROUND
  6
CONTINUOUS
 10
0.000000
 20
3.132360
  0
VERTEX
  8
FOREGROUND
  6
CONTINUOUS
 10
8.499920
 20
3.132360
  0
VERTEX
  8
FOREGROUND
  6
CONTINUOUS
 10
8.499920
 20
-7.867640
  0
VERTEX
  8
FOREGROUND
  6
CONTINUOUS
 10
0.000000
 20
-7.867640
  0
VERTEX
  8
FOREGROUND
  6
CONTINUOUS
 10
0.000000
 20
3.132360
  0
SEQEND
  8
0
  0
POLYLINE
  8
FOREGROUND
  6
CONTINUOUS
 66
     1
 40
0.000000
 41
0.000000
  0
VERTEX
  8
FOREGROUND
  6
CONTINUOUS
 10
0.000000
 20
3.132360
  0
VERTEX
  8
FOREGROUND
  6
CONTINUOUS
 10
8.499920
 20
3.132360
  0
VERTEX
  8
FOREGROUND
  6
CONTINUOUS
 10
8.499920
 20
-7.867640
  0
VERTEX
  8
FOREGROUND
  6
CONTINUOUS
 10
0.000000
 20
-7.867640
  0
VERTEX
  8
FOREGROUND
  6
CONTINUOUS
 10
0.000000
 20
3.132360
  0
SEQEND
  8
0
  0
POLYLINE
  8
0
  6
CONTINUOUS
 66
     1
 40
0.014080
 41
0.014080
  0
VERTEX
  8
0
  6
CONTINUOUS
 10
7.129320
 20
0.995280
  0
VERTEX
  8
0
  6
CONTINUOUS
 10
7.357240
 20
2.211000
  0
VERTEX
  8
0
  6
CONTINUOUS
 10
7.361200
 20
2.214960
  0
VERTEX
  8
0
  6
CONTINUOUS
 10
7.364280
 20
2.245760
  0
VERTEX
  8
0
  6
CONTINUOUS
 10
7.370440
 20
2.292840
  0
VERTEX
  8
0
  6
CONTINUOUS
 10
7.370880
 20
2.314400
  0
VERTEX
  8
0
  6
CONTINUOUS
 10
7.370000
 20
2.336840
  0
VERTEX
  8
0
  6
CONTINUOUS
 10
7.362960
 20
2.370280
  0
VERTEX
  8
0
  6
CONTINUOUS
 10
7.353720
 20
2.391400
  0
VERTEX
  8
0
  6
CONTINUOUS
 10
7.340080
 20
2.411640
  0
VERTEX
  8
0
  6
CONTINUOUS
 10
7.321160
 20
2.429680
  0
VERTEX
  8
0
  6
CONTINUOUS
 10
7.296520
 20
2.445520
  0
VERTEX
  8
0
  6
CONTINUOUS
 10
7.265280
 20
2.457840
  0
VERTEX
  8
0
  6
CONTINUOUS
 10
7.247240
 20
2.463120
  0
VERTEX
  8
0
  6
CONTINUOUS
 10
7.227440
 20
2.467080
  0
VERTEX
  8
0
  6
CONTINUOUS
 10
7.181240
 20
2.471920
  0
VERTEX
  8
0
  6
CONTINUOUS
 10
6.035920
 20
2.472360
  0
VERTEX
  8
0
  6
CONTINUOUS
 10
6.041200
 20
2.473680
  0
VERTEX
  8
0
  6
CONTINUOUS
 10
4.896320
 20
2.473240
  0
VERTEX
  8
0
  6
CONTINUOUS
 10
4.850120
 20
2.468400
  0
VERTEX
  8
0
  6
CONTINUOUS
 10
4.811840
 20
2.459160
  0
VERTEX
  8
0
  6
CONTINUOUS
 10
4.780600
 20
2.446840
  0
VERTEX
  8
0
  6
CONTINUOUS
 10
4.755960
 20
2.431000
  0
VERTEX
  8
0
  6
CONTINUOUS
 10
4.737480
 20
2.412960
  0
VERTEX
  8
0
  6
CONTINUOUS
 10
4.723840
 20
2.392720
  0
VERTEX
  8
0
  6
CONTINUOUS
 10
4.714600
 20
2.371600
  0
VERTEX
  8
0
  6
CONTINUOUS
 10
4.708880
 20
2.349160
  0
VERTEX
  8
0
  6
CONTINUOUS
 10
4.707120
 20
2.338160
  0
VERTEX
  8
0
  6
CONTINUOUS
 10
4.706680
 20
2.294160
  0
VERTEX
  8
0
  6
CONTINUOUS
 10
4.715920
 20
2.220680
  0
VERTEX
  8
0
  6
CONTINUOUS
 10
4.715920
 20
2.216280
  0
VERTEX
  8
0
  6
CONTINUOUS
 10
4.719880
 20
2.212320
  0
VERTEX
  8
0
  6
CONTINUOUS
 10
4.948240
 20
0.996600
  0
VERTEX
  8
0
  6
CONTINUOUS
 10
4.956160
 20
0.987360
  0
VERTEX
  8
0
  6
CONTINUOUS
 10
6.041200
 20
0.987360
  0
VERTEX
  8
0
  6
CONTINUOUS
 10
6.035920
 20
0.986040
  0
VERTEX
  8
0
  6
CONTINUOUS
 10
7.121400
 20
0.986040
  0
VERTEX
  8
0
  6
CONTINUOUS
 10
7.129320
 20
0.995280
  0
SEQEND
  8
0
  0
SOLID
  8
0
 62
    15
 10
3.083520
 20
2.289320
 11
3.750560
 21
2.653200
 12
3.111240
 22
2.275240
 13
3.778280
 23
2.639120
  0
POLYLINE
  8
0
  6
CONTINUOUS
 66
     1
 40
0.000000
 41
0.000000
  0
VERTEX
  8
0
  6
CONTINUOUS
 10
3.083520
 20
2.289320
  0
VERTEX
  8
0
  6
CONTINUOUS
 10
3.750560
 20
2.653200
  0
VERTEX
  8
0
  6
CONTINUOUS
 10
3.778280
 20
2.639120
  0
VERTEX
  8
0
  6
CONTINUOUS
 10
3.111240
 20
2.275240
  0
VERTEX
  8
0
  6
CONTINUOUS
 10
3.083520
 20
2.289320
  0
SEQEND
  8
0
  0
SOLID
  8
0
 62
    15
 10
0.569360
 20
2.276560
 11
1.236400
 21
2.640440
 12
0.597080
 22
2.290640
 13
1.264120
 23
2.654520
  0
POLYLINE
  8
0
  6
CONTINUOUS
 66
     1
 40
0.000000
 41
0.000000
  0
VERTEX
  8
0
  6
CONTINUOUS
 10
0.569360
 20
2.276560
  0
VERTEX
  8
0
  6
CONTINUOUS
 10
1.236400
 20
2.640440
  0
VERTEX
  8
0
  6
CONTINUOUS
 10
1.264120
 20
2.654520
  0
VERTEX
  8
0
  6
CONTINUOUS
 10
0.597080
 20
2.290640
  0
VERTEX
  8
0
  6
CONTINUOUS
 10
0.569360
 20
2.276560
  0
SEQEND
  8
0
  0
SOLID
  8
0
 62
    15
 10
0.597080
 20
2.290640
 11
1.264120
 21
2.654520
 12
0.631840
 22
2.301200
 13
1.298880
 23
2.665080
  0
POLYLINE
  8
0
  6
CONTINUOUS
 66
     1
 40
0.000000
 41
0.000000
  0
VERTEX
  8
0
  6
CONTINUOUS
 10
0.597080
 20
2.290640
  0
VERTEX
  8
0
  6
CONTINUOUS
 10
1.264120
 20
2.654520
  0
VERTEX
  8
0
  6
CONTINUOUS
 10
1.298880
 20
2.665080
  0
VERTEX
  8
0
  6
CONTINUOUS
 10
0.631840
 20
2.301200
  0
VERTEX
  8
0
  6
CONTINUOUS
 10
0.597080
 20
2.290640
  0
SEQEND
  8
0
  0
SOLID
  8
0
 62
    15
 10
0.631840
 20
2.301200
 11
1.298880
 21
2.665080
 12
0.674080
 22
2.308240
 13
1.340680
 23
2.672120
  0
POLYLINE
  8
0
  6
CONTINUOUS
 66
     1
 40
0.000000
 41
0.000000
  0
VERTEX
  8
0
  6
CONTINUOUS
 10
0.631840
 20
2.301200
  0
VERTEX
  8
0
  6
CONTINUOUS
 10
1.298880
 20
2.665080
  0
VERTEX
  8
0
  6
CONTINUOUS
 10
1.340680
 20
2.672120
  0
VERTEX
  8
0
  6
CONTINUOUS
 10
0.674080
 20
2.308240
  0
VERTEX
  8
0
  6
CONTINUOUS
 10
0.631840
 20
2.301200
  0
SEQEND
  8
0
  0
SOLID
  8
0
 62
    15
 10
0.674080
 20
2.308240
 11
1.340680
 21
2.672120
 12
0.724240
 22
2.310880
 13
1.391280
 23
2.674760
  0
POLYLINE
  8
0
  6
CONTINUOUS
 66
     1
 40
0.000000
 41
0.000000
  0
VERTEX
  8
0
  6
CONTINUOUS
 10
0.674080
 20
2.308240
  0
VERTEX
  8
0
  6
CONTINUOUS
 10
1.340680
 20
2.672120
  0
VERTEX
  8
0
  6
CONTINUOUS
 10
1.391280
 20
2.674760
  0
VERTEX
  8
0
  6
CONTINUOUS
 10
0.724240
 20
2.310880
  0
VERTEX
  8
0
  6
CONTINUOUS
 10
0.674080
 20
2.308240
  0
SEQEND
  8
0
  0
SOLID
  8
0
 62
    15
 10
1.837880
 20
2.309560
 11
2.504480
 21
2.673440
 12
2.956360
 22
2.309560
 13
3.623400
 23
2.673440
  0
POLYLINE
  8
0
  6
CONTINUOUS
 66
     1
 40
0.000000
 41
0.000000
  0
VERTEX
  8
0
  6
CONTINUOUS
 10
1.837880
 20
2.309560
  0
VERTEX
  8
0
  6
CONTINUOUS
 10
2.504480
 20
2.673440
  0
VERTEX
  8
0
  6
CONTINUOUS
 10
3.623400
 20
2.673440
  0
VERTEX
  8
0
  6
CONTINUOUS
 10
2.956360
 20
2.309560
  0
VERTEX
  8
0
  6
CONTINUOUS
 10
1.837880
 20
2.309560
  0
SEQEND
  8
0
  0
SOLID
  8
0
 62
    15
 10
0.724240
 20
2.310880
 11
1.391280
 21
2.674760
 12
1.843160
 22
2.310880
 13
2.509760
 23
2.674760
  0
POLYLINE
  8
0
  6
CONTINUOUS
 66
     1
 40
0.000000
 41
0.000000
  0
VERTEX
  8
0
  6
CONTINUOUS
 10
0.724240
 20
2.310880
  0
VERTEX
  8
0
  6
CONTINUOUS
 10
1.391280
 20
2.674760
  0
VERTEX
  8
0
  6
CONTINUOUS
 10
2.509760
 20
2.674760
  0
VERTEX
  8
0
  6
CONTINUOUS
 10
1.843160
 20
2.310880
  0
VERTEX
  8
0
  6
CONTINUOUS
 10
0.724240
 20
2.310880
  0
SEQEND
  8
0
  0
SOLID
  8
0
 62
    15
 10
2.956360
 20
2.309560
 11
3.623400
 21
2.673440
 12
3.006520
 22
2.306920
 13
3.673560
 23
2.670800
  0
POLYLINE
  8
0
  6
CONTINUOUS
 66
     1
 40
0.000000
 41
0.000000
  0
VERTEX
  8
0
  6
CONTINUOUS
 10
2.956360
 20
2.309560
  0
VERTEX
  8
0
  6
CONTINUOUS
 10
3.623400
 20
2.673440
  0
VERTEX
  8
0
  6
CONTINUOUS
 10
3.673560
 20
2.670800
  0
VERTEX
  8
0
  6
CONTINUOUS
 10
3.006520
 20
2.306920
  0
VERTEX
  8
0
  6
CONTINUOUS
 10
2.956360
 20
2.309560
  0
SEQEND
  8
0
  0
SOLID
  8
0
 62
    15
 10
3.006520
 20
2.306920
 11
3.673560
 21
2.670800
 12
3.048760
 22
2.299880
 13
3.715800
 23
2.663760
  0
POLYLINE
  8
0
  6
CONTINUOUS
 66
     1
 40
0.000000
 41
0.000000
  0
VERTEX
  8
0
  6
CONTINUOUS
 10
3.006520
 20
2.306920
  0
VERTEX
  8
0
  6
CONTINUOUS
 10
3.673560
 20
2.670800
  0
VERTEX
  8
0
  6
CONTINUOUS
 10
3.715800
 20
2.663760
  0
VERTEX
  8
0
  6
CONTINUOUS
 10
3.048760
 20
2.299880
  0
VERTEX
  8
0
  6
CONTINUOUS
 10
3.006520
 20
2.306920
  0
SEQEND
  8
0
  0
SOLID
  8
0
 62
    15
 10
3.048760
 20
2.299880
 11
3.715800
 21
2.663760
 12
3.083520
 22
2.289320
 13
3.750560
 23
2.653200
  0
POLYLINE
  8
0
  6
CONTINUOUS
 66
     1
 40
0.000000
 41
0.000000
  0
VERTEX
  8
0
  6
CONTINUOUS
 10
3.048760
 20
2.299880
  0
VERTEX
  8
0
  6
CONTINUOUS
 10
3.715800
 20
2.663760
  0
VERTEX
  8
0
  6
CONTINUOUS
 10
3.750560
 20
2.653200
  0
VERTEX
  8
0
  6
CONTINUOUS
 10
3.083520
 20
2.289320
  0
VERTEX
  8
0
  6
CONTINUOUS
 10
3.048760
 20
2.299880
  0
SEQEND
  8
0
  0
SOLID
  8
0
 62
    15
 10
1.837880
 20
0.822800
 11
2.504480
 21
1.186680
 12
1.843160
 22
0.824120
 13
2.509760
 23
1.188000
  0
POLYLINE
  8
0
  6
CONTINUOUS
 66
     1
 40
0.000000
 41
0.000000
  0
VERTEX
  8
0
  6
CONTINUOUS
 10
1.837880
 20
0.822800
  0
VERTEX
  8
0
  6
CONTINUOUS
 10
2.504480
 20
1.186680
  0
VERTEX
  8
0
  6
CONTINUOUS
 10
2.509760
 20
1.188000
  0
VERTEX
  8
0
  6
CONTINUOUS
 10
1.843160
 20
0.824120
  0
VERTEX
  8
0
  6
CONTINUOUS
 10
1.837880
 20
0.822800
  0
SEQEND
  8
0
  0
SOLID
  8
0
 62
    15
 10
3.111240
 20
2.275240
 11
3.778280
 21
2.639120
 12
3.149080
 22
2.239160
 13
3.815680
 23
2.603040
  0
POLYLINE
  8
0
  6
CONTINUOUS
 66
     1
 40
0.000000
 41
0.000000
  0
VERTEX
  8
0
  6
CONTINUOUS
 10
3.111240
 20
2.275240
  0
VERTEX
  8
0
  6
CONTINUOUS
 10
3.778280
 20
2.639120
  0
VERTEX
  8
0
  6
CONTINUOUS
 10
3.815680
 20
2.603040
  0
VERTEX
  8
0
  6
CONTINUOUS
 10
3.149080
 20
2.239160
  0
VERTEX
  8
0
  6
CONTINUOUS
 10
3.111240
 20
2.275240
  0
SEQEND
  8
0
  0
SOLID
  8
0
 62
    15
 10
3.149080
 20
2.239160
 11
3.815680
 21
2.603040
 12
3.167560
 22
2.196040
 13
3.834600
 23
2.559920
  0
POLYLINE
  8
0
  6
CONTINUOUS
 66
     1
 40
0.000000
 41
0.000000
  0
VERTEX
  8
0
  6
CONTINUOUS
 10
3.149080
 20
2.239160
  0
VERTEX
  8
0
  6
CONTINUOUS
 10
3.815680
 20
2.603040
  0
VERTEX
  8
0
  6
CONTINUOUS
 10
3.834600
 20
2.559920
  0
VERTEX
  8
0
  6
CONTINUOUS
 10
3.167560
 20
2.196040
  0
VERTEX
  8
0
  6
CONTINUOUS
 10
3.149080
 20
2.239160
  0
SEQEND
  8
0
  0
SOLID
  8
0
 62
    15
 10
3.167560
 20
2.196040
 11
3.834600
 21
2.559920
 12
3.172840
 22
2.151600
 13
3.839880
 23
2.515480
  0
POLYLINE
  8
0
  6
CONTINUOUS
 66
     1
 40
0.000000
 41
0.000000
  0
VERTEX
  8
0
  6
CONTINUOUS
 10
3.167560
 20
2.196040
  0
VERTEX
  8
0
  6
CONTINUOUS
 10
3.834600
 20
2.559920
  0
VERTEX
  8
0
  6
CONTINUOUS
 10
3.839880
 20
2.515480
  0
VERTEX
  8
0
  6
CONTINUOUS
 10
3.172840
 20
2.151600
  0
VERTEX
  8
0
  6
CONTINUOUS
 10
3.167560
 20
2.196040
  0
SEQEND
  8
0
  0
SOLID
  8
0
 62
    15
 10
3.172840
 20
2.151600
 11
3.839880
 21
2.515480
 12
3.170200
 22
2.109800
 13
3.836800
 23
2.473680
  0
POLYLINE
  8
0
  6
CONTINUOUS
 66
     1
 40
0.000000
 41
0.000000
  0
VERTEX
  8
0
  6
CONTINUOUS
 10
3.172840
 20
2.151600
  0
VERTEX
  8
0
  6
CONTINUOUS
 10
3.839880
 20
2.515480
  0
VERTEX
  8
0
  6
CONTINUOUS
 10
3.836800
 20
2.473680
  0
VERTEX
  8
0
  6
CONTINUOUS
 10
3.170200
 20
2.109800
  0
VERTEX
  8
0
  6
CONTINUOUS
 10
3.172840
 20
2.151600
  0
SEQEND
  8
0
  0
SOLID
  8
0
 62
    15
 10
3.170200
 20
2.109800
 11
3.836800
 21
2.473680
 12
3.164920
 22
2.075040
 13
3.831960
 23
2.438920
  0
POLYLINE
  8
0
  6
CONTINUOUS
 66
     1
 40
0.000000
 41
0.000000
  0
VERTEX
  8
0
  6
CONTINUOUS
 10
3.170200
 20
2.109800
  0
VERTEX
  8
0
  6
CONTINUOUS
 10
3.836800
 20
2.473680
  0
VERTEX
  8
0
  6
CONTINUOUS
 10
3.831960
 20
2.438920
  0
VERTEX
  8
0
  6
CONTINUOUS
 10
3.164920
 20
2.075040
  0
VERTEX
  8
0
  6
CONTINUOUS
 10
3.170200
 20
2.109800
  0
SEQEND
  8
0
  0
SOLID
  8
0
 62
    15
 10
3.164920
 20
2.075040
 11
3.831960
 21
2.438920
 12
3.163160
 22
2.052160
 13
3.829760
 23
2.416040
  0
POLYLINE
  8
0
  6
CONTINUOUS
 66
     1
 40
0.000000
 41
0.000000
  0
VERTEX
  8
0
  6
CONTINUOUS
 10
3.164920
 20
2.075040
  0
VERTEX
  8
0
  6
CONTINUOUS
 10
3.831960
 20
2.438920
  0
VERTEX
  8
0
  6
CONTINUOUS
 10
3.829760
 20
2.416040
  0
VERTEX
  8
0
  6
CONTINUOUS
 10
3.163160
 20
2.052160
  0
VERTEX
  8
0
  6
CONTINUOUS
 10
3.164920
 20
2.075040
  0
SEQEND
  8
0
  0
SOLID
  8
0
 62
    15
 10
3.163160
 20
2.052160
 11
3.829760
 21
2.416040
 12
3.159200
 22
2.048200
 13
3.825800
 23
2.412080
  0
POLYLINE
  8
0
  6
CONTINUOUS
 66
     1
 40
0.000000
 41
0.000000
  0
VERTEX
  8
0
  6
CONTINUOUS
 10
3.163160
 20
2.052160
  0
VERTEX
  8
0
  6
CONTINUOUS
 10
3.829760
 20
2.416040
  0
VERTEX
  8
0
  6
CONTINUOUS
 10
3.825800
 20
2.412080
  0
VERTEX
  8
0
  6
CONTINUOUS
 10
3.159200
 20
2.048200
  0
VERTEX
  8
0
  6
CONTINUOUS
 10
3.163160
 20
2.052160
  0
SEQEND
  8
0
  0
SOLID
  8
0
 62
    15
 10
3.159200
 20
2.048200
 11
3.825800
 21
2.412080
 12
2.930840
 22
0.832040
 13
3.597880
 23
1.195920
  0
POLYLINE
  8
0
  6
CONTINUOUS
 66
     1
 40
0.000000
 41
0.000000
  0
VERTEX
  8
0
  6
CONTINUOUS
 10
3.159200
 20
2.048200
  0
VERTEX
  8
0
  6
CONTINUOUS
 10
3.825800
 20
2.412080
  0
VERTEX
  8
0
  6
CONTINUOUS
 10
3.597880
 20
1.195920
  0
VERTEX
  8
0
  6
CONTINUOUS
 10
2.930840
 20
0.832040
  0
VERTEX
  8
0
  6
CONTINUOUS
 10
3.159200
 20
2.048200
  0
SEQEND
  8
0
  0
SOLID
  8
0
 62
    15
 10
2.930840
 20
0.832040
 11
3.597880
 21
1.195920
 12
2.922920
 22
0.822800
 13
3.589960
 23
1.186680
  0
POLYLINE
  8
0
  6
CONTINUOUS
 66
     1
 40
0.000000
 41
0.000000
  0
VERTEX
  8
0
  6
CONTINUOUS
 10
2.930840
 20
0.832040
  0
VERTEX
  8
0
  6
CONTINUOUS
 10
3.597880
 20
1.195920
  0
VERTEX
  8
0
  6
CONTINUOUS
 10
3.589960
 20
1.186680
  0
VERTEX
  8
0
  6
CONTINUOUS
 10
2.922920
 20
0.822800
  0
VERTEX
  8
0
  6
CONTINUOUS
 10
2.930840
 20
0.832040
  0
SEQEND
  8
0
  0
POLYLINE
  8
0
  6
CONTINUOUS
 66
     1
 40
0.000000
 41
0.000000
  0
VERTEX
  8
0
  6
CONTINUOUS
 10
2.922920
 20
0.822800
  0
VERTEX
  8
0
  6
CONTINUOUS
 10
1.837880
 20
0.822800
  0
VERTEX
  8
0
  6
CONTINUOUS
 10
1.843160
 20
0.824120
  0
VERTEX
  8
0
  6
CONTINUOUS
 10
0.757680
 20
0.824120
  0
VERTEX
  8
0
  6
CONTINUOUS
 10
0.749760
 20
0.833360
  0
VERTEX
  8
0
  6
CONTINUOUS
 10
0.521840
 20
2.049520
  0
VERTEX
  8
0
  6
CONTINUOUS
 10
0.517440
 20
2.053480
  0
VERTEX
  8
0
  6
CONTINUOUS
 10
0.515680
 20
2.076360
  0
VERTEX
  8
0
  6
CONTINUOUS
 10
0.510400
 20
2.111120
  0
VERTEX
  8
0
  6
CONTINUOUS
 10
0.507760
 20
2.152920
  0
VERTEX
  8
0
  6
CONTINUOUS
 10
0.513040
 20
2.197800
  0
VERTEX
  8
0
  6
CONTINUOUS
 10
0.531520
 20
2.240480
  0
VERTEX
  8
0
  6
CONTINUOUS
 10
0.569360
 20
2.276560
  0
VERTEX
  8
0
  6
CONTINUOUS
 10
0.597080
 20
2.290640
  0
VERTEX
  8
0
  6
CONTINUOUS
 10
0.631840
 20
2.301200
  0
VERTEX
  8
0
  6
CONTINUOUS
 10
0.674080
 20
2.308240
  0
VERTEX
  8
0
  6
CONTINUOUS
 10
0.724240
 20
2.310880
  0
VERTEX
  8
0
  6
CONTINUOUS
 10
1.843160
 20
2.310880
  0
VERTEX
  8
0
  6
CONTINUOUS
 10
1.837880
 20
2.309560
  0
VERTEX
  8
0
  6
CONTINUOUS
 10
2.956360
 20
2.309560
  0
VERTEX
  8
0
  6
CONTINUOUS
 10
3.006520
 20
2.306920
  0
VERTEX
  8
0
  6
CONTINUOUS
 10
3.048760
 20
2.299880
  0
VERTEX
  8
0
  6
CONTINUOUS
 10
3.083520
 20
2.289320
  0
VERTEX
  8
0
  6
CONTINUOUS
 10
3.111240
 20
2.275240
  0
VERTEX
  8
0
  6
CONTINUOUS
 10
3.149080
 20
2.239160
  0
VERTEX
  8
0
  6
CONTINUOUS
 10
3.167560
 20
2.196040
  0
VERTEX
  8
0
  6
CONTINUOUS
 10
3.172840
 20
2.151600
  0
VERTEX
  8
0
  6
CONTINUOUS
 10
3.170200
 20
2.109800
  0
VERTEX
  8
0
  6
CONTINUOUS
 10
3.164920
 20
2.075040
  0
VERTEX
  8
0
  6
CONTINUOUS
 10
3.163160
 20
2.052160
  0
VERTEX
  8
0
  6
CONTINUOUS
 10
3.159200
 20
2.048200
  0
VERTEX
  8
0
  6
CONTINUOUS
 10
2.930840
 20
0.832040
  0
VERTEX
  8
0
  6
CONTINUOUS
 10
2.922920
 20
0.822800
  0
SEQEND
  8
0
  0
TEXT
  8
0
 10
1.877920
 20
0.579480
 40
0.138275
  1
BA  180
 41
1.000000
  7
SN0
 71
     0
 72
     5
 11
2.467185
 21
0.579480
  0
TEXT
  8
0
 10
1.648240
 20
0.387640
 40
0.138275
  1
1-1/2" x 2-5/8"
 41
1.000000
  7
SN0
 71
     0
 72
     5
 11
2.695356
 21
0.387640
  0
TEXT
  8
0
 10
7.487920
 20
2.636920
 40
0.138275
  1
hand rail
 41
1.000000
  7
SN0
 71
     0
 72
     5
 11
8.123275
 21
2.636920
  0
TEXT
  8
0
 10
7.667880
 20
2.445080
 40
0.138275
  1
180
 41
1.000000
  7
SN0
 71
     0
 72
     5
 11
7.944800
 21
2.445080
  0
ENDSEC
  0
EOF
