  0
SECTION
  2
HEADER
  9
$ACADVER
  1
AC1006
  9
$EXTMIN
 10
2.695264
 20
0.372349
  9
$EXTMAX
 10
21.351169
 20
7.482858
  9
$LTSCALE
 40
0.085401
  9
$PDMODE
 70
    35
  9
$PDSIZE
 40
0.068321
  0
ENDSEC
  0
SECTION
  2
TABLES
  0
TABLE
  2
LTYPE
 70
     9
  0
LTYPE
  2
CONTINUOUS
 70
    64
  3
Solid line
 72
    65
 73
     0
 40
0.000000
  0
LTYPE
  2
DASHED
 70
    64
  3
__ __ __ __ __ __ __ __ __ __ __ __ __ __ __
 72
    65
 73
     2
 40
0.000641
 49
0.000427
 49
-0.000214
  0
LTYPE
  2
HIDDEN
 70
    64
  3
 _ _ _ _ _ _ _ _ _ _ _ _ _ _ _ _ _ _ _ _ _ _
 72
    65
 73
     2
 40
0.000320
 49
0.000214
 49
-0.000107
  0
LTYPE
  2
CENTER
 70
    64
  3
____ _ ____ _ ____ _ ____ _ ____ _ ____ _ ____
 72
    65
 73
     4
 40
0.001708
 49
0.001068
 49
-0.000214
 49
0.000214
 49
-0.000214
  0
LTYPE
  2
PHANTOM
 70
    64
  3
_____ _ _ _____ _ _ _____ _ _ _____ _ _ ____
 72
    65
 73
     6
 40
0.002135
 49
0.001068
 49
-0.000214
 49
0.000214
 49
-0.000214
 49
0.000214
 49
-0.000214
  0
LTYPE
  2
DOT
 70
    64
  3
...............................................
 72
    65
 73
     2
 40
0.000214
 49
0.000000
 49
-0.000214
  0
LTYPE
  2
DASHDOT
 70
    64
  3
__ . __ . __ . __ . __ . __ . __ . __ . __ . __
 72
    65
 73
     4
 40
0.000854
 49
0.000427
 49
-0.000214
 49
0.000000
 49
-0.000214
  0
LTYPE
  2
BORDER
 70
    64
  3
__ __ . __ __ . __ __ . __ __ . __ __ . __ __
 72
    65
 73
     6
 40
0.001495
 49
0.000427
 49
-0.000214
 49
0.000427
 49
-0.000214
 49
0.000000
 49
-0.000214
  0
LTYPE
  2
DIVIDE
 70
    64
  3
__ . . __ . . __ . . __ . . __ . . __ . . __
 72
    65
 73
     6
 40
0.001068
 49
0.000427
 49
-0.000214
 49
0.000000
 49
-0.000214
 49
0.000000
 49
-0.000214
  0
LTYPE
  2
DOTDOT
 70
    64
  3
 . .  . .  . .  . .  . .  . . 
 72
    65
 73
     5
 40
0.000470
 49
-0.000214
 49
0.000000
 49
-0.000214
 49
0.000000
 49
-0.000214
  0
ENDTAB
  0
TABLE
  2
STYLE
 70
     4
  0
STYLE
 70
     0
  2
SN0
 40
0.000000
 41
0.000854
 50
0.000000
 71
     0
 42
0.000000
  3
ROMAND
  0
STYLE
 70
    68
  2
SV0
 40
0.000000
 41
0.000854
 50
0.000000
 71
     0
 42
0.000000
  3
ROMAND
  0
STYLE
 70
     0
  2
SN1
 40
0.000000
 41
0.000854
 50
0.000000
 71
     0
 42
0.000000
  3
ROMAND
  0
STYLE
 70
    68
  2
SV1
 40
0.000000
 41
0.000854
 50
0.000000
 71
     0
 42
0.000000
  3
ROMAND
  0
ENDTAB
  0
TABLE
  2
LAYER
 70
     3
  0
LAYER
  2
FOREGROUND
 70
    64
 62
     7
  6
CONTINUOUS
  0
LAYER
  2
BACKGROUND
 70
    65
 62
    -7
  6
CONTINUOUS
  0
LAYER
  2
0
 70
    64
 62
     7
  6
CONTINUOUS
  0
ENDTAB
  0
ENDSEC
  0
SECTION
  2
ENTITIES
  0
POLYLINE
  8
FOREGROUND
  6
CONTINUOUS
 66
     1
 40
0.000000
 41
0.000000
  0
VERTEX
  8
FOREGROUND
  6
CONTINUOUS
 10
0.000000
 20
7.855208
  0
VERTEX
  8
FOREGROUND
  6
CONTINUOUS
 10
8.499987
 20
7.855208
  0
VERTEX
  8
FOREGROUND
  6
CONTINUOUS
 10
8.499987
 20
-3.144474
  0
VERTEX
  8
FOREGROUND
  6
CONTINUOUS
 10
0.000000
 20
-3.144474
  0
VERTEX
  8
FOREGROUND
  6
CONTINUOUS
 10
0.000000
 20
7.855208
  0
SEQEND
  8
0
  0
POLYLINE
  8
FOREGROUND
  6
CONTINUOUS
 66
     1
 40
0.000000
 41
0.000000
  0
VERTEX
  8
FOREGROUND
  6
CONTINUOUS
 10
0.000000
 20
7.855208
  0
VERTEX
  8
FOREGROUND
  6
CONTINUOUS
 10
8.499987
 20
7.855208
  0
VERTEX
  8
FOREGROUND
  6
CONTINUOUS
 10
8.499987
 20
-3.144474
  0
VERTEX
  8
FOREGROUND
  6
CONTINUOUS
 10
0.000000
 20
-3.144474
  0
VERTEX
  8
FOREGROUND
  6
CONTINUOUS
 10
0.000000
 20
7.855208
  0
SEQEND
  8
0
  0
TEXT
  8
0
 10
21.318716
 20
0.378328
 40
0.011116
  1
B242
 41
1.000000
  7
SN0
 71
     0
 72
     5
 11
21.349499
 21
0.378328
  0
SOLID
  8
0
 62
    15
 10
2.763585
 20
4.170144
 11
2.755899
 21
4.913134
 12
2.763585
 22
5.000244
 13
2.755899
 23
5.744089
  0
POLYLINE
  8
0
  6
CONTINUOUS
 66
     1
 40
0.000000
 41
0.000000
  0
VERTEX
  8
0
  6
CONTINUOUS
 10
2.763585
 20
4.170144
  0
VERTEX
  8
0
  6
CONTINUOUS
 10
2.755899
 20
4.913134
  0
VERTEX
  8
0
  6
CONTINUOUS
 10
2.755899
 20
5.744089
  0
VERTEX
  8
0
  6
CONTINUOUS
 10
2.763585
 20
5.000244
  0
VERTEX
  8
0
  6
CONTINUOUS
 10
2.763585
 20
4.170144
  0
SEQEND
  8
0
  0
SOLID
  8
0
 62
    15
 10
6.066051
 20
4.817485
 11
6.058365
 21
5.561330
 12
6.071176
 22
4.814923
 13
6.063489
 23
5.558768
  0
POLYLINE
  8
0
  6
CONTINUOUS
 66
     1
 40
0.000000
 41
0.000000
  0
VERTEX
  8
0
  6
CONTINUOUS
 10
6.066051
 20
4.817485
  0
VERTEX
  8
0
  6
CONTINUOUS
 10
6.058365
 20
5.561330
  0
VERTEX
  8
0
  6
CONTINUOUS
 10
6.063489
 20
5.558768
  0
VERTEX
  8
0
  6
CONTINUOUS
 10
6.071176
 20
4.814923
  0
VERTEX
  8
0
  6
CONTINUOUS
 10
6.066051
 20
4.817485
  0
SEQEND
  8
0
  0
SOLID
  8
0
 62
    15
 10
6.071176
 20
4.814923
 11
6.063489
 21
5.558768
 12
6.082278
 22
4.815777
 13
6.074592
 23
5.558768
  0
POLYLINE
  8
0
  6
CONTINUOUS
 66
     1
 40
0.000000
 41
0.000000
  0
VERTEX
  8
0
  6
CONTINUOUS
 10
6.071176
 20
4.814923
  0
VERTEX
  8
0
  6
CONTINUOUS
 10
6.063489
 20
5.558768
  0
VERTEX
  8
0
  6
CONTINUOUS
 10
6.074592
 20
5.558768
  0
VERTEX
  8
0
  6
CONTINUOUS
 10
6.082278
 20
4.815777
  0
VERTEX
  8
0
  6
CONTINUOUS
 10
6.071176
 20
4.814923
  0
SEQEND
  8
0
  0
SOLID
  8
0
 62
    15
 10
6.082278
 20
4.815777
 11
6.074592
 21
5.558768
 12
6.099358
 22
4.814069
 13
6.091672
 23
5.557060
  0
POLYLINE
  8
0
  6
CONTINUOUS
 66
     1
 40
0.000000
 41
0.000000
  0
VERTEX
  8
0
  6
CONTINUOUS
 10
6.082278
 20
4.815777
  0
VERTEX
  8
0
  6
CONTINUOUS
 10
6.074592
 20
5.558768
  0
VERTEX
  8
0
  6
CONTINUOUS
 10
6.091672
 20
5.557060
  0
VERTEX
  8
0
  6
CONTINUOUS
 10
6.099358
 20
4.814069
  0
VERTEX
  8
0
  6
CONTINUOUS
 10
6.082278
 20
4.815777
  0
SEQEND
  8
0
  0
SOLID
  8
0
 62
    15
 10
6.099358
 20
4.814069
 11
6.091672
 21
5.557060
 12
6.119854
 22
4.808091
 13
6.112168
 23
5.551936
  0
POLYLINE
  8
0
  6
CONTINUOUS
 66
     1
 40
0.000000
 41
0.000000
  0
VERTEX
  8
0
  6
CONTINUOUS
 10
6.099358
 20
4.814069
  0
VERTEX
  8
0
  6
CONTINUOUS
 10
6.091672
 20
5.557060
  0
VERTEX
  8
0
  6
CONTINUOUS
 10
6.112168
 20
5.551936
  0
VERTEX
  8
0
  6
CONTINUOUS
 10
6.119854
 20
4.808091
  0
VERTEX
  8
0
  6
CONTINUOUS
 10
6.099358
 20
4.814069
  0
SEQEND
  8
0
  0
SOLID
  8
0
 62
    15
 10
6.119854
 20
4.808091
 11
6.112168
 21
5.551936
 12
6.142059
 22
4.796989
 13
6.134372
 23
5.539980
  0
POLYLINE
  8
0
  6
CONTINUOUS
 66
     1
 40
0.000000
 41
0.000000
  0
VERTEX
  8
0
  6
CONTINUOUS
 10
6.119854
 20
4.808091
  0
VERTEX
  8
0
  6
CONTINUOUS
 10
6.112168
 20
5.551936
  0
VERTEX
  8
0
  6
CONTINUOUS
 10
6.134372
 20
5.539980
  0
VERTEX
  8
0
  6
CONTINUOUS
 10
6.142059
 20
4.796989
  0
VERTEX
  8
0
  6
CONTINUOUS
 10
6.119854
 20
4.808091
  0
SEQEND
  8
0
  0
SOLID
  8
0
 62
    15
 10
6.142059
 20
4.796989
 11
6.134372
 21
5.539980
 12
6.162555
 22
4.777346
 13
6.154869
 23
5.520337
  0
POLYLINE
  8
0
  6
CONTINUOUS
 66
     1
 40
0.000000
 41
0.000000
  0
VERTEX
  8
0
  6
CONTINUOUS
 10
6.142059
 20
4.796989
  0
VERTEX
  8
0
  6
CONTINUOUS
 10
6.134372
 20
5.539980
  0
VERTEX
  8
0
  6
CONTINUOUS
 10
6.154869
 20
5.520337
  0
VERTEX
  8
0
  6
CONTINUOUS
 10
6.162555
 20
4.777346
  0
VERTEX
  8
0
  6
CONTINUOUS
 10
6.142059
 20
4.796989
  0
SEQEND
  8
0
  0
SOLID
  8
0
 62
    15
 10
6.162555
 20
4.777346
 11
6.154869
 21
5.520337
 12
6.179635
 22
4.747456
 13
6.171949
 23
5.490447
  0
POLYLINE
  8
0
  6
CONTINUOUS
 66
     1
 40
0.000000
 41
0.000000
  0
VERTEX
  8
0
  6
CONTINUOUS
 10
6.162555
 20
4.777346
  0
VERTEX
  8
0
  6
CONTINUOUS
 10
6.154869
 20
5.520337
  0
VERTEX
  8
0
  6
CONTINUOUS
 10
6.171949
 20
5.490447
  0
VERTEX
  8
0
  6
CONTINUOUS
 10
6.179635
 20
4.747456
  0
VERTEX
  8
0
  6
CONTINUOUS
 10
6.162555
 20
4.777346
  0
SEQEND
  8
0
  0
SOLID
  8
0
 62
    15
 10
6.192445
 20
4.645829
 11
6.184759
 21
5.388819
 12
7.565698
 22
4.543347
 13
7.558011
 23
5.286338
  0
POLYLINE
  8
0
  6
CONTINUOUS
 66
     1
 40
0.000000
 41
0.000000
  0
VERTEX
  8
0
  6
CONTINUOUS
 10
6.192445
 20
4.645829
  0
VERTEX
  8
0
  6
CONTINUOUS
 10
6.184759
 20
5.388819
  0
VERTEX
  8
0
  6
CONTINUOUS
 10
7.558011
 20
5.286338
  0
VERTEX
  8
0
  6
CONTINUOUS
 10
7.565698
 20
4.543347
  0
VERTEX
  8
0
  6
CONTINUOUS
 10
6.192445
 20
4.645829
  0
SEQEND
  8
0
  0
SOLID
  8
0
 62
    15
 10
6.190737
 20
4.704755
 11
6.183051
 21
5.448600
 12
6.192445
 22
4.648391
 13
6.184759
 23
5.391382
  0
POLYLINE
  8
0
  6
CONTINUOUS
 66
     1
 40
0.000000
 41
0.000000
  0
VERTEX
  8
0
  6
CONTINUOUS
 10
6.190737
 20
4.704755
  0
VERTEX
  8
0
  6
CONTINUOUS
 10
6.183051
 20
5.448600
  0
VERTEX
  8
0
  6
CONTINUOUS
 10
6.184759
 20
5.391382
  0
VERTEX
  8
0
  6
CONTINUOUS
 10
6.192445
 20
4.648391
  0
VERTEX
  8
0
  6
CONTINUOUS
 10
6.190737
 20
4.704755
  0
SEQEND
  8
0
  0
SOLID
  8
0
 62
    15
 10
6.179635
 20
4.747456
 11
6.171949
 21
5.490447
 12
6.190737
 22
4.704755
 13
6.183051
 23
5.448600
  0
POLYLINE
  8
0
  6
CONTINUOUS
 66
     1
 40
0.000000
 41
0.000000
  0
VERTEX
  8
0
  6
CONTINUOUS
 10
6.179635
 20
4.747456
  0
VERTEX
  8
0
  6
CONTINUOUS
 10
6.171949
 20
5.490447
  0
VERTEX
  8
0
  6
CONTINUOUS
 10
6.183051
 20
5.448600
  0
VERTEX
  8
0
  6
CONTINUOUS
 10
6.190737
 20
4.704755
  0
VERTEX
  8
0
  6
CONTINUOUS
 10
6.179635
 20
4.747456
  0
SEQEND
  8
0
  0
SOLID
  8
0
 62
    15
 10
7.565698
 20
4.543347
 11
7.558011
 21
5.286338
 12
7.569114
 22
4.543347
 13
7.560574
 23
5.286338
  0
POLYLINE
  8
0
  6
CONTINUOUS
 66
     1
 40
0.000000
 41
0.000000
  0
VERTEX
  8
0
  6
CONTINUOUS
 10
7.565698
 20
4.543347
  0
VERTEX
  8
0
  6
CONTINUOUS
 10
7.558011
 20
5.286338
  0
VERTEX
  8
0
  6
CONTINUOUS
 10
7.560574
 20
5.286338
  0
VERTEX
  8
0
  6
CONTINUOUS
 10
7.569114
 20
4.543347
  0
VERTEX
  8
0
  6
CONTINUOUS
 10
7.565698
 20
4.543347
  0
SEQEND
  8
0
  0
SOLID
  8
0
 62
    15
 10
7.569114
 20
4.543347
 11
7.560574
 21
5.286338
 12
7.579362
 22
4.543347
 13
7.571676
 23
5.287192
  0
POLYLINE
  8
0
  6
CONTINUOUS
 66
     1
 40
0.000000
 41
0.000000
  0
VERTEX
  8
0
  6
CONTINUOUS
 10
7.569114
 20
4.543347
  0
VERTEX
  8
0
  6
CONTINUOUS
 10
7.560574
 20
5.286338
  0
VERTEX
  8
0
  6
CONTINUOUS
 10
7.571676
 20
5.287192
  0
VERTEX
  8
0
  6
CONTINUOUS
 10
7.579362
 20
4.543347
  0
VERTEX
  8
0
  6
CONTINUOUS
 10
7.569114
 20
4.543347
  0
SEQEND
  8
0
  0
SOLID
  8
0
 62
    15
 10
7.579362
 20
4.543347
 11
7.571676
 21
5.287192
 12
7.596442
 22
4.541639
 13
7.588756
 23
5.285484
  0
POLYLINE
  8
0
  6
CONTINUOUS
 66
     1
 40
0.000000
 41
0.000000
  0
VERTEX
  8
0
  6
CONTINUOUS
 10
7.579362
 20
4.543347
  0
VERTEX
  8
0
  6
CONTINUOUS
 10
7.571676
 20
5.287192
  0
VERTEX
  8
0
  6
CONTINUOUS
 10
7.588756
 20
5.285484
  0
VERTEX
  8
0
  6
CONTINUOUS
 10
7.596442
 20
4.541639
  0
VERTEX
  8
0
  6
CONTINUOUS
 10
7.579362
 20
4.543347
  0
SEQEND
  8
0
  0
SOLID
  8
0
 62
    15
 10
7.596442
 20
4.541639
 11
7.588756
 21
5.285484
 12
7.616938
 22
4.536515
 13
7.609252
 23
5.279506
  0
POLYLINE
  8
0
  6
CONTINUOUS
 66
     1
 40
0.000000
 41
0.000000
  0
VERTEX
  8
0
  6
CONTINUOUS
 10
7.596442
 20
4.541639
  0
VERTEX
  8
0
  6
CONTINUOUS
 10
7.588756
 20
5.285484
  0
VERTEX
  8
0
  6
CONTINUOUS
 10
7.609252
 20
5.279506
  0
VERTEX
  8
0
  6
CONTINUOUS
 10
7.616938
 20
4.536515
  0
VERTEX
  8
0
  6
CONTINUOUS
 10
7.596442
 20
4.541639
  0
SEQEND
  8
0
  0
SOLID
  8
0
 62
    15
 10
7.616938
 20
4.536515
 11
7.609252
 21
5.279506
 12
7.639143
 22
4.524559
 13
7.631457
 23
5.268404
  0
POLYLINE
  8
0
  6
CONTINUOUS
 66
     1
 40
0.000000
 41
0.000000
  0
VERTEX
  8
0
  6
CONTINUOUS
 10
7.616938
 20
4.536515
  0
VERTEX
  8
0
  6
CONTINUOUS
 10
7.609252
 20
5.279506
  0
VERTEX
  8
0
  6
CONTINUOUS
 10
7.631457
 20
5.268404
  0
VERTEX
  8
0
  6
CONTINUOUS
 10
7.639143
 20
4.524559
  0
VERTEX
  8
0
  6
CONTINUOUS
 10
7.616938
 20
4.536515
  0
SEQEND
  8
0
  0
SOLID
  8
0
 62
    15
 10
7.639143
 20
4.524559
 11
7.631457
 21
5.268404
 12
7.659639
 22
4.504916
 13
7.651953
 23
5.248761
  0
POLYLINE
  8
0
  6
CONTINUOUS
 66
     1
 40
0.000000
 41
0.000000
  0
VERTEX
  8
0
  6
CONTINUOUS
 10
7.639143
 20
4.524559
  0
VERTEX
  8
0
  6
CONTINUOUS
 10
7.631457
 20
5.268404
  0
VERTEX
  8
0
  6
CONTINUOUS
 10
7.651953
 20
5.248761
  0
VERTEX
  8
0
  6
CONTINUOUS
 10
7.659639
 20
4.504916
  0
VERTEX
  8
0
  6
CONTINUOUS
 10
7.639143
 20
4.524559
  0
SEQEND
  8
0
  0
SOLID
  8
0
 62
    15
 10
7.676719
 20
4.475026
 11
7.669033
 21
5.218871
 12
7.687821
 22
4.433179
 13
7.680135
 23
5.176170
  0
POLYLINE
  8
0
  6
CONTINUOUS
 66
     1
 40
0.000000
 41
0.000000
  0
VERTEX
  8
0
  6
CONTINUOUS
 10
7.676719
 20
4.475026
  0
VERTEX
  8
0
  6
CONTINUOUS
 10
7.669033
 20
5.218871
  0
VERTEX
  8
0
  6
CONTINUOUS
 10
7.680135
 20
5.176170
  0
VERTEX
  8
0
  6
CONTINUOUS
 10
7.687821
 20
4.433179
  0
VERTEX
  8
0
  6
CONTINUOUS
 10
7.676719
 20
4.475026
  0
SEQEND
  8
0
  0
SOLID
  8
0
 62
    15
 10
7.659639
 20
4.504916
 11
7.651953
 21
5.248761
 12
7.676719
 22
4.475026
 13
7.669033
 23
5.218871
  0
POLYLINE
  8
0
  6
CONTINUOUS
 66
     1
 40
0.000000
 41
0.000000
  0
VERTEX
  8
0
  6
CONTINUOUS
 10
7.659639
 20
4.504916
  0
VERTEX
  8
0
  6
CONTINUOUS
 10
7.651953
 20
5.248761
  0
VERTEX
  8
0
  6
CONTINUOUS
 10
7.669033
 20
5.218871
  0
VERTEX
  8
0
  6
CONTINUOUS
 10
7.676719
 20
4.475026
  0
VERTEX
  8
0
  6
CONTINUOUS
 10
7.659639
 20
4.504916
  0
SEQEND
  8
0
  0
SOLID
  8
0
 62
    15
 10
7.687821
 20
4.433179
 11
7.680135
 21
5.176170
 12
7.690383
 22
4.376815
 13
7.681843
 23
5.119806
  0
POLYLINE
  8
0
  6
CONTINUOUS
 66
     1
 40
0.000000
 41
0.000000
  0
VERTEX
  8
0
  6
CONTINUOUS
 10
7.687821
 20
4.433179
  0
VERTEX
  8
0
  6
CONTINUOUS
 10
7.680135
 20
5.176170
  0
VERTEX
  8
0
  6
CONTINUOUS
 10
7.681843
 20
5.119806
  0
VERTEX
  8
0
  6
CONTINUOUS
 10
7.690383
 20
4.376815
  0
VERTEX
  8
0
  6
CONTINUOUS
 10
7.687821
 20
4.433179
  0
SEQEND
  8
0
  0
SOLID
  8
0
 62
    15
 10
7.690383
 20
4.376815
 11
7.681843
 21
5.119806
 12
7.691237
 22
4.372545
 13
7.683551
 23
5.115535
  0
POLYLINE
  8
0
  6
CONTINUOUS
 66
     1
 40
0.000000
 41
0.000000
  0
VERTEX
  8
0
  6
CONTINUOUS
 10
7.690383
 20
4.376815
  0
VERTEX
  8
0
  6
CONTINUOUS
 10
7.681843
 20
5.119806
  0
VERTEX
  8
0
  6
CONTINUOUS
 10
7.683551
 20
5.115535
  0
VERTEX
  8
0
  6
CONTINUOUS
 10
7.691237
 20
4.372545
  0
VERTEX
  8
0
  6
CONTINUOUS
 10
7.690383
 20
4.376815
  0
SEQEND
  8
0
  0
SOLID
  8
0
 62
    15
 10
4.191494
 20
4.925945
 11
4.183808
 21
5.668936
 12
6.066051
 22
4.817485
 13
6.058365
 23
5.561330
  0
POLYLINE
  8
0
  6
CONTINUOUS
 66
     1
 40
0.000000
 41
0.000000
  0
VERTEX
  8
0
  6
CONTINUOUS
 10
4.191494
 20
4.925945
  0
VERTEX
  8
0
  6
CONTINUOUS
 10
4.183808
 20
5.668936
  0
VERTEX
  8
0
  6
CONTINUOUS
 10
6.058365
 20
5.561330
  0
VERTEX
  8
0
  6
CONTINUOUS
 10
6.066051
 20
4.817485
  0
VERTEX
  8
0
  6
CONTINUOUS
 10
4.191494
 20
4.925945
  0
SEQEND
  8
0
  0
SOLID
  8
0
 62
    15
 10
2.763585
 20
5.000244
 11
2.755899
 21
5.744089
 12
2.765293
 22
5.057463
 13
2.757607
 23
5.800454
  0
POLYLINE
  8
0
  6
CONTINUOUS
 66
     1
 40
0.000000
 41
0.000000
  0
VERTEX
  8
0
  6
CONTINUOUS
 10
2.763585
 20
5.000244
  0
VERTEX
  8
0
  6
CONTINUOUS
 10
2.755899
 20
5.744089
  0
VERTEX
  8
0
  6
CONTINUOUS
 10
2.757607
 20
5.800454
  0
VERTEX
  8
0
  6
CONTINUOUS
 10
2.765293
 20
5.057463
  0
VERTEX
  8
0
  6
CONTINUOUS
 10
2.763585
 20
5.000244
  0
SEQEND
  8
0
  0
SOLID
  8
0
 62
    15
 10
2.765293
 20
5.057463
 11
2.757607
 21
5.800454
 12
2.776395
 22
5.099309
 13
2.768709
 23
5.842300
  0
POLYLINE
  8
0
  6
CONTINUOUS
 66
     1
 40
0.000000
 41
0.000000
  0
VERTEX
  8
0
  6
CONTINUOUS
 10
2.765293
 20
5.057463
  0
VERTEX
  8
0
  6
CONTINUOUS
 10
2.757607
 20
5.800454
  0
VERTEX
  8
0
  6
CONTINUOUS
 10
2.768709
 20
5.842300
  0
VERTEX
  8
0
  6
CONTINUOUS
 10
2.776395
 20
5.099309
  0
VERTEX
  8
0
  6
CONTINUOUS
 10
2.765293
 20
5.057463
  0
SEQEND
  8
0
  0
SOLID
  8
0
 62
    15
 10
2.776395
 20
5.099309
 11
2.768709
 21
5.842300
 12
2.793475
 22
5.129200
 13
2.785789
 23
5.872191
  0
POLYLINE
  8
0
  6
CONTINUOUS
 66
     1
 40
0.000000
 41
0.000000
  0
VERTEX
  8
0
  6
CONTINUOUS
 10
2.776395
 20
5.099309
  0
VERTEX
  8
0
  6
CONTINUOUS
 10
2.768709
 20
5.842300
  0
VERTEX
  8
0
  6
CONTINUOUS
 10
2.785789
 20
5.872191
  0
VERTEX
  8
0
  6
CONTINUOUS
 10
2.793475
 20
5.129200
  0
VERTEX
  8
0
  6
CONTINUOUS
 10
2.776395
 20
5.099309
  0
SEQEND
  8
0
  0
SOLID
  8
0
 62
    15
 10
2.793475
 20
5.129200
 11
2.785789
 21
5.872191
 12
2.813972
 22
5.148842
 13
2.806285
 23
5.891833
  0
POLYLINE
  8
0
  6
CONTINUOUS
 66
     1
 40
0.000000
 41
0.000000
  0
VERTEX
  8
0
  6
CONTINUOUS
 10
2.793475
 20
5.129200
  0
VERTEX
  8
0
  6
CONTINUOUS
 10
2.785789
 20
5.872191
  0
VERTEX
  8
0
  6
CONTINUOUS
 10
2.806285
 20
5.891833
  0
VERTEX
  8
0
  6
CONTINUOUS
 10
2.813972
 20
5.148842
  0
VERTEX
  8
0
  6
CONTINUOUS
 10
2.793475
 20
5.129200
  0
SEQEND
  8
0
  0
SOLID
  8
0
 62
    15
 10
2.813972
 20
5.148842
 11
2.806285
 21
5.891833
 12
2.836176
 22
5.160798
 13
2.828490
 23
5.903789
  0
POLYLINE
  8
0
  6
CONTINUOUS
 66
     1
 40
0.000000
 41
0.000000
  0
VERTEX
  8
0
  6
CONTINUOUS
 10
2.813972
 20
5.148842
  0
VERTEX
  8
0
  6
CONTINUOUS
 10
2.806285
 20
5.891833
  0
VERTEX
  8
0
  6
CONTINUOUS
 10
2.828490
 20
5.903789
  0
VERTEX
  8
0
  6
CONTINUOUS
 10
2.836176
 20
5.160798
  0
VERTEX
  8
0
  6
CONTINUOUS
 10
2.813972
 20
5.148842
  0
SEQEND
  8
0
  0
SOLID
  8
0
 62
    15
 10
2.836176
 20
5.160798
 11
2.828490
 21
5.903789
 12
2.856672
 22
5.165922
 13
2.848986
 23
5.908913
  0
POLYLINE
  8
0
  6
CONTINUOUS
 66
     1
 40
0.000000
 41
0.000000
  0
VERTEX
  8
0
  6
CONTINUOUS
 10
2.836176
 20
5.160798
  0
VERTEX
  8
0
  6
CONTINUOUS
 10
2.828490
 20
5.903789
  0
VERTEX
  8
0
  6
CONTINUOUS
 10
2.848986
 20
5.908913
  0
VERTEX
  8
0
  6
CONTINUOUS
 10
2.856672
 20
5.165922
  0
VERTEX
  8
0
  6
CONTINUOUS
 10
2.836176
 20
5.160798
  0
SEQEND
  8
0
  0
SOLID
  8
0
 62
    15
 10
2.856672
 20
5.165922
 11
2.848986
 21
5.908913
 12
2.873752
 22
5.167630
 13
2.866066
 23
5.910621
  0
POLYLINE
  8
0
  6
CONTINUOUS
 66
     1
 40
0.000000
 41
0.000000
  0
VERTEX
  8
0
  6
CONTINUOUS
 10
2.856672
 20
5.165922
  0
VERTEX
  8
0
  6
CONTINUOUS
 10
2.848986
 20
5.908913
  0
VERTEX
  8
0
  6
CONTINUOUS
 10
2.866066
 20
5.910621
  0
VERTEX
  8
0
  6
CONTINUOUS
 10
2.873752
 20
5.167630
  0
VERTEX
  8
0
  6
CONTINUOUS
 10
2.856672
 20
5.165922
  0
SEQEND
  8
0
  0
SOLID
  8
0
 62
    15
 10
2.873752
 20
5.167630
 11
2.866066
 21
5.910621
 12
2.884855
 22
5.167630
 13
2.877168
 23
5.910621
  0
POLYLINE
  8
0
  6
CONTINUOUS
 66
     1
 40
0.000000
 41
0.000000
  0
VERTEX
  8
0
  6
CONTINUOUS
 10
2.873752
 20
5.167630
  0
VERTEX
  8
0
  6
CONTINUOUS
 10
2.866066
 20
5.910621
  0
VERTEX
  8
0
  6
CONTINUOUS
 10
2.877168
 20
5.910621
  0
VERTEX
  8
0
  6
CONTINUOUS
 10
2.884855
 20
5.167630
  0
VERTEX
  8
0
  6
CONTINUOUS
 10
2.873752
 20
5.167630
  0
SEQEND
  8
0
  0
SOLID
  8
0
 62
    15
 10
2.884855
 20
5.167630
 11
2.877168
 21
5.910621
 12
2.892541
 22
5.166776
 13
2.884855
 23
5.910621
  0
POLYLINE
  8
0
  6
CONTINUOUS
 66
     1
 40
0.000000
 41
0.000000
  0
VERTEX
  8
0
  6
CONTINUOUS
 10
2.884855
 20
5.167630
  0
VERTEX
  8
0
  6
CONTINUOUS
 10
2.877168
 20
5.910621
  0
VERTEX
  8
0
  6
CONTINUOUS
 10
2.884855
 20
5.910621
  0
VERTEX
  8
0
  6
CONTINUOUS
 10
2.892541
 20
5.166776
  0
VERTEX
  8
0
  6
CONTINUOUS
 10
2.884855
 20
5.167630
  0
SEQEND
  8
0
  0
SOLID
  8
0
 62
    15
 10
2.892541
 20
5.166776
 11
2.884855
 21
5.910621
 12
4.067662
 22
5.096747
 13
4.059122
 23
5.839738
  0
POLYLINE
  8
0
  6
CONTINUOUS
 66
     1
 40
0.000000
 41
0.000000
  0
VERTEX
  8
0
  6
CONTINUOUS
 10
2.892541
 20
5.166776
  0
VERTEX
  8
0
  6
CONTINUOUS
 10
2.884855
 20
5.910621
  0
VERTEX
  8
0
  6
CONTINUOUS
 10
4.059122
 20
5.839738
  0
VERTEX
  8
0
  6
CONTINUOUS
 10
4.067662
 20
5.096747
  0
VERTEX
  8
0
  6
CONTINUOUS
 10
2.892541
 20
5.166776
  0
SEQEND
  8
0
  0
SOLID
  8
0
 62
    15
 10
4.067662
 20
5.096747
 11
4.059122
 21
5.839738
 12
4.072786
 22
5.096747
 13
4.065100
 23
5.839738
  0
POLYLINE
  8
0
  6
CONTINUOUS
 66
     1
 40
0.000000
 41
0.000000
  0
VERTEX
  8
0
  6
CONTINUOUS
 10
4.067662
 20
5.096747
  0
VERTEX
  8
0
  6
CONTINUOUS
 10
4.059122
 20
5.839738
  0
VERTEX
  8
0
  6
CONTINUOUS
 10
4.065100
 20
5.839738
  0
VERTEX
  8
0
  6
CONTINUOUS
 10
4.072786
 20
5.096747
  0
VERTEX
  8
0
  6
CONTINUOUS
 10
4.067662
 20
5.096747
  0
SEQEND
  8
0
  0
SOLID
  8
0
 62
    15
 10
4.072786
 20
5.096747
 11
4.065100
 21
5.839738
 12
4.083034
 22
5.094185
 13
4.075348
 23
5.837176
  0
POLYLINE
  8
0
  6
CONTINUOUS
 66
     1
 40
0.000000
 41
0.000000
  0
VERTEX
  8
0
  6
CONTINUOUS
 10
4.072786
 20
5.096747
  0
VERTEX
  8
0
  6
CONTINUOUS
 10
4.065100
 20
5.839738
  0
VERTEX
  8
0
  6
CONTINUOUS
 10
4.075348
 20
5.837176
  0
VERTEX
  8
0
  6
CONTINUOUS
 10
4.083034
 20
5.094185
  0
VERTEX
  8
0
  6
CONTINUOUS
 10
4.072786
 20
5.096747
  0
SEQEND
  8
0
  0
SOLID
  8
0
 62
    15
 10
4.083034
 20
5.094185
 11
4.075348
 21
5.837176
 12
4.099260
 22
5.090769
 13
4.091574
 23
5.833760
  0
POLYLINE
  8
0
  6
CONTINUOUS
 66
     1
 40
0.000000
 41
0.000000
  0
VERTEX
  8
0
  6
CONTINUOUS
 10
4.083034
 20
5.094185
  0
VERTEX
  8
0
  6
CONTINUOUS
 10
4.075348
 20
5.837176
  0
VERTEX
  8
0
  6
CONTINUOUS
 10
4.091574
 20
5.833760
  0
VERTEX
  8
0
  6
CONTINUOUS
 10
4.099260
 20
5.090769
  0
VERTEX
  8
0
  6
CONTINUOUS
 10
4.083034
 20
5.094185
  0
SEQEND
  8
0
  0
SOLID
  8
0
 62
    15
 10
4.099260
 20
5.090769
 11
4.091574
 21
5.833760
 12
4.118903
 22
5.083937
 13
4.111217
 23
5.827782
  0
POLYLINE
  8
0
  6
CONTINUOUS
 66
     1
 40
0.000000
 41
0.000000
  0
VERTEX
  8
0
  6
CONTINUOUS
 10
4.099260
 20
5.090769
  0
VERTEX
  8
0
  6
CONTINUOUS
 10
4.091574
 20
5.833760
  0
VERTEX
  8
0
  6
CONTINUOUS
 10
4.111217
 20
5.827782
  0
VERTEX
  8
0
  6
CONTINUOUS
 10
4.118903
 20
5.083937
  0
VERTEX
  8
0
  6
CONTINUOUS
 10
4.099260
 20
5.090769
  0
SEQEND
  8
0
  0
SOLID
  8
0
 62
    15
 10
4.118903
 20
5.083937
 11
4.111217
 21
5.827782
 12
4.140253
 22
5.071981
 13
4.131713
 23
5.814972
  0
POLYLINE
  8
0
  6
CONTINUOUS
 66
     1
 40
0.000000
 41
0.000000
  0
VERTEX
  8
0
  6
CONTINUOUS
 10
4.118903
 20
5.083937
  0
VERTEX
  8
0
  6
CONTINUOUS
 10
4.111217
 20
5.827782
  0
VERTEX
  8
0
  6
CONTINUOUS
 10
4.131713
 20
5.814972
  0
VERTEX
  8
0
  6
CONTINUOUS
 10
4.140253
 20
5.071981
  0
VERTEX
  8
0
  6
CONTINUOUS
 10
4.118903
 20
5.083937
  0
SEQEND
  8
0
  0
SOLID
  8
0
 62
    15
 10
4.140253
 20
5.071981
 11
4.131713
 21
5.814972
 12
4.159895
 22
5.052339
 13
4.151355
 23
5.795329
  0
POLYLINE
  8
0
  6
CONTINUOUS
 66
     1
 40
0.000000
 41
0.000000
  0
VERTEX
  8
0
  6
CONTINUOUS
 10
4.140253
 20
5.071981
  0
VERTEX
  8
0
  6
CONTINUOUS
 10
4.131713
 20
5.814972
  0
VERTEX
  8
0
  6
CONTINUOUS
 10
4.151355
 20
5.795329
  0
VERTEX
  8
0
  6
CONTINUOUS
 10
4.159895
 20
5.052339
  0
VERTEX
  8
0
  6
CONTINUOUS
 10
4.140253
 20
5.071981
  0
SEQEND
  8
0
  0
SOLID
  8
0
 62
    15
 10
4.159895
 20
5.052339
 11
4.151355
 21
5.795329
 12
4.176122
 22
5.022448
 13
4.168435
 23
5.766293
  0
POLYLINE
  8
0
  6
CONTINUOUS
 66
     1
 40
0.000000
 41
0.000000
  0
VERTEX
  8
0
  6
CONTINUOUS
 10
4.159895
 20
5.052339
  0
VERTEX
  8
0
  6
CONTINUOUS
 10
4.151355
 20
5.795329
  0
VERTEX
  8
0
  6
CONTINUOUS
 10
4.168435
 20
5.766293
  0
VERTEX
  8
0
  6
CONTINUOUS
 10
4.176122
 20
5.022448
  0
VERTEX
  8
0
  6
CONTINUOUS
 10
4.159895
 20
5.052339
  0
SEQEND
  8
0
  0
SOLID
  8
0
 62
    15
 10
4.176122
 20
5.022448
 11
4.168435
 21
5.766293
 12
4.187224
 22
4.981455
 13
4.178684
 23
5.724446
  0
POLYLINE
  8
0
  6
CONTINUOUS
 66
     1
 40
0.000000
 41
0.000000
  0
VERTEX
  8
0
  6
CONTINUOUS
 10
4.176122
 20
5.022448
  0
VERTEX
  8
0
  6
CONTINUOUS
 10
4.168435
 20
5.766293
  0
VERTEX
  8
0
  6
CONTINUOUS
 10
4.178684
 20
5.724446
  0
VERTEX
  8
0
  6
CONTINUOUS
 10
4.187224
 20
4.981455
  0
VERTEX
  8
0
  6
CONTINUOUS
 10
4.176122
 20
5.022448
  0
SEQEND
  8
0
  0
SOLID
  8
0
 62
    15
 10
4.187224
 20
4.981455
 11
4.178684
 21
5.724446
 12
4.189786
 22
4.925945
 13
4.182100
 23
5.668936
  0
POLYLINE
  8
0
  6
CONTINUOUS
 66
     1
 40
0.000000
 41
0.000000
  0
VERTEX
  8
0
  6
CONTINUOUS
 10
4.187224
 20
4.981455
  0
VERTEX
  8
0
  6
CONTINUOUS
 10
4.178684
 20
5.724446
  0
VERTEX
  8
0
  6
CONTINUOUS
 10
4.182100
 20
5.668936
  0
VERTEX
  8
0
  6
CONTINUOUS
 10
4.189786
 20
4.925945
  0
VERTEX
  8
0
  6
CONTINUOUS
 10
4.187224
 20
4.981455
  0
SEQEND
  8
0
  0
SOLID
  8
0
 62
    15
 10
4.189786
 20
4.925945
 11
4.182100
 21
5.668936
 12
4.194056
 22
4.930215
 13
4.186370
 23
5.673206
  0
POLYLINE
  8
0
  6
CONTINUOUS
 66
     1
 40
0.000000
 41
0.000000
  0
VERTEX
  8
0
  6
CONTINUOUS
 10
4.189786
 20
4.925945
  0
VERTEX
  8
0
  6
CONTINUOUS
 10
4.182100
 20
5.668936
  0
VERTEX
  8
0
  6
CONTINUOUS
 10
4.186370
 20
5.673206
  0
VERTEX
  8
0
  6
CONTINUOUS
 10
4.194056
 20
4.930215
  0
VERTEX
  8
0
  6
CONTINUOUS
 10
4.189786
 20
4.925945
  0
SEQEND
  8
0
  0
POLYLINE
  8
0
  6
CONTINUOUS
 66
     1
 40
0.000000
 41
0.000000
  0
VERTEX
  8
0
  6
CONTINUOUS
 10
4.194056
 20
4.930215
  0
VERTEX
  8
0
  6
CONTINUOUS
 10
4.191494
 20
4.925945
  0
VERTEX
  8
0
  6
CONTINUOUS
 10
6.066051
 20
4.817485
  0
VERTEX
  8
0
  6
CONTINUOUS
 10
6.071176
 20
4.814923
  0
VERTEX
  8
0
  6
CONTINUOUS
 10
6.082278
 20
4.815777
  0
VERTEX
  8
0
  6
CONTINUOUS
 10
6.099358
 20
4.814069
  0
VERTEX
  8
0
  6
CONTINUOUS
 10
6.119854
 20
4.808091
  0
VERTEX
  8
0
  6
CONTINUOUS
 10
6.142059
 20
4.796989
  0
VERTEX
  8
0
  6
CONTINUOUS
 10
6.162555
 20
4.777346
  0
VERTEX
  8
0
  6
CONTINUOUS
 10
6.179635
 20
4.747456
  0
VERTEX
  8
0
  6
CONTINUOUS
 10
6.190737
 20
4.704755
  0
VERTEX
  8
0
  6
CONTINUOUS
 10
6.192445
 20
4.648391
  0
VERTEX
  8
0
  6
CONTINUOUS
 10
6.192445
 20
4.645829
  0
VERTEX
  8
0
  6
CONTINUOUS
 10
7.565698
 20
4.543347
  0
VERTEX
  8
0
  6
CONTINUOUS
 10
7.569114
 20
4.543347
  0
VERTEX
  8
0
  6
CONTINUOUS
 10
7.579362
 20
4.543347
  0
VERTEX
  8
0
  6
CONTINUOUS
 10
7.596442
 20
4.541639
  0
VERTEX
  8
0
  6
CONTINUOUS
 10
7.616938
 20
4.536515
  0
VERTEX
  8
0
  6
CONTINUOUS
 10
7.639143
 20
4.524559
  0
VERTEX
  8
0
  6
CONTINUOUS
 10
7.659639
 20
4.504916
  0
VERTEX
  8
0
  6
CONTINUOUS
 10
7.676719
 20
4.475026
  0
VERTEX
  8
0
  6
CONTINUOUS
 10
7.687821
 20
4.433179
  0
VERTEX
  8
0
  6
CONTINUOUS
 10
7.690383
 20
4.376815
  0
VERTEX
  8
0
  6
CONTINUOUS
 10
7.691237
 20
4.372545
  0
VERTEX
  8
0
  6
CONTINUOUS
 10
7.691237
 20
4.170144
  0
VERTEX
  8
0
  6
CONTINUOUS
 10
2.763585
 20
4.170144
  0
VERTEX
  8
0
  6
CONTINUOUS
 10
2.763585
 20
5.000244
  0
VERTEX
  8
0
  6
CONTINUOUS
 10
2.765293
 20
5.057463
  0
VERTEX
  8
0
  6
CONTINUOUS
 10
2.776395
 20
5.099309
  0
VERTEX
  8
0
  6
CONTINUOUS
 10
2.793475
 20
5.129200
  0
VERTEX
  8
0
  6
CONTINUOUS
 10
2.813972
 20
5.148842
  0
VERTEX
  8
0
  6
CONTINUOUS
 10
2.836176
 20
5.160798
  0
VERTEX
  8
0
  6
CONTINUOUS
 10
2.856672
 20
5.165922
  0
VERTEX
  8
0
  6
CONTINUOUS
 10
2.873752
 20
5.167630
  0
VERTEX
  8
0
  6
CONTINUOUS
 10
2.884855
 20
5.167630
  0
VERTEX
  8
0
  6
CONTINUOUS
 10
2.892541
 20
5.166776
  0
VERTEX
  8
0
  6
CONTINUOUS
 10
4.067662
 20
5.096747
  0
VERTEX
  8
0
  6
CONTINUOUS
 10
4.072786
 20
5.096747
  0
VERTEX
  8
0
  6
CONTINUOUS
 10
4.083034
 20
5.094185
  0
VERTEX
  8
0
  6
CONTINUOUS
 10
4.099260
 20
5.090769
  0
VERTEX
  8
0
  6
CONTINUOUS
 10
4.118903
 20
5.083937
  0
VERTEX
  8
0
  6
CONTINUOUS
 10
4.140253
 20
5.071981
  0
VERTEX
  8
0
  6
CONTINUOUS
 10
4.159895
 20
5.052339
  0
VERTEX
  8
0
  6
CONTINUOUS
 10
4.176122
 20
5.022448
  0
VERTEX
  8
0
  6
CONTINUOUS
 10
4.187224
 20
4.981455
  0
VERTEX
  8
0
  6
CONTINUOUS
 10
4.189786
 20
4.925945
  0
VERTEX
  8
0
  6
CONTINUOUS
 10
4.194056
 20
4.930215
  0
SEQEND
  8
0
  0
TEXT
  8
0
 10
4.925945
 20
3.929312
 40
0.135105
  1
BA  179
 41
1.000000
  7
SN1
 71
     0
 72
     5
 11
5.509875
 21
3.929312
  0
TEXT
  8
0
 10
4.747456
 20
3.738013
 40
0.135105
  1
1" x 4-15/16"
 41
1.000000
  7
SN1
 71
     0
 72
     5
 11
5.684915
 21
3.738013
  0
TEXT
  8
0
 10
7.730522
 20
7.331698
 40
0.135105
  1
case
 41
1.000000
  7
SN1
 71
     0
 72
     5
 11
8.077522
 21
7.331698
  0
TEXT
  8
0
 10
7.767245
 20
7.140399
 40
0.135105
  1
179
 41
1.000000
  7
SN1
 71
     0
 72
     5
 11
8.041486
 21
7.140399
  0
POLYLINE
  8
0
  6
CONTINUOUS
 66
     1
 40
0.013664
 41
0.013664
  0
VERTEX
  8
0
  6
CONTINUOUS
 10
4.135129
 20
7.092575
  0
VERTEX
  8
0
  6
CONTINUOUS
 10
4.132567
 20
7.088305
  0
VERTEX
  8
0
  6
CONTINUOUS
 10
6.007125
 20
6.980699
  0
VERTEX
  8
0
  6
CONTINUOUS
 10
6.012249
 20
6.977283
  0
VERTEX
  8
0
  6
CONTINUOUS
 10
6.040431
 20
6.976429
  0
VERTEX
  8
0
  6
CONTINUOUS
 10
6.072030
 20
6.966181
  0
VERTEX
  8
0
  6
CONTINUOUS
 10
6.094234
 20
6.950809
  0
VERTEX
  8
0
  6
CONTINUOUS
 10
6.113022
 20
6.926042
  0
VERTEX
  8
0
  6
CONTINUOUS
 10
6.126686
 20
6.890174
  0
VERTEX
  8
0
  6
CONTINUOUS
 10
6.131810
 20
6.867115
  0
VERTEX
  8
0
  6
CONTINUOUS
 10
6.134372
 20
6.826123
  0
VERTEX
  8
0
  6
CONTINUOUS
 10
6.133518
 20
6.808188
  0
VERTEX
  8
0
  6
CONTINUOUS
 10
7.537515
 20
6.703999
  0
VERTEX
  8
0
  6
CONTINUOUS
 10
7.569114
 20
6.693751
  0
VERTEX
  8
0
  6
CONTINUOUS
 10
7.591318
 20
6.678379
  0
VERTEX
  8
0
  6
CONTINUOUS
 10
7.610106
 20
6.653612
  0
VERTEX
  8
0
  6
CONTINUOUS
 10
7.618646
 20
6.637386
  0
VERTEX
  8
0
  6
CONTINUOUS
 10
7.628895
 20
6.595539
  0
VERTEX
  8
0
  6
CONTINUOUS
 10
7.632311
 20
6.534904
  0
VERTEX
  8
0
  6
CONTINUOUS
 10
7.632311
 20
6.332503
  0
VERTEX
  8
0
  6
CONTINUOUS
 10
2.704658
 20
6.332503
  0
VERTEX
  8
0
  6
CONTINUOUS
 10
2.704658
 20
7.193348
  0
VERTEX
  8
0
  6
CONTINUOUS
 10
2.706366
 20
7.218968
  0
VERTEX
  8
0
  6
CONTINUOUS
 10
2.717468
 20
7.261669
  0
VERTEX
  8
0
  6
CONTINUOUS
 10
2.734548
 20
7.291560
  0
VERTEX
  8
0
  6
CONTINUOUS
 10
2.755045
 20
7.311202
  0
VERTEX
  8
0
  6
CONTINUOUS
 10
2.787497
 20
7.326574
  0
VERTEX
  8
0
  6
CONTINUOUS
 10
2.807139
 20
7.329990
  0
VERTEX
  8
0
  6
CONTINUOUS
 10
2.833614
 20
7.329990
  0
VERTEX
  8
0
  6
CONTINUOUS
 10
4.018129
 20
7.258253
  0
VERTEX
  8
0
  6
CONTINUOUS
 10
4.059976
 20
7.246297
  0
VERTEX
  8
0
  6
CONTINUOUS
 10
4.081326
 20
7.234341
  0
VERTEX
  8
0
  6
CONTINUOUS
 10
4.100968
 20
7.214698
  0
VERTEX
  8
0
  6
CONTINUOUS
 10
4.117195
 20
7.185662
  0
VERTEX
  8
0
  6
CONTINUOUS
 10
4.127443
 20
7.143815
  0
VERTEX
  8
0
  6
CONTINUOUS
 10
4.130859
 20
7.118195
  0
VERTEX
  8
0
  6
CONTINUOUS
 10
4.130859
 20
7.088305
  0
SEQEND
  8
0
  0
ENDSEC
  0
EOF
