  0
SECTION
  2
HEADER
  9
$ACADVER
  1
AC1006
  9
$EXTMIN
 10
3.884320
 20
0.410960
  9
$EXTMAX
 10
8.022080
 20
3.567960
  9
$LTSCALE
 40
0.044000
  9
$PDMODE
 70
    35
  9
$PDSIZE
 40
0.035200
  0
ENDSEC
  0
SECTION
  2
TABLES
  0
TABLE
  2
LTYPE
 70
     9
  0
LTYPE
  2
CONTINUOUS
 70
    64
  3
Solid line
 72
    65
 73
     0
 40
0.000000
  0
LTYPE
  2
DASHED
 70
    64
  3
__ __ __ __ __ __ __ __ __ __ __ __ __ __ __
 72
    65
 73
     2
 40
0.000330
 49
0.000220
 49
-0.000110
  0
LTYPE
  2
HIDDEN
 70
    64
  3
 _ _ _ _ _ _ _ _ _ _ _ _ _ _ _ _ _ _ _ _ _ _
 72
    65
 73
     2
 40
0.000165
 49
0.000110
 49
-0.000055
  0
LTYPE
  2
CENTER
 70
    64
  3
____ _ ____ _ ____ _ ____ _ ____ _ ____ _ ____
 72
    65
 73
     4
 40
0.000880
 49
0.000550
 49
-0.000110
 49
0.000110
 49
-0.000110
  0
LTYPE
  2
PHANTOM
 70
    64
  3
_____ _ _ _____ _ _ _____ _ _ _____ _ _ ____
 72
    65
 73
     6
 40
0.001100
 49
0.000550
 49
-0.000110
 49
0.000110
 49
-0.000110
 49
0.000110
 49
-0.000110
  0
LTYPE
  2
DOT
 70
    64
  3
...............................................
 72
    65
 73
     2
 40
0.000110
 49
0.000000
 49
-0.000110
  0
LTYPE
  2
DASHDOT
 70
    64
  3
__ . __ . __ . __ . __ . __ . __ . __ . __ . __
 72
    65
 73
     4
 40
0.000440
 49
0.000220
 49
-0.000110
 49
0.000000
 49
-0.000110
  0
LTYPE
  2
BORDER
 70
    64
  3
__ __ . __ __ . __ __ . __ __ . __ __ . __ __
 72
    65
 73
     6
 40
0.000770
 49
0.000220
 49
-0.000110
 49
0.000220
 49
-0.000110
 49
0.000000
 49
-0.000110
  0
LTYPE
  2
DIVIDE
 70
    64
  3
__ . . __ . . __ . . __ . . __ . . __ . . __
 72
    65
 73
     6
 40
0.000550
 49
0.000220
 49
-0.000110
 49
0.000000
 49
-0.000110
 49
0.000000
 49
-0.000110
  0
LTYPE
  2
DOTDOT
 70
    64
  3
 . .  . .  . .  . .  . .  . . 
 72
    65
 73
     5
 40
0.000242
 49
-0.000110
 49
0.000000
 49
-0.000110
 49
0.000000
 49
-0.000110
  0
ENDTAB
  0
TABLE
  2
STYLE
 70
     2
  0
STYLE
 70
     0
  2
SN0
 40
0.000000
 41
0.000440
 50
0.000000
 71
     0
 42
0.000000
  3
ROMAND
  0
STYLE
 70
    68
  2
SV0
 40
0.000000
 41
0.000440
 50
0.000000
 71
     0
 42
0.000000
  3
ROMAND
  0
ENDTAB
  0
TABLE
  2
LAYER
 70
     3
  0
LAYER
  2
FOREGROUND
 70
    64
 62
     7
  6
CONTINUOUS
  0
LAYER
  2
BACKGROUND
 70
    65
 62
    -7
  6
CONTINUOUS
  0
LAYER
  2
0
 70
    64
 62
     7
  6
CONTINUOUS
  0
ENDTAB
  0
ENDSEC
  0
SECTION
  2
ENTITIES
  0
POLYLINE
  8
FOREGROUND
  6
CONTINUOUS
 66
     1
 40
0.000000
 41
0.000000
  0
VERTEX
  8
FOREGROUND
  6
CONTINUOUS
 10
0.000000
 20
3.978920
  0
VERTEX
  8
FOREGROUND
  6
CONTINUOUS
 10
8.499920
 20
3.978920
  0
VERTEX
  8
FOREGROUND
  6
CONTINUOUS
 10
8.499920
 20
-7.021080
  0
VERTEX
  8
FOREGROUND
  6
CONTINUOUS
 10
0.000000
 20
-7.021080
  0
VERTEX
  8
FOREGROUND
  6
CONTINUOUS
 10
0.000000
 20
3.978920
  0
SEQEND
  8
0
  0
POLYLINE
  8
FOREGROUND
  6
CONTINUOUS
 66
     1
 40
0.000000
 41
0.000000
  0
VERTEX
  8
FOREGROUND
  6
CONTINUOUS
 10
0.000000
 20
3.978920
  0
VERTEX
  8
FOREGROUND
  6
CONTINUOUS
 10
8.499920
 20
3.978920
  0
VERTEX
  8
FOREGROUND
  6
CONTINUOUS
 10
8.499920
 20
-7.021080
  0
VERTEX
  8
FOREGROUND
  6
CONTINUOUS
 10
0.000000
 20
-7.021080
  0
VERTEX
  8
FOREGROUND
  6
CONTINUOUS
 10
0.000000
 20
3.978920
  0
SEQEND
  8
0
  0
POLYLINE
  8
0
  6
CONTINUOUS
 66
     1
 40
0.014080
 41
0.014080
  0
VERTEX
  8
0
  6
CONTINUOUS
 10
4.652560
 20
2.289320
  0
VERTEX
  8
0
  6
CONTINUOUS
 10
4.696560
 20
2.289320
  0
VERTEX
  8
0
  6
CONTINUOUS
 10
4.696560
 20
2.176240
  0
VERTEX
  8
0
  6
CONTINUOUS
 10
3.919080
 20
2.176240
  0
VERTEX
  8
0
  6
CONTINUOUS
 10
3.919080
 20
2.328040
  0
VERTEX
  8
0
  6
CONTINUOUS
 10
3.960440
 20
2.343880
  0
VERTEX
  8
0
  6
CONTINUOUS
 10
3.993880
 20
2.362360
  0
VERTEX
  8
0
  6
CONTINUOUS
 10
4.022040
 20
2.383480
  0
VERTEX
  8
0
  6
CONTINUOUS
 10
4.044920
 20
2.407240
  0
VERTEX
  8
0
  6
CONTINUOUS
 10
4.072200
 20
2.445960
  0
VERTEX
  8
0
  6
CONTINUOUS
 10
4.092880
 20
2.486440
  0
VERTEX
  8
0
  6
CONTINUOUS
 10
4.130720
 20
2.577080
  0
VERTEX
  8
0
  6
CONTINUOUS
 10
4.149200
 20
2.608760
  0
VERTEX
  8
0
  6
CONTINUOUS
 10
4.164600
 20
2.625920
  0
VERTEX
  8
0
  6
CONTINUOUS
 10
4.182640
 20
2.639120
  0
VERTEX
  8
0
  6
CONTINUOUS
 10
4.192760
 20
2.644400
  0
VERTEX
  8
0
  6
CONTINUOUS
 10
4.216960
 20
2.650560
  0
VERTEX
  8
0
  6
CONTINUOUS
 10
4.231040
 20
2.651880
  0
VERTEX
  8
0
  6
CONTINUOUS
 10
4.266680
 20
2.651000
  0
VERTEX
  8
0
  6
CONTINUOUS
 10
4.296160
 20
2.647480
  0
VERTEX
  8
0
  6
CONTINUOUS
 10
4.313320
 20
2.643520
  0
VERTEX
  8
0
  6
CONTINUOUS
 10
4.342360
 20
2.631200
  0
VERTEX
  8
0
  6
CONTINUOUS
 10
4.365680
 20
2.613600
  0
VERTEX
  8
0
  6
CONTINUOUS
 10
4.385040
 20
2.591160
  0
VERTEX
  8
0
  6
CONTINUOUS
 10
4.411880
 20
2.546720
  0
VERTEX
  8
0
  6
CONTINUOUS
 10
4.441800
 20
2.490840
  0
VERTEX
  8
0
  6
CONTINUOUS
 10
4.445320
 20
2.486440
  0
VERTEX
  8
0
  6
CONTINUOUS
 10
4.457200
 20
2.480720
  0
VERTEX
  8
0
  6
CONTINUOUS
 10
4.473920
 20
2.477200
  0
VERTEX
  8
0
  6
CONTINUOUS
 10
4.502960
 20
2.475440
  0
VERTEX
  8
0
  6
CONTINUOUS
 10
4.509120
 20
2.467960
  0
VERTEX
  8
0
  6
CONTINUOUS
 10
4.550920
 20
2.383040
  0
VERTEX
  8
0
  6
CONTINUOUS
 10
4.571600
 20
2.348720
  0
VERTEX
  8
0
  6
CONTINUOUS
 10
4.594920
 20
2.319240
  0
VERTEX
  8
0
  6
CONTINUOUS
 10
4.614720
 20
2.302080
  0
VERTEX
  8
0
  6
CONTINUOUS
 10
4.628800
 20
2.294160
  0
VERTEX
  8
0
  6
CONTINUOUS
 10
4.643760
 20
2.289760
  0
VERTEX
  8
0
  6
CONTINUOUS
 10
4.652560
 20
2.289320
  0
SEQEND
  8
0
  0
SOLID
  8
0
 62
     7
 10
4.359960
 20
1.343320
 11
4.359960
 21
1.761760
 12
4.342800
 22
1.347720
 13
4.342800
 23
1.766160
  0
POLYLINE
  8
0
  6
CONTINUOUS
 66
     1
 40
0.000000
 41
0.000000
  0
VERTEX
  8
0
  6
CONTINUOUS
 10
4.359960
 20
1.343320
  0
VERTEX
  8
0
  6
CONTINUOUS
 10
4.359960
 20
1.761760
  0
VERTEX
  8
0
  6
CONTINUOUS
 10
4.342800
 20
1.766160
  0
VERTEX
  8
0
  6
CONTINUOUS
 10
4.342800
 20
1.347720
  0
VERTEX
  8
0
  6
CONTINUOUS
 10
4.359960
 20
1.343320
  0
SEQEND
  8
0
  0
SOLID
  8
0
 62
     7
 10
4.682480
 20
0.991760
 11
4.682480
 21
1.410200
 12
4.667960
 22
0.997920
 13
4.667960
 23
1.415920
  0
POLYLINE
  8
0
  6
CONTINUOUS
 66
     1
 40
0.000000
 41
0.000000
  0
VERTEX
  8
0
  6
CONTINUOUS
 10
4.682480
 20
0.991760
  0
VERTEX
  8
0
  6
CONTINUOUS
 10
4.682480
 20
1.410200
  0
VERTEX
  8
0
  6
CONTINUOUS
 10
4.667960
 20
1.415920
  0
VERTEX
  8
0
  6
CONTINUOUS
 10
4.667960
 20
0.997920
  0
VERTEX
  8
0
  6
CONTINUOUS
 10
4.682480
 20
0.991760
  0
SEQEND
  8
0
  0
SOLID
  8
0
 62
     7
 10
4.667960
 20
0.997920
 11
4.667960
 21
1.415920
 12
4.654320
 22
1.007160
 13
4.654320
 23
1.425600
  0
POLYLINE
  8
0
  6
CONTINUOUS
 66
     1
 40
0.000000
 41
0.000000
  0
VERTEX
  8
0
  6
CONTINUOUS
 10
4.667960
 20
0.997920
  0
VERTEX
  8
0
  6
CONTINUOUS
 10
4.667960
 20
1.415920
  0
VERTEX
  8
0
  6
CONTINUOUS
 10
4.654320
 20
1.425600
  0
VERTEX
  8
0
  6
CONTINUOUS
 10
4.654320
 20
1.007160
  0
VERTEX
  8
0
  6
CONTINUOUS
 10
4.667960
 20
0.997920
  0
SEQEND
  8
0
  0
SOLID
  8
0
 62
     7
 10
4.654320
 20
1.007160
 11
4.654320
 21
1.425600
 12
4.641560
 22
1.019040
 13
4.641120
 23
1.437480
  0
POLYLINE
  8
0
  6
CONTINUOUS
 66
     1
 40
0.000000
 41
0.000000
  0
VERTEX
  8
0
  6
CONTINUOUS
 10
4.654320
 20
1.007160
  0
VERTEX
  8
0
  6
CONTINUOUS
 10
4.654320
 20
1.425600
  0
VERTEX
  8
0
  6
CONTINUOUS
 10
4.641120
 20
1.437480
  0
VERTEX
  8
0
  6
CONTINUOUS
 10
4.641560
 20
1.019040
  0
VERTEX
  8
0
  6
CONTINUOUS
 10
4.654320
 20
1.007160
  0
SEQEND
  8
0
  0
SOLID
  8
0
 62
    15
 10
4.641560
 20
1.019040
 11
4.641120
 21
1.437480
 12
4.617800
 22
1.048960
 13
4.617800
 23
1.467400
  0
POLYLINE
  8
0
  6
CONTINUOUS
 66
     1
 40
0.000000
 41
0.000000
  0
VERTEX
  8
0
  6
CONTINUOUS
 10
4.641560
 20
1.019040
  0
VERTEX
  8
0
  6
CONTINUOUS
 10
4.641120
 20
1.437480
  0
VERTEX
  8
0
  6
CONTINUOUS
 10
4.617800
 20
1.467400
  0
VERTEX
  8
0
  6
CONTINUOUS
 10
4.617800
 20
1.048960
  0
VERTEX
  8
0
  6
CONTINUOUS
 10
4.641560
 20
1.019040
  0
SEQEND
  8
0
  0
SOLID
  8
0
 62
    15
 10
4.617800
 20
1.048960
 11
4.617800
 21
1.467400
 12
4.597560
 22
1.083280
 13
4.597120
 23
1.501720
  0
POLYLINE
  8
0
  6
CONTINUOUS
 66
     1
 40
0.000000
 41
0.000000
  0
VERTEX
  8
0
  6
CONTINUOUS
 10
4.617800
 20
1.048960
  0
VERTEX
  8
0
  6
CONTINUOUS
 10
4.617800
 20
1.467400
  0
VERTEX
  8
0
  6
CONTINUOUS
 10
4.597120
 20
1.501720
  0
VERTEX
  8
0
  6
CONTINUOUS
 10
4.597560
 20
1.083280
  0
VERTEX
  8
0
  6
CONTINUOUS
 10
4.617800
 20
1.048960
  0
SEQEND
  8
0
  0
SOLID
  8
0
 62
    15
 10
4.597560
 20
1.083280
 11
4.597120
 21
1.501720
 12
4.580400
 22
1.117600
 13
4.579960
 23
1.535600
  0
POLYLINE
  8
0
  6
CONTINUOUS
 66
     1
 40
0.000000
 41
0.000000
  0
VERTEX
  8
0
  6
CONTINUOUS
 10
4.597560
 20
1.083280
  0
VERTEX
  8
0
  6
CONTINUOUS
 10
4.597120
 20
1.501720
  0
VERTEX
  8
0
  6
CONTINUOUS
 10
4.579960
 20
1.535600
  0
VERTEX
  8
0
  6
CONTINUOUS
 10
4.580400
 20
1.117600
  0
VERTEX
  8
0
  6
CONTINUOUS
 10
4.597560
 20
1.083280
  0
SEQEND
  8
0
  0
SOLID
  8
0
 62
    15
 10
4.580400
 20
1.117600
 11
4.579960
 21
1.535600
 12
4.572920
 22
1.133000
 13
4.572480
 23
1.551440
  0
POLYLINE
  8
0
  6
CONTINUOUS
 66
     1
 40
0.000000
 41
0.000000
  0
VERTEX
  8
0
  6
CONTINUOUS
 10
4.580400
 20
1.117600
  0
VERTEX
  8
0
  6
CONTINUOUS
 10
4.579960
 20
1.535600
  0
VERTEX
  8
0
  6
CONTINUOUS
 10
4.572480
 20
1.551440
  0
VERTEX
  8
0
  6
CONTINUOUS
 10
4.572920
 20
1.133000
  0
VERTEX
  8
0
  6
CONTINUOUS
 10
4.580400
 20
1.117600
  0
SEQEND
  8
0
  0
SOLID
  8
0
 62
    15
 10
4.572920
 20
1.133000
 11
4.572480
 21
1.551440
 12
4.566320
 22
1.147080
 13
4.565880
 23
1.565520
  0
POLYLINE
  8
0
  6
CONTINUOUS
 66
     1
 40
0.000000
 41
0.000000
  0
VERTEX
  8
0
  6
CONTINUOUS
 10
4.572920
 20
1.133000
  0
VERTEX
  8
0
  6
CONTINUOUS
 10
4.572480
 20
1.551440
  0
VERTEX
  8
0
  6
CONTINUOUS
 10
4.565880
 20
1.565520
  0
VERTEX
  8
0
  6
CONTINUOUS
 10
4.566320
 20
1.147080
  0
VERTEX
  8
0
  6
CONTINUOUS
 10
4.572920
 20
1.133000
  0
SEQEND
  8
0
  0
SOLID
  8
0
 62
    15
 10
4.566320
 20
1.147080
 11
4.565880
 21
1.565520
 12
4.560600
 22
1.158960
 13
4.560160
 23
1.577400
  0
POLYLINE
  8
0
  6
CONTINUOUS
 66
     1
 40
0.000000
 41
0.000000
  0
VERTEX
  8
0
  6
CONTINUOUS
 10
4.566320
 20
1.147080
  0
VERTEX
  8
0
  6
CONTINUOUS
 10
4.565880
 20
1.565520
  0
VERTEX
  8
0
  6
CONTINUOUS
 10
4.560160
 20
1.577400
  0
VERTEX
  8
0
  6
CONTINUOUS
 10
4.560600
 20
1.158960
  0
VERTEX
  8
0
  6
CONTINUOUS
 10
4.566320
 20
1.147080
  0
SEQEND
  8
0
  0
SOLID
  8
0
 62
    15
 10
4.560600
 20
1.158960
 11
4.560160
 21
1.577400
 12
4.555320
 22
1.168200
 13
4.555320
 23
1.586640
  0
POLYLINE
  8
0
  6
CONTINUOUS
 66
     1
 40
0.000000
 41
0.000000
  0
VERTEX
  8
0
  6
CONTINUOUS
 10
4.560600
 20
1.158960
  0
VERTEX
  8
0
  6
CONTINUOUS
 10
4.560160
 20
1.577400
  0
VERTEX
  8
0
  6
CONTINUOUS
 10
4.555320
 20
1.586640
  0
VERTEX
  8
0
  6
CONTINUOUS
 10
4.555320
 20
1.168200
  0
VERTEX
  8
0
  6
CONTINUOUS
 10
4.560600
 20
1.158960
  0
SEQEND
  8
0
  0
SOLID
  8
0
 62
    15
 10
4.555320
 20
1.168200
 11
4.555320
 21
1.586640
 12
4.551360
 22
1.173920
 13
4.551360
 23
1.592360
  0
POLYLINE
  8
0
  6
CONTINUOUS
 66
     1
 40
0.000000
 41
0.000000
  0
VERTEX
  8
0
  6
CONTINUOUS
 10
4.555320
 20
1.168200
  0
VERTEX
  8
0
  6
CONTINUOUS
 10
4.555320
 20
1.586640
  0
VERTEX
  8
0
  6
CONTINUOUS
 10
4.551360
 20
1.592360
  0
VERTEX
  8
0
  6
CONTINUOUS
 10
4.551360
 20
1.173920
  0
VERTEX
  8
0
  6
CONTINUOUS
 10
4.555320
 20
1.168200
  0
SEQEND
  8
0
  0
SOLID
  8
0
 62
     7
 10
4.551360
 20
1.173920
 11
4.551360
 21
1.592360
 12
4.548280
 22
1.176120
 13
4.548280
 23
1.594560
  0
POLYLINE
  8
0
  6
CONTINUOUS
 66
     1
 40
0.000000
 41
0.000000
  0
VERTEX
  8
0
  6
CONTINUOUS
 10
4.551360
 20
1.173920
  0
VERTEX
  8
0
  6
CONTINUOUS
 10
4.551360
 20
1.592360
  0
VERTEX
  8
0
  6
CONTINUOUS
 10
4.548280
 20
1.594560
  0
VERTEX
  8
0
  6
CONTINUOUS
 10
4.548280
 20
1.176120
  0
VERTEX
  8
0
  6
CONTINUOUS
 10
4.551360
 20
1.173920
  0
SEQEND
  8
0
  0
SOLID
  8
0
 62
     7
 10
4.548280
 20
1.176120
 11
4.548280
 21
1.594560
 12
4.511760
 22
1.178760
 13
4.511760
 23
1.597200
  0
POLYLINE
  8
0
  6
CONTINUOUS
 66
     1
 40
0.000000
 41
0.000000
  0
VERTEX
  8
0
  6
CONTINUOUS
 10
4.548280
 20
1.176120
  0
VERTEX
  8
0
  6
CONTINUOUS
 10
4.548280
 20
1.594560
  0
VERTEX
  8
0
  6
CONTINUOUS
 10
4.511760
 20
1.597200
  0
VERTEX
  8
0
  6
CONTINUOUS
 10
4.511760
 20
1.178760
  0
VERTEX
  8
0
  6
CONTINUOUS
 10
4.548280
 20
1.176120
  0
SEQEND
  8
0
  0
SOLID
  8
0
 62
     7
 10
4.511760
 20
1.178760
 11
4.511760
 21
1.597200
 12
4.497240
 22
1.183600
 13
4.496800
 23
1.601600
  0
POLYLINE
  8
0
  6
CONTINUOUS
 66
     1
 40
0.000000
 41
0.000000
  0
VERTEX
  8
0
  6
CONTINUOUS
 10
4.511760
 20
1.178760
  0
VERTEX
  8
0
  6
CONTINUOUS
 10
4.511760
 20
1.597200
  0
VERTEX
  8
0
  6
CONTINUOUS
 10
4.496800
 20
1.601600
  0
VERTEX
  8
0
  6
CONTINUOUS
 10
4.497240
 20
1.183600
  0
VERTEX
  8
0
  6
CONTINUOUS
 10
4.511760
 20
1.178760
  0
SEQEND
  8
0
  0
SOLID
  8
0
 62
     7
 10
4.497240
 20
1.183600
 11
4.496800
 21
1.601600
 12
4.488440
 22
1.190640
 13
4.488000
 23
1.609080
  0
POLYLINE
  8
0
  6
CONTINUOUS
 66
     1
 40
0.000000
 41
0.000000
  0
VERTEX
  8
0
  6
CONTINUOUS
 10
4.497240
 20
1.183600
  0
VERTEX
  8
0
  6
CONTINUOUS
 10
4.496800
 20
1.601600
  0
VERTEX
  8
0
  6
CONTINUOUS
 10
4.488000
 20
1.609080
  0
VERTEX
  8
0
  6
CONTINUOUS
 10
4.488440
 20
1.190640
  0
VERTEX
  8
0
  6
CONTINUOUS
 10
4.497240
 20
1.183600
  0
SEQEND
  8
0
  0
SOLID
  8
0
 62
    15
 10
4.488440
 20
1.190640
 11
4.488000
 21
1.609080
 12
4.477440
 22
1.210880
 13
4.477440
 23
1.629320
  0
POLYLINE
  8
0
  6
CONTINUOUS
 66
     1
 40
0.000000
 41
0.000000
  0
VERTEX
  8
0
  6
CONTINUOUS
 10
4.488440
 20
1.190640
  0
VERTEX
  8
0
  6
CONTINUOUS
 10
4.488000
 20
1.609080
  0
VERTEX
  8
0
  6
CONTINUOUS
 10
4.477440
 20
1.629320
  0
VERTEX
  8
0
  6
CONTINUOUS
 10
4.477440
 20
1.210880
  0
VERTEX
  8
0
  6
CONTINUOUS
 10
4.488440
 20
1.190640
  0
SEQEND
  8
0
  0
SOLID
  8
0
 62
    15
 10
4.477440
 20
1.210880
 11
4.477440
 21
1.629320
 12
4.467760
 22
1.229800
 13
4.467320
 23
1.647800
  0
POLYLINE
  8
0
  6
CONTINUOUS
 66
     1
 40
0.000000
 41
0.000000
  0
VERTEX
  8
0
  6
CONTINUOUS
 10
4.477440
 20
1.210880
  0
VERTEX
  8
0
  6
CONTINUOUS
 10
4.477440
 20
1.629320
  0
VERTEX
  8
0
  6
CONTINUOUS
 10
4.467320
 20
1.647800
  0
VERTEX
  8
0
  6
CONTINUOUS
 10
4.467760
 20
1.229800
  0
VERTEX
  8
0
  6
CONTINUOUS
 10
4.477440
 20
1.210880
  0
SEQEND
  8
0
  0
SOLID
  8
0
 62
    15
 10
4.467760
 20
1.229800
 11
4.467320
 21
1.647800
 12
4.449280
 22
1.262800
 13
4.449280
 23
1.681240
  0
POLYLINE
  8
0
  6
CONTINUOUS
 66
     1
 40
0.000000
 41
0.000000
  0
VERTEX
  8
0
  6
CONTINUOUS
 10
4.467760
 20
1.229800
  0
VERTEX
  8
0
  6
CONTINUOUS
 10
4.467320
 20
1.647800
  0
VERTEX
  8
0
  6
CONTINUOUS
 10
4.449280
 20
1.681240
  0
VERTEX
  8
0
  6
CONTINUOUS
 10
4.449280
 20
1.262800
  0
VERTEX
  8
0
  6
CONTINUOUS
 10
4.467760
 20
1.229800
  0
SEQEND
  8
0
  0
SOLID
  8
0
 62
    15
 10
4.449280
 20
1.262800
 11
4.449280
 21
1.681240
 12
4.431240
 22
1.290960
 13
4.431240
 23
1.709400
  0
POLYLINE
  8
0
  6
CONTINUOUS
 66
     1
 40
0.000000
 41
0.000000
  0
VERTEX
  8
0
  6
CONTINUOUS
 10
4.449280
 20
1.262800
  0
VERTEX
  8
0
  6
CONTINUOUS
 10
4.449280
 20
1.681240
  0
VERTEX
  8
0
  6
CONTINUOUS
 10
4.431240
 20
1.709400
  0
VERTEX
  8
0
  6
CONTINUOUS
 10
4.431240
 20
1.290960
  0
VERTEX
  8
0
  6
CONTINUOUS
 10
4.449280
 20
1.262800
  0
SEQEND
  8
0
  0
SOLID
  8
0
 62
    15
 10
4.431240
 20
1.290960
 11
4.431240
 21
1.709400
 12
4.411880
 22
1.313840
 13
4.411880
 23
1.732280
  0
POLYLINE
  8
0
  6
CONTINUOUS
 66
     1
 40
0.000000
 41
0.000000
  0
VERTEX
  8
0
  6
CONTINUOUS
 10
4.431240
 20
1.290960
  0
VERTEX
  8
0
  6
CONTINUOUS
 10
4.431240
 20
1.709400
  0
VERTEX
  8
0
  6
CONTINUOUS
 10
4.411880
 20
1.732280
  0
VERTEX
  8
0
  6
CONTINUOUS
 10
4.411880
 20
1.313840
  0
VERTEX
  8
0
  6
CONTINUOUS
 10
4.431240
 20
1.290960
  0
SEQEND
  8
0
  0
SOLID
  8
0
 62
     7
 10
4.411880
 20
1.313840
 11
4.411880
 21
1.732280
 12
4.389000
 22
1.331440
 13
4.388560
 23
1.749880
  0
POLYLINE
  8
0
  6
CONTINUOUS
 66
     1
 40
0.000000
 41
0.000000
  0
VERTEX
  8
0
  6
CONTINUOUS
 10
4.411880
 20
1.313840
  0
VERTEX
  8
0
  6
CONTINUOUS
 10
4.411880
 20
1.732280
  0
VERTEX
  8
0
  6
CONTINUOUS
 10
4.388560
 20
1.749880
  0
VERTEX
  8
0
  6
CONTINUOUS
 10
4.389000
 20
1.331440
  0
VERTEX
  8
0
  6
CONTINUOUS
 10
4.411880
 20
1.313840
  0
SEQEND
  8
0
  0
SOLID
  8
0
 62
     7
 10
4.389000
 20
1.331440
 11
4.388560
 21
1.749880
 12
4.359960
 22
1.343320
 13
4.359960
 23
1.761760
  0
POLYLINE
  8
0
  6
CONTINUOUS
 66
     1
 40
0.000000
 41
0.000000
  0
VERTEX
  8
0
  6
CONTINUOUS
 10
4.389000
 20
1.331440
  0
VERTEX
  8
0
  6
CONTINUOUS
 10
4.388560
 20
1.749880
  0
VERTEX
  8
0
  6
CONTINUOUS
 10
4.359960
 20
1.761760
  0
VERTEX
  8
0
  6
CONTINUOUS
 10
4.359960
 20
1.343320
  0
VERTEX
  8
0
  6
CONTINUOUS
 10
4.389000
 20
1.331440
  0
SEQEND
  8
0
  0
SOLID
  8
0
 62
     7
 10
4.697440
 20
0.989560
 11
4.697440
 21
1.407560
 12
4.682480
 22
0.991760
 13
4.682480
 23
1.410200
  0
POLYLINE
  8
0
  6
CONTINUOUS
 66
     1
 40
0.000000
 41
0.000000
  0
VERTEX
  8
0
  6
CONTINUOUS
 10
4.697440
 20
0.989560
  0
VERTEX
  8
0
  6
CONTINUOUS
 10
4.697440
 20
1.407560
  0
VERTEX
  8
0
  6
CONTINUOUS
 10
4.682480
 20
1.410200
  0
VERTEX
  8
0
  6
CONTINUOUS
 10
4.682480
 20
0.991760
  0
VERTEX
  8
0
  6
CONTINUOUS
 10
4.697440
 20
0.989560
  0
SEQEND
  8
0
  0
SOLID
  8
0
 62
     7
 10
4.342800
 20
1.347720
 11
4.342800
 21
1.766160
 12
4.323440
 22
1.350360
 13
4.323440
 23
1.768800
  0
POLYLINE
  8
0
  6
CONTINUOUS
 66
     1
 40
0.000000
 41
0.000000
  0
VERTEX
  8
0
  6
CONTINUOUS
 10
4.342800
 20
1.347720
  0
VERTEX
  8
0
  6
CONTINUOUS
 10
4.342800
 20
1.766160
  0
VERTEX
  8
0
  6
CONTINUOUS
 10
4.323440
 20
1.768800
  0
VERTEX
  8
0
  6
CONTINUOUS
 10
4.323440
 20
1.350360
  0
VERTEX
  8
0
  6
CONTINUOUS
 10
4.342800
 20
1.347720
  0
SEQEND
  8
0
  0
SOLID
  8
0
 62
     7
 10
4.323440
 20
1.350360
 11
4.323440
 21
1.768800
 12
4.301880
 22
1.352120
 13
4.301880
 23
1.770120
  0
POLYLINE
  8
0
  6
CONTINUOUS
 66
     1
 40
0.000000
 41
0.000000
  0
VERTEX
  8
0
  6
CONTINUOUS
 10
4.323440
 20
1.350360
  0
VERTEX
  8
0
  6
CONTINUOUS
 10
4.323440
 20
1.768800
  0
VERTEX
  8
0
  6
CONTINUOUS
 10
4.301880
 20
1.770120
  0
VERTEX
  8
0
  6
CONTINUOUS
 10
4.301880
 20
1.352120
  0
VERTEX
  8
0
  6
CONTINUOUS
 10
4.323440
 20
1.350360
  0
SEQEND
  8
0
  0
SOLID
  8
0
 62
     7
 10
4.301880
 20
1.352120
 11
4.301880
 21
1.770120
 12
4.277680
 22
1.352120
 13
4.277240
 23
1.770560
  0
POLYLINE
  8
0
  6
CONTINUOUS
 66
     1
 40
0.000000
 41
0.000000
  0
VERTEX
  8
0
  6
CONTINUOUS
 10
4.301880
 20
1.352120
  0
VERTEX
  8
0
  6
CONTINUOUS
 10
4.301880
 20
1.770120
  0
VERTEX
  8
0
  6
CONTINUOUS
 10
4.277240
 20
1.770560
  0
VERTEX
  8
0
  6
CONTINUOUS
 10
4.277680
 20
1.352120
  0
VERTEX
  8
0
  6
CONTINUOUS
 10
4.301880
 20
1.352120
  0
SEQEND
  8
0
  0
SOLID
  8
0
 62
    15
 10
4.277680
 20
1.352120
 11
4.277240
 21
1.770560
 12
4.250840
 22
1.348160
 13
4.250840
 23
1.766600
  0
POLYLINE
  8
0
  6
CONTINUOUS
 66
     1
 40
0.000000
 41
0.000000
  0
VERTEX
  8
0
  6
CONTINUOUS
 10
4.277680
 20
1.352120
  0
VERTEX
  8
0
  6
CONTINUOUS
 10
4.277240
 20
1.770560
  0
VERTEX
  8
0
  6
CONTINUOUS
 10
4.250840
 20
1.766600
  0
VERTEX
  8
0
  6
CONTINUOUS
 10
4.250840
 20
1.348160
  0
VERTEX
  8
0
  6
CONTINUOUS
 10
4.277680
 20
1.352120
  0
SEQEND
  8
0
  0
SOLID
  8
0
 62
    15
 10
4.250840
 20
1.348160
 11
4.250840
 21
1.766600
 12
4.228840
 22
1.339360
 13
4.228840
 23
1.757800
  0
POLYLINE
  8
0
  6
CONTINUOUS
 66
     1
 40
0.000000
 41
0.000000
  0
VERTEX
  8
0
  6
CONTINUOUS
 10
4.250840
 20
1.348160
  0
VERTEX
  8
0
  6
CONTINUOUS
 10
4.250840
 20
1.766600
  0
VERTEX
  8
0
  6
CONTINUOUS
 10
4.228840
 20
1.757800
  0
VERTEX
  8
0
  6
CONTINUOUS
 10
4.228840
 20
1.339360
  0
VERTEX
  8
0
  6
CONTINUOUS
 10
4.250840
 20
1.348160
  0
SEQEND
  8
0
  0
SOLID
  8
0
 62
    15
 10
4.228840
 20
1.339360
 11
4.228840
 21
1.757800
 12
4.210800
 22
1.326160
 13
4.210800
 23
1.744160
  0
POLYLINE
  8
0
  6
CONTINUOUS
 66
     1
 40
0.000000
 41
0.000000
  0
VERTEX
  8
0
  6
CONTINUOUS
 10
4.228840
 20
1.339360
  0
VERTEX
  8
0
  6
CONTINUOUS
 10
4.228840
 20
1.757800
  0
VERTEX
  8
0
  6
CONTINUOUS
 10
4.210800
 20
1.744160
  0
VERTEX
  8
0
  6
CONTINUOUS
 10
4.210800
 20
1.326160
  0
VERTEX
  8
0
  6
CONTINUOUS
 10
4.228840
 20
1.339360
  0
SEQEND
  8
0
  0
SOLID
  8
0
 62
    15
 10
4.210800
 20
1.326160
 11
4.210800
 21
1.744160
 12
4.195840
 22
1.309000
 13
4.195840
 23
1.727000
  0
POLYLINE
  8
0
  6
CONTINUOUS
 66
     1
 40
0.000000
 41
0.000000
  0
VERTEX
  8
0
  6
CONTINUOUS
 10
4.210800
 20
1.326160
  0
VERTEX
  8
0
  6
CONTINUOUS
 10
4.210800
 20
1.744160
  0
VERTEX
  8
0
  6
CONTINUOUS
 10
4.195840
 20
1.727000
  0
VERTEX
  8
0
  6
CONTINUOUS
 10
4.195840
 20
1.309000
  0
VERTEX
  8
0
  6
CONTINUOUS
 10
4.210800
 20
1.326160
  0
SEQEND
  8
0
  0
SOLID
  8
0
 62
    15
 10
4.195840
 20
1.309000
 11
4.195840
 21
1.727000
 12
4.183080
 22
1.288320
 13
4.183080
 23
1.706760
  0
POLYLINE
  8
0
  6
CONTINUOUS
 66
     1
 40
0.000000
 41
0.000000
  0
VERTEX
  8
0
  6
CONTINUOUS
 10
4.195840
 20
1.309000
  0
VERTEX
  8
0
  6
CONTINUOUS
 10
4.195840
 20
1.727000
  0
VERTEX
  8
0
  6
CONTINUOUS
 10
4.183080
 20
1.706760
  0
VERTEX
  8
0
  6
CONTINUOUS
 10
4.183080
 20
1.288320
  0
VERTEX
  8
0
  6
CONTINUOUS
 10
4.195840
 20
1.309000
  0
SEQEND
  8
0
  0
SOLID
  8
0
 62
    15
 10
4.183080
 20
1.288320
 11
4.183080
 21
1.706760
 12
4.172080
 22
1.265000
 13
4.171640
 23
1.683440
  0
POLYLINE
  8
0
  6
CONTINUOUS
 66
     1
 40
0.000000
 41
0.000000
  0
VERTEX
  8
0
  6
CONTINUOUS
 10
4.183080
 20
1.288320
  0
VERTEX
  8
0
  6
CONTINUOUS
 10
4.183080
 20
1.706760
  0
VERTEX
  8
0
  6
CONTINUOUS
 10
4.171640
 20
1.683440
  0
VERTEX
  8
0
  6
CONTINUOUS
 10
4.172080
 20
1.265000
  0
VERTEX
  8
0
  6
CONTINUOUS
 10
4.183080
 20
1.288320
  0
SEQEND
  8
0
  0
SOLID
  8
0
 62
    15
 10
4.172080
 20
1.265000
 11
4.171640
 21
1.683440
 12
4.161520
 22
1.240360
 13
4.161080
 23
1.658360
  0
POLYLINE
  8
0
  6
CONTINUOUS
 66
     1
 40
0.000000
 41
0.000000
  0
VERTEX
  8
0
  6
CONTINUOUS
 10
4.172080
 20
1.265000
  0
VERTEX
  8
0
  6
CONTINUOUS
 10
4.171640
 20
1.683440
  0
VERTEX
  8
0
  6
CONTINUOUS
 10
4.161080
 20
1.658360
  0
VERTEX
  8
0
  6
CONTINUOUS
 10
4.161520
 20
1.240360
  0
VERTEX
  8
0
  6
CONTINUOUS
 10
4.172080
 20
1.265000
  0
SEQEND
  8
0
  0
SOLID
  8
0
 62
    15
 10
4.161520
 20
1.240360
 11
4.161080
 21
1.658360
 12
4.150960
 22
1.213960
 13
4.150520
 23
1.631960
  0
POLYLINE
  8
0
  6
CONTINUOUS
 66
     1
 40
0.000000
 41
0.000000
  0
VERTEX
  8
0
  6
CONTINUOUS
 10
4.161520
 20
1.240360
  0
VERTEX
  8
0
  6
CONTINUOUS
 10
4.161080
 20
1.658360
  0
VERTEX
  8
0
  6
CONTINUOUS
 10
4.150520
 20
1.631960
  0
VERTEX
  8
0
  6
CONTINUOUS
 10
4.150960
 20
1.213960
  0
VERTEX
  8
0
  6
CONTINUOUS
 10
4.161520
 20
1.240360
  0
SEQEND
  8
0
  0
SOLID
  8
0
 62
    15
 10
4.150960
 20
1.213960
 11
4.150520
 21
1.631960
 12
4.125880
 22
1.159400
 13
4.125880
 23
1.577840
  0
POLYLINE
  8
0
  6
CONTINUOUS
 66
     1
 40
0.000000
 41
0.000000
  0
VERTEX
  8
0
  6
CONTINUOUS
 10
4.150960
 20
1.213960
  0
VERTEX
  8
0
  6
CONTINUOUS
 10
4.150520
 20
1.631960
  0
VERTEX
  8
0
  6
CONTINUOUS
 10
4.125880
 20
1.577840
  0
VERTEX
  8
0
  6
CONTINUOUS
 10
4.125880
 20
1.159400
  0
VERTEX
  8
0
  6
CONTINUOUS
 10
4.150960
 20
1.213960
  0
SEQEND
  8
0
  0
SOLID
  8
0
 62
    15
 10
4.125880
 20
1.159400
 11
4.125880
 21
1.577840
 12
4.110480
 22
1.132560
 13
4.110040
 23
1.551000
  0
POLYLINE
  8
0
  6
CONTINUOUS
 66
     1
 40
0.000000
 41
0.000000
  0
VERTEX
  8
0
  6
CONTINUOUS
 10
4.125880
 20
1.159400
  0
VERTEX
  8
0
  6
CONTINUOUS
 10
4.125880
 20
1.577840
  0
VERTEX
  8
0
  6
CONTINUOUS
 10
4.110040
 20
1.551000
  0
VERTEX
  8
0
  6
CONTINUOUS
 10
4.110480
 20
1.132560
  0
VERTEX
  8
0
  6
CONTINUOUS
 10
4.125880
 20
1.159400
  0
SEQEND
  8
0
  0
SOLID
  8
0
 62
    15
 10
4.110480
 20
1.132560
 11
4.110040
 21
1.551000
 12
4.091560
 22
1.107040
 13
4.091120
 23
1.525480
  0
POLYLINE
  8
0
  6
CONTINUOUS
 66
     1
 40
0.000000
 41
0.000000
  0
VERTEX
  8
0
  6
CONTINUOUS
 10
4.110480
 20
1.132560
  0
VERTEX
  8
0
  6
CONTINUOUS
 10
4.110040
 20
1.551000
  0
VERTEX
  8
0
  6
CONTINUOUS
 10
4.091120
 20
1.525480
  0
VERTEX
  8
0
  6
CONTINUOUS
 10
4.091560
 20
1.107040
  0
VERTEX
  8
0
  6
CONTINUOUS
 10
4.110480
 20
1.132560
  0
SEQEND
  8
0
  0
SOLID
  8
0
 62
    15
 10
4.091560
 20
1.107040
 11
4.091120
 21
1.525480
 12
4.068240
 22
1.083280
 13
4.068240
 23
1.501720
  0
POLYLINE
  8
0
  6
CONTINUOUS
 66
     1
 40
0.000000
 41
0.000000
  0
VERTEX
  8
0
  6
CONTINUOUS
 10
4.091560
 20
1.107040
  0
VERTEX
  8
0
  6
CONTINUOUS
 10
4.091120
 20
1.525480
  0
VERTEX
  8
0
  6
CONTINUOUS
 10
4.068240
 20
1.501720
  0
VERTEX
  8
0
  6
CONTINUOUS
 10
4.068240
 20
1.083280
  0
VERTEX
  8
0
  6
CONTINUOUS
 10
4.091560
 20
1.107040
  0
SEQEND
  8
0
  0
SOLID
  8
0
 62
    15
 10
4.068240
 20
1.083280
 11
4.068240
 21
1.501720
 12
4.040520
 22
1.062160
 13
4.040520
 23
1.480600
  0
POLYLINE
  8
0
  6
CONTINUOUS
 66
     1
 40
0.000000
 41
0.000000
  0
VERTEX
  8
0
  6
CONTINUOUS
 10
4.068240
 20
1.083280
  0
VERTEX
  8
0
  6
CONTINUOUS
 10
4.068240
 20
1.501720
  0
VERTEX
  8
0
  6
CONTINUOUS
 10
4.040520
 20
1.480600
  0
VERTEX
  8
0
  6
CONTINUOUS
 10
4.040520
 20
1.062160
  0
VERTEX
  8
0
  6
CONTINUOUS
 10
4.068240
 20
1.083280
  0
SEQEND
  8
0
  0
SOLID
  8
0
 62
    15
 10
4.040520
 20
1.062160
 11
4.040520
 21
1.480600
 12
4.007080
 22
1.044120
 13
4.006640
 23
1.462120
  0
POLYLINE
  8
0
  6
CONTINUOUS
 66
     1
 40
0.000000
 41
0.000000
  0
VERTEX
  8
0
  6
CONTINUOUS
 10
4.040520
 20
1.062160
  0
VERTEX
  8
0
  6
CONTINUOUS
 10
4.040520
 20
1.480600
  0
VERTEX
  8
0
  6
CONTINUOUS
 10
4.006640
 20
1.462120
  0
VERTEX
  8
0
  6
CONTINUOUS
 10
4.007080
 20
1.044120
  0
VERTEX
  8
0
  6
CONTINUOUS
 10
4.040520
 20
1.062160
  0
SEQEND
  8
0
  0
SOLID
  8
0
 62
    15
 10
4.007080
 20
1.044120
 11
4.006640
 21
1.462120
 12
3.967040
 22
1.029600
 13
3.966600
 23
1.447600
  0
POLYLINE
  8
0
  6
CONTINUOUS
 66
     1
 40
0.000000
 41
0.000000
  0
VERTEX
  8
0
  6
CONTINUOUS
 10
4.007080
 20
1.044120
  0
VERTEX
  8
0
  6
CONTINUOUS
 10
4.006640
 20
1.462120
  0
VERTEX
  8
0
  6
CONTINUOUS
 10
3.966600
 20
1.447600
  0
VERTEX
  8
0
  6
CONTINUOUS
 10
3.967040
 20
1.029600
  0
VERTEX
  8
0
  6
CONTINUOUS
 10
4.007080
 20
1.044120
  0
SEQEND
  8
0
  0
SOLID
  8
0
 62
    15
 10
3.965720
 20
1.027840
 11
3.965280
 21
1.446280
 12
3.965720
 22
0.876040
 13
3.965280
 23
1.294480
  0
POLYLINE
  8
0
  6
CONTINUOUS
 66
     1
 40
0.000000
 41
0.000000
  0
VERTEX
  8
0
  6
CONTINUOUS
 10
3.965720
 20
1.027840
  0
VERTEX
  8
0
  6
CONTINUOUS
 10
3.965280
 20
1.446280
  0
VERTEX
  8
0
  6
CONTINUOUS
 10
3.965280
 20
1.294480
  0
VERTEX
  8
0
  6
CONTINUOUS
 10
3.965720
 20
0.876040
  0
VERTEX
  8
0
  6
CONTINUOUS
 10
3.965720
 20
1.027840
  0
SEQEND
  8
0
  0
SOLID
  8
0
 62
    15
 10
3.967040
 20
1.029600
 11
3.966600
 21
1.447600
 12
3.965720
 22
1.027840
 13
3.965280
 23
1.446280
  0
POLYLINE
  8
0
  6
CONTINUOUS
 66
     1
 40
0.000000
 41
0.000000
  0
VERTEX
  8
0
  6
CONTINUOUS
 10
3.967040
 20
1.029600
  0
VERTEX
  8
0
  6
CONTINUOUS
 10
3.966600
 20
1.447600
  0
VERTEX
  8
0
  6
CONTINUOUS
 10
3.965280
 20
1.446280
  0
VERTEX
  8
0
  6
CONTINUOUS
 10
3.965720
 20
1.027840
  0
VERTEX
  8
0
  6
CONTINUOUS
 10
3.967040
 20
1.029600
  0
SEQEND
  8
0
  0
SOLID
  8
0
 62
     7
 10
4.742760
 20
0.989560
 11
4.742760
 21
1.407560
 12
4.698760
 22
0.989560
 13
4.698760
 23
1.407560
  0
POLYLINE
  8
0
  6
CONTINUOUS
 66
     1
 40
0.000000
 41
0.000000
  0
VERTEX
  8
0
  6
CONTINUOUS
 10
4.742760
 20
0.989560
  0
VERTEX
  8
0
  6
CONTINUOUS
 10
4.742760
 20
1.407560
  0
VERTEX
  8
0
  6
CONTINUOUS
 10
4.698760
 20
1.407560
  0
VERTEX
  8
0
  6
CONTINUOUS
 10
4.698760
 20
0.989560
  0
VERTEX
  8
0
  6
CONTINUOUS
 10
4.742760
 20
0.989560
  0
SEQEND
  8
0
  0
SOLID
  8
0
 62
     7
 10
4.698760
 20
0.989560
 11
4.698760
 21
1.407560
 12
4.697440
 22
0.989560
 13
4.697440
 23
1.407560
  0
POLYLINE
  8
0
  6
CONTINUOUS
 66
     1
 40
0.000000
 41
0.000000
  0
VERTEX
  8
0
  6
CONTINUOUS
 10
4.698760
 20
0.989560
  0
VERTEX
  8
0
  6
CONTINUOUS
 10
4.698760
 20
1.407560
  0
VERTEX
  8
0
  6
CONTINUOUS
 10
4.697440
 20
1.407560
  0
VERTEX
  8
0
  6
CONTINUOUS
 10
4.697440
 20
0.989560
  0
VERTEX
  8
0
  6
CONTINUOUS
 10
4.698760
 20
0.989560
  0
SEQEND
  8
0
  0
POLYLINE
  8
0
  6
CONTINUOUS
 66
     1
 40
0.000000
 41
0.000000
  0
VERTEX
  8
0
  6
CONTINUOUS
 10
4.697440
 20
0.989560
  0
VERTEX
  8
0
  6
CONTINUOUS
 10
4.682480
 20
0.991760
  0
VERTEX
  8
0
  6
CONTINUOUS
 10
4.667960
 20
0.997920
  0
VERTEX
  8
0
  6
CONTINUOUS
 10
4.654320
 20
1.007160
  0
VERTEX
  8
0
  6
CONTINUOUS
 10
4.641560
 20
1.019040
  0
VERTEX
  8
0
  6
CONTINUOUS
 10
4.617800
 20
1.048960
  0
VERTEX
  8
0
  6
CONTINUOUS
 10
4.597560
 20
1.083280
  0
VERTEX
  8
0
  6
CONTINUOUS
 10
4.580400
 20
1.117600
  0
VERTEX
  8
0
  6
CONTINUOUS
 10
4.572920
 20
1.133000
  0
VERTEX
  8
0
  6
CONTINUOUS
 10
4.566320
 20
1.147080
  0
VERTEX
  8
0
  6
CONTINUOUS
 10
4.560600
 20
1.158960
  0
VERTEX
  8
0
  6
CONTINUOUS
 10
4.555320
 20
1.168200
  0
VERTEX
  8
0
  6
CONTINUOUS
 10
4.551360
 20
1.173920
  0
VERTEX
  8
0
  6
CONTINUOUS
 10
4.548280
 20
1.176120
  0
VERTEX
  8
0
  6
CONTINUOUS
 10
4.511760
 20
1.178760
  0
VERTEX
  8
0
  6
CONTINUOUS
 10
4.497240
 20
1.183600
  0
VERTEX
  8
0
  6
CONTINUOUS
 10
4.488440
 20
1.190640
  0
VERTEX
  8
0
  6
CONTINUOUS
 10
4.477440
 20
1.210880
  0
VERTEX
  8
0
  6
CONTINUOUS
 10
4.467760
 20
1.229800
  0
VERTEX
  8
0
  6
CONTINUOUS
 10
4.449280
 20
1.262800
  0
VERTEX
  8
0
  6
CONTINUOUS
 10
4.431240
 20
1.290960
  0
VERTEX
  8
0
  6
CONTINUOUS
 10
4.411880
 20
1.313840
  0
VERTEX
  8
0
  6
CONTINUOUS
 10
4.389000
 20
1.331440
  0
VERTEX
  8
0
  6
CONTINUOUS
 10
4.359960
 20
1.343320
  0
VERTEX
  8
0
  6
CONTINUOUS
 10
4.342800
 20
1.347720
  0
VERTEX
  8
0
  6
CONTINUOUS
 10
4.323440
 20
1.350360
  0
VERTEX
  8
0
  6
CONTINUOUS
 10
4.301880
 20
1.352120
  0
VERTEX
  8
0
  6
CONTINUOUS
 10
4.277680
 20
1.352120
  0
VERTEX
  8
0
  6
CONTINUOUS
 10
4.250840
 20
1.348160
  0
VERTEX
  8
0
  6
CONTINUOUS
 10
4.228840
 20
1.339360
  0
VERTEX
  8
0
  6
CONTINUOUS
 10
4.210800
 20
1.326160
  0
VERTEX
  8
0
  6
CONTINUOUS
 10
4.195840
 20
1.309000
  0
VERTEX
  8
0
  6
CONTINUOUS
 10
4.183080
 20
1.288320
  0
VERTEX
  8
0
  6
CONTINUOUS
 10
4.172080
 20
1.265000
  0
VERTEX
  8
0
  6
CONTINUOUS
 10
4.161520
 20
1.240360
  0
VERTEX
  8
0
  6
CONTINUOUS
 10
4.150960
 20
1.213960
  0
VERTEX
  8
0
  6
CONTINUOUS
 10
4.125880
 20
1.159400
  0
VERTEX
  8
0
  6
CONTINUOUS
 10
4.110480
 20
1.132560
  0
VERTEX
  8
0
  6
CONTINUOUS
 10
4.091560
 20
1.107040
  0
VERTEX
  8
0
  6
CONTINUOUS
 10
4.068240
 20
1.083280
  0
VERTEX
  8
0
  6
CONTINUOUS
 10
4.040520
 20
1.062160
  0
VERTEX
  8
0
  6
CONTINUOUS
 10
4.007080
 20
1.044120
  0
VERTEX
  8
0
  6
CONTINUOUS
 10
3.967040
 20
1.029600
  0
VERTEX
  8
0
  6
CONTINUOUS
 10
3.965720
 20
1.027840
  0
VERTEX
  8
0
  6
CONTINUOUS
 10
3.965720
 20
0.876040
  0
VERTEX
  8
0
  6
CONTINUOUS
 10
4.742760
 20
0.876040
  0
VERTEX
  8
0
  6
CONTINUOUS
 10
4.742760
 20
0.989560
  0
VERTEX
  8
0
  6
CONTINUOUS
 10
4.698760
 20
0.989560
  0
VERTEX
  8
0
  6
CONTINUOUS
 10
4.697440
 20
0.989560
  0
SEQEND
  8
0
  0
TEXT
  8
0
 10
4.059440
 20
0.645480
 40
0.138068
  1
BA  178
 41
1.000000
  7
SN0
 71
     0
 72
     5
 11
4.648450
 21
0.645480
  0
TEXT
  8
0
 10
3.977160
 20
0.454080
 40
0.138068
  1
1/2" x 3/4"
 41
1.000000
  7
SN0
 71
     0
 72
     5
 11
4.728577
 21
0.454080
  0
TEXT
  8
0
 10
7.432920
 20
3.416160
 40
0.138068
  1
astragal
 41
1.000000
  7
SN0
 71
     0
 72
     5
 11
8.021723
 21
3.416160
  0
TEXT
  8
0
 10
7.589560
 20
3.224320
 40
0.138068
  1
178
 41
1.000000
  7
SN0
 71
     0
 72
     5
 11
7.866169
 21
3.224320
  0
ENDSEC
  0
EOF
