  0
SECTION
  2
HEADER
  9
$ACADVER
  1
AC1006
  9
$EXTMIN
 10
2.709080
 20
0.344080
  9
$EXTMAX
 10
8.076640
 20
3.213320
  9
$LTSCALE
 40
0.044000
  9
$PDMODE
 70
    35
  9
$PDSIZE
 40
0.035200
  0
ENDSEC
  0
SECTION
  2
TABLES
  0
TABLE
  2
LTYPE
 70
     9
  0
LTYPE
  2
CONTINUOUS
 70
    64
  3
Solid line
 72
    65
 73
     0
 40
0.000000
  0
LTYPE
  2
DASHED
 70
    64
  3
__ __ __ __ __ __ __ __ __ __ __ __ __ __ __
 72
    65
 73
     2
 40
0.000330
 49
0.000220
 49
-0.000110
  0
LTYPE
  2
HIDDEN
 70
    64
  3
 _ _ _ _ _ _ _ _ _ _ _ _ _ _ _ _ _ _ _ _ _ _
 72
    65
 73
     2
 40
0.000165
 49
0.000110
 49
-0.000055
  0
LTYPE
  2
CENTER
 70
    64
  3
____ _ ____ _ ____ _ ____ _ ____ _ ____ _ ____
 72
    65
 73
     4
 40
0.000880
 49
0.000550
 49
-0.000110
 49
0.000110
 49
-0.000110
  0
LTYPE
  2
PHANTOM
 70
    64
  3
_____ _ _ _____ _ _ _____ _ _ _____ _ _ ____
 72
    65
 73
     6
 40
0.001100
 49
0.000550
 49
-0.000110
 49
0.000110
 49
-0.000110
 49
0.000110
 49
-0.000110
  0
LTYPE
  2
DOT
 70
    64
  3
...............................................
 72
    65
 73
     2
 40
0.000110
 49
0.000000
 49
-0.000110
  0
LTYPE
  2
DASHDOT
 70
    64
  3
__ . __ . __ . __ . __ . __ . __ . __ . __ . __
 72
    65
 73
     4
 40
0.000440
 49
0.000220
 49
-0.000110
 49
0.000000
 49
-0.000110
  0
LTYPE
  2
BORDER
 70
    64
  3
__ __ . __ __ . __ __ . __ __ . __ __ . __ __
 72
    65
 73
     6
 40
0.000770
 49
0.000220
 49
-0.000110
 49
0.000220
 49
-0.000110
 49
0.000000
 49
-0.000110
  0
LTYPE
  2
DIVIDE
 70
    64
  3
__ . . __ . . __ . . __ . . __ . . __ . . __
 72
    65
 73
     6
 40
0.000550
 49
0.000220
 49
-0.000110
 49
0.000000
 49
-0.000110
 49
0.000000
 49
-0.000110
  0
LTYPE
  2
DOTDOT
 70
    64
  3
 . .  . .  . .  . .  . .  . . 
 72
    65
 73
     5
 40
0.000242
 49
-0.000110
 49
0.000000
 49
-0.000110
 49
0.000000
 49
-0.000110
  0
ENDTAB
  0
TABLE
  2
STYLE
 70
     2
  0
STYLE
 70
     0
  2
SN0
 40
0.000000
 41
0.000440
 50
0.000000
 71
     0
 42
0.000000
  3
ROMAND
  0
STYLE
 70
    68
  2
SV0
 40
0.000000
 41
0.000440
 50
0.000000
 71
     0
 42
0.000000
  3
ROMAND
  0
ENDTAB
  0
TABLE
  2
LAYER
 70
     3
  0
LAYER
  2
FOREGROUND
 70
    64
 62
     7
  6
CONTINUOUS
  0
LAYER
  2
BACKGROUND
 70
    65
 62
    -7
  6
CONTINUOUS
  0
LAYER
  2
0
 70
    64
 62
     7
  6
CONTINUOUS
  0
ENDTAB
  0
ENDSEC
  0
SECTION
  2
ENTITIES
  0
POLYLINE
  8
FOREGROUND
  6
CONTINUOUS
 66
     1
 40
0.000000
 41
0.000000
  0
VERTEX
  8
FOREGROUND
  6
CONTINUOUS
 10
0.000000
 20
3.557400
  0
VERTEX
  8
FOREGROUND
  6
CONTINUOUS
 10
8.499920
 20
3.557400
  0
VERTEX
  8
FOREGROUND
  6
CONTINUOUS
 10
8.499920
 20
-7.442600
  0
VERTEX
  8
FOREGROUND
  6
CONTINUOUS
 10
0.000000
 20
-7.442600
  0
VERTEX
  8
FOREGROUND
  6
CONTINUOUS
 10
0.000000
 20
3.557400
  0
SEQEND
  8
0
  0
POLYLINE
  8
FOREGROUND
  6
CONTINUOUS
 66
     1
 40
0.000000
 41
0.000000
  0
VERTEX
  8
FOREGROUND
  6
CONTINUOUS
 10
0.000000
 20
3.557400
  0
VERTEX
  8
FOREGROUND
  6
CONTINUOUS
 10
8.499920
 20
3.557400
  0
VERTEX
  8
FOREGROUND
  6
CONTINUOUS
 10
8.499920
 20
-7.442600
  0
VERTEX
  8
FOREGROUND
  6
CONTINUOUS
 10
0.000000
 20
-7.442600
  0
VERTEX
  8
FOREGROUND
  6
CONTINUOUS
 10
0.000000
 20
3.557400
  0
SEQEND
  8
0
  0
POLYLINE
  8
0
  6
CONTINUOUS
 66
     1
 40
0.014080
 41
0.014080
  0
VERTEX
  8
0
  6
CONTINUOUS
 10
5.768400
 20
0.797280
  0
VERTEX
  8
0
  6
CONTINUOUS
 10
5.768400
 20
0.953480
  0
VERTEX
  8
0
  6
CONTINUOUS
 10
5.829560
 20
0.954800
  0
VERTEX
  8
0
  6
CONTINUOUS
 10
5.864320
 20
0.958320
  0
VERTEX
  8
0
  6
CONTINUOUS
 10
5.910520
 20
0.968440
  0
VERTEX
  8
0
  6
CONTINUOUS
 10
5.937360
 20
0.978120
  0
VERTEX
  8
0
  6
CONTINUOUS
 10
5.961560
 20
0.990440
  0
VERTEX
  8
0
  6
CONTINUOUS
 10
5.992360
 20
1.014200
  0
VERTEX
  8
0
  6
CONTINUOUS
 10
6.009960
 20
1.033560
  0
VERTEX
  8
0
  6
CONTINUOUS
 10
6.031080
 20
1.067880
  0
VERTEX
  8
0
  6
CONTINUOUS
 10
6.046920
 20
1.109240
  0
VERTEX
  8
0
  6
CONTINUOUS
 10
6.057480
 20
1.157640
  0
VERTEX
  8
0
  6
CONTINUOUS
 10
6.062320
 20
1.194160
  0
VERTEX
  8
0
  6
CONTINUOUS
 10
6.065840
 20
1.255320
  0
VERTEX
  8
0
  6
CONTINUOUS
 10
6.065840
 20
1.277320
  0
VERTEX
  8
0
  6
CONTINUOUS
 10
6.067160
 20
1.281280
  0
VERTEX
  8
0
  6
CONTINUOUS
 10
6.138880
 20
1.281280
  0
VERTEX
  8
0
  6
CONTINUOUS
 10
6.138880
 20
1.489400
  0
VERTEX
  8
0
  6
CONTINUOUS
 10
6.119080
 20
1.496880
  0
VERTEX
  8
0
  6
CONTINUOUS
 10
6.099720
 20
1.507000
  0
VERTEX
  8
0
  6
CONTINUOUS
 10
6.080800
 20
1.519320
  0
VERTEX
  8
0
  6
CONTINUOUS
 10
6.062760
 20
1.533400
  0
VERTEX
  8
0
  6
CONTINUOUS
 10
6.045160
 20
1.549680
  0
VERTEX
  8
0
  6
CONTINUOUS
 10
6.013040
 20
1.587520
  0
VERTEX
  8
0
  6
CONTINUOUS
 10
5.998960
 20
1.608640
  0
VERTEX
  8
0
  6
CONTINUOUS
 10
5.975200
 20
1.654400
  0
VERTEX
  8
0
  6
CONTINUOUS
 10
5.965960
 20
1.678600
  0
VERTEX
  8
0
  6
CONTINUOUS
 10
5.958920
 20
1.703240
  0
VERTEX
  8
0
  6
CONTINUOUS
 10
5.953640
 20
1.728760
  0
VERTEX
  8
0
  6
CONTINUOUS
 10
5.950560
 20
1.754280
  0
VERTEX
  8
0
  6
CONTINUOUS
 10
5.949680
 20
1.780240
  0
VERTEX
  8
0
  6
CONTINUOUS
 10
5.953640
 20
1.818960
  0
VERTEX
  8
0
  6
CONTINUOUS
 10
5.959800
 20
1.844480
  0
VERTEX
  8
0
  6
CONTINUOUS
 10
5.968600
 20
1.869560
  0
VERTEX
  8
0
  6
CONTINUOUS
 10
5.987960
 20
1.906080
  0
VERTEX
  8
0
  6
CONTINUOUS
 10
6.005120
 20
1.929400
  0
VERTEX
  8
0
  6
CONTINUOUS
 10
6.025800
 20
1.951400
  0
VERTEX
  8
0
  6
CONTINUOUS
 10
6.050000
 20
1.972080
  0
VERTEX
  8
0
  6
CONTINUOUS
 10
6.094000
 20
2.000680
  0
VERTEX
  8
0
  6
CONTINUOUS
 10
6.127880
 20
2.017400
  0
VERTEX
  8
0
  6
CONTINUOUS
 10
6.166600
 20
2.032360
  0
VERTEX
  8
0
  6
CONTINUOUS
 10
6.232160
 20
2.050840
  0
VERTEX
  8
0
  6
CONTINUOUS
 10
6.281880
 20
2.060520
  0
VERTEX
  8
0
  6
CONTINUOUS
 10
6.336440
 20
2.067560
  0
VERTEX
  8
0
  6
CONTINUOUS
 10
6.395840
 20
2.071960
  0
VERTEX
  8
0
  6
CONTINUOUS
 10
6.464480
 20
2.073280
  0
VERTEX
  8
0
  6
CONTINUOUS
 10
6.464480
 20
2.240040
  0
VERTEX
  8
0
  6
CONTINUOUS
 10
6.519920
 20
2.241360
  0
VERTEX
  8
0
  6
CONTINUOUS
 10
6.572280
 20
2.246640
  0
VERTEX
  8
0
  6
CONTINUOUS
 10
6.621560
 20
2.255440
  0
VERTEX
  8
0
  6
CONTINUOUS
 10
6.667760
 20
2.266880
  0
VERTEX
  8
0
  6
CONTINUOUS
 10
6.710440
 20
2.281840
  0
VERTEX
  8
0
  6
CONTINUOUS
 10
6.750040
 20
2.299000
  0
VERTEX
  8
0
  6
CONTINUOUS
 10
6.787000
 20
2.319240
  0
VERTEX
  8
0
  6
CONTINUOUS
 10
6.820440
 20
2.341240
  0
VERTEX
  8
0
  6
CONTINUOUS
 10
6.865320
 20
2.378200
  0
VERTEX
  8
0
  6
CONTINUOUS
 10
6.891280
 20
2.404600
  0
VERTEX
  8
0
  6
CONTINUOUS
 10
6.925160
 20
2.447280
  0
VERTEX
  8
0
  6
CONTINUOUS
 10
6.952440
 20
2.492160
  0
VERTEX
  8
0
  6
CONTINUOUS
 10
6.973560
 20
2.538800
  0
VERTEX
  8
0
  6
CONTINUOUS
 10
6.988080
 20
2.586320
  0
VERTEX
  8
0
  6
CONTINUOUS
 10
6.996440
 20
2.633840
  0
VERTEX
  8
0
  6
CONTINUOUS
 10
6.999080
 20
2.680920
  0
VERTEX
  8
0
  6
CONTINUOUS
 10
6.995560
 20
2.726240
  0
VERTEX
  8
0
  6
CONTINUOUS
 10
6.985880
 20
2.768920
  0
VERTEX
  8
0
  6
CONTINUOUS
 10
6.970920
 20
2.808960
  0
VERTEX
  8
0
  6
CONTINUOUS
 10
6.950240
 20
2.844600
  0
VERTEX
  8
0
  6
CONTINUOUS
 10
6.933520
 20
2.866160
  0
VERTEX
  8
0
  6
CONTINUOUS
 10
6.903600
 20
2.893880
  0
VERTEX
  8
0
  6
CONTINUOUS
 10
6.881160
 20
2.908840
  0
VERTEX
  8
0
  6
CONTINUOUS
 10
6.856080
 20
2.921160
  0
VERTEX
  8
0
  6
CONTINUOUS
 10
6.828360
 20
2.930400
  0
VERTEX
  8
0
  6
CONTINUOUS
 10
6.798880
 20
2.936120
  0
VERTEX
  8
0
  6
CONTINUOUS
 10
6.796240
 20
2.938760
  0
VERTEX
  8
0
  6
CONTINUOUS
 10
5.569520
 20
2.938760
  0
VERTEX
  8
0
  6
CONTINUOUS
 10
5.569520
 20
0.793320
  0
VERTEX
  8
0
  6
CONTINUOUS
 10
5.768400
 20
0.793320
  0
VERTEX
  8
0
  6
CONTINUOUS
 10
5.768400
 20
0.805200
  0
VERTEX
  8
0
  6
CONTINUOUS
 10
5.768400
 20
0.797280
  0
SEQEND
  8
0
  0
TEXT
  8
0
 10
3.501960
 20
0.578600
 40
0.138018
  1
BA  177
 41
1.000000
  7
SN0
 71
     0
 72
     5
 11
4.092660
 21
0.578600
  0
TEXT
  8
0
 10
3.226080
 20
0.386760
 40
0.138018
  1
1-7/16" x 2-1/8"
 41
1.000000
  7
SN0
 71
     0
 72
     5
 11
4.366687
 21
0.386760
  0
SOLID
  8
0
 62
    15
 10
3.218160
 20
1.990120
 11
3.975400
 21
1.987480
 12
3.165800
 22
1.950080
 13
3.923040
 23
1.947440
  0
POLYLINE
  8
0
  6
CONTINUOUS
 66
     1
 40
0.000000
 41
0.000000
  0
VERTEX
  8
0
  6
CONTINUOUS
 10
3.218160
 20
1.990120
  0
VERTEX
  8
0
  6
CONTINUOUS
 10
3.975400
 20
1.987480
  0
VERTEX
  8
0
  6
CONTINUOUS
 10
3.923040
 20
1.947440
  0
VERTEX
  8
0
  6
CONTINUOUS
 10
3.165800
 20
1.950080
  0
VERTEX
  8
0
  6
CONTINUOUS
 10
3.218160
 20
1.990120
  0
SEQEND
  8
0
  0
SOLID
  8
0
 62
    15
 10
2.908400
 20
0.792000
 11
3.665200
 21
0.789360
 12
2.709520
 22
0.792000
 13
3.466760
 23
0.789360
  0
POLYLINE
  8
0
  6
CONTINUOUS
 66
     1
 40
0.000000
 41
0.000000
  0
VERTEX
  8
0
  6
CONTINUOUS
 10
2.908400
 20
0.792000
  0
VERTEX
  8
0
  6
CONTINUOUS
 10
3.665200
 20
0.789360
  0
VERTEX
  8
0
  6
CONTINUOUS
 10
3.466760
 20
0.789360
  0
VERTEX
  8
0
  6
CONTINUOUS
 10
2.709520
 20
0.792000
  0
VERTEX
  8
0
  6
CONTINUOUS
 10
2.908400
 20
0.792000
  0
SEQEND
  8
0
  0
SOLID
  8
0
 62
    15
 10
3.936240
 20
2.937440
 11
4.693480
 21
2.934800
 12
3.938880
 22
2.934800
 13
4.696120
 23
2.932160
  0
POLYLINE
  8
0
  6
CONTINUOUS
 66
     1
 40
0.000000
 41
0.000000
  0
VERTEX
  8
0
  6
CONTINUOUS
 10
3.936240
 20
2.937440
  0
VERTEX
  8
0
  6
CONTINUOUS
 10
4.693480
 20
2.934800
  0
VERTEX
  8
0
  6
CONTINUOUS
 10
4.696120
 20
2.932160
  0
VERTEX
  8
0
  6
CONTINUOUS
 10
3.938880
 20
2.934800
  0
VERTEX
  8
0
  6
CONTINUOUS
 10
3.936240
 20
2.937440
  0
SEQEND
  8
0
  0
SOLID
  8
0
 62
    15
 10
3.938880
 20
2.934800
 11
4.696120
 21
2.932160
 12
3.996080
 22
2.919840
 13
4.752880
 23
2.917200
  0
POLYLINE
  8
0
  6
CONTINUOUS
 66
     1
 40
0.000000
 41
0.000000
  0
VERTEX
  8
0
  6
CONTINUOUS
 10
3.938880
 20
2.934800
  0
VERTEX
  8
0
  6
CONTINUOUS
 10
4.696120
 20
2.932160
  0
VERTEX
  8
0
  6
CONTINUOUS
 10
4.752880
 20
2.917200
  0
VERTEX
  8
0
  6
CONTINUOUS
 10
3.996080
 20
2.919840
  0
VERTEX
  8
0
  6
CONTINUOUS
 10
3.938880
 20
2.934800
  0
SEQEND
  8
0
  0
SOLID
  8
0
 62
    15
 10
3.996080
 20
2.919840
 11
4.752880
 21
2.917200
 12
4.043600
 22
2.892120
 13
4.800840
 23
2.889920
  0
POLYLINE
  8
0
  6
CONTINUOUS
 66
     1
 40
0.000000
 41
0.000000
  0
VERTEX
  8
0
  6
CONTINUOUS
 10
3.996080
 20
2.919840
  0
VERTEX
  8
0
  6
CONTINUOUS
 10
4.752880
 20
2.917200
  0
VERTEX
  8
0
  6
CONTINUOUS
 10
4.800840
 20
2.889920
  0
VERTEX
  8
0
  6
CONTINUOUS
 10
4.043600
 20
2.892120
  0
VERTEX
  8
0
  6
CONTINUOUS
 10
3.996080
 20
2.919840
  0
SEQEND
  8
0
  0
SOLID
  8
0
 62
    15
 10
4.043600
 20
2.892120
 11
4.800840
 21
2.889920
 12
4.081880
 22
2.854280
 13
4.839120
 23
2.851640
  0
POLYLINE
  8
0
  6
CONTINUOUS
 66
     1
 40
0.000000
 41
0.000000
  0
VERTEX
  8
0
  6
CONTINUOUS
 10
4.043600
 20
2.892120
  0
VERTEX
  8
0
  6
CONTINUOUS
 10
4.800840
 20
2.889920
  0
VERTEX
  8
0
  6
CONTINUOUS
 10
4.839120
 20
2.851640
  0
VERTEX
  8
0
  6
CONTINUOUS
 10
4.081880
 20
2.854280
  0
VERTEX
  8
0
  6
CONTINUOUS
 10
4.043600
 20
2.892120
  0
SEQEND
  8
0
  0
SOLID
  8
0
 62
    15
 10
4.081880
 20
2.854280
 11
4.839120
 21
2.851640
 12
4.110920
 22
2.807200
 13
4.868160
 23
2.805000
  0
POLYLINE
  8
0
  6
CONTINUOUS
 66
     1
 40
0.000000
 41
0.000000
  0
VERTEX
  8
0
  6
CONTINUOUS
 10
4.081880
 20
2.854280
  0
VERTEX
  8
0
  6
CONTINUOUS
 10
4.839120
 20
2.851640
  0
VERTEX
  8
0
  6
CONTINUOUS
 10
4.868160
 20
2.805000
  0
VERTEX
  8
0
  6
CONTINUOUS
 10
4.110920
 20
2.807200
  0
VERTEX
  8
0
  6
CONTINUOUS
 10
4.081880
 20
2.854280
  0
SEQEND
  8
0
  0
SOLID
  8
0
 62
    15
 10
4.110920
 20
2.807200
 11
4.868160
 21
2.805000
 12
4.129400
 22
2.753520
 13
4.886640
 23
2.750880
  0
POLYLINE
  8
0
  6
CONTINUOUS
 66
     1
 40
0.000000
 41
0.000000
  0
VERTEX
  8
0
  6
CONTINUOUS
 10
4.110920
 20
2.807200
  0
VERTEX
  8
0
  6
CONTINUOUS
 10
4.868160
 20
2.805000
  0
VERTEX
  8
0
  6
CONTINUOUS
 10
4.886640
 20
2.750880
  0
VERTEX
  8
0
  6
CONTINUOUS
 10
4.129400
 20
2.753520
  0
VERTEX
  8
0
  6
CONTINUOUS
 10
4.110920
 20
2.807200
  0
SEQEND
  8
0
  0
SOLID
  8
0
 62
    15
 10
4.129400
 20
2.753520
 11
4.886640
 21
2.750880
 12
4.138200
 22
2.694560
 13
4.895440
 23
2.691920
  0
POLYLINE
  8
0
  6
CONTINUOUS
 66
     1
 40
0.000000
 41
0.000000
  0
VERTEX
  8
0
  6
CONTINUOUS
 10
4.129400
 20
2.753520
  0
VERTEX
  8
0
  6
CONTINUOUS
 10
4.886640
 20
2.750880
  0
VERTEX
  8
0
  6
CONTINUOUS
 10
4.895440
 20
2.691920
  0
VERTEX
  8
0
  6
CONTINUOUS
 10
4.138200
 20
2.694560
  0
VERTEX
  8
0
  6
CONTINUOUS
 10
4.129400
 20
2.753520
  0
SEQEND
  8
0
  0
SOLID
  8
0
 62
    15
 10
4.138200
 20
2.694560
 11
4.895440
 21
2.691920
 12
4.136000
 22
2.632520
 13
4.893240
 23
2.629880
  0
POLYLINE
  8
0
  6
CONTINUOUS
 66
     1
 40
0.000000
 41
0.000000
  0
VERTEX
  8
0
  6
CONTINUOUS
 10
4.138200
 20
2.694560
  0
VERTEX
  8
0
  6
CONTINUOUS
 10
4.895440
 20
2.691920
  0
VERTEX
  8
0
  6
CONTINUOUS
 10
4.893240
 20
2.629880
  0
VERTEX
  8
0
  6
CONTINUOUS
 10
4.136000
 20
2.632520
  0
VERTEX
  8
0
  6
CONTINUOUS
 10
4.138200
 20
2.694560
  0
SEQEND
  8
0
  0
SOLID
  8
0
 62
    15
 10
4.136000
 20
2.632520
 11
4.893240
 21
2.629880
 12
4.123680
 22
2.569160
 13
4.880480
 23
2.566520
  0
POLYLINE
  8
0
  6
CONTINUOUS
 66
     1
 40
0.000000
 41
0.000000
  0
VERTEX
  8
0
  6
CONTINUOUS
 10
4.136000
 20
2.632520
  0
VERTEX
  8
0
  6
CONTINUOUS
 10
4.893240
 20
2.629880
  0
VERTEX
  8
0
  6
CONTINUOUS
 10
4.880480
 20
2.566520
  0
VERTEX
  8
0
  6
CONTINUOUS
 10
4.123680
 20
2.569160
  0
VERTEX
  8
0
  6
CONTINUOUS
 10
4.136000
 20
2.632520
  0
SEQEND
  8
0
  0
SOLID
  8
0
 62
    15
 10
4.123680
 20
2.569160
 11
4.880480
 21
2.566520
 12
4.099920
 22
2.506240
 13
4.857160
 23
2.503600
  0
POLYLINE
  8
0
  6
CONTINUOUS
 66
     1
 40
0.000000
 41
0.000000
  0
VERTEX
  8
0
  6
CONTINUOUS
 10
4.123680
 20
2.569160
  0
VERTEX
  8
0
  6
CONTINUOUS
 10
4.880480
 20
2.566520
  0
VERTEX
  8
0
  6
CONTINUOUS
 10
4.857160
 20
2.503600
  0
VERTEX
  8
0
  6
CONTINUOUS
 10
4.099920
 20
2.506240
  0
VERTEX
  8
0
  6
CONTINUOUS
 10
4.123680
 20
2.569160
  0
SEQEND
  8
0
  0
SOLID
  8
0
 62
    15
 10
4.099920
 20
2.506240
 11
4.857160
 21
2.503600
 12
4.064720
 22
2.445960
 13
4.821960
 23
2.443320
  0
POLYLINE
  8
0
  6
CONTINUOUS
 66
     1
 40
0.000000
 41
0.000000
  0
VERTEX
  8
0
  6
CONTINUOUS
 10
4.099920
 20
2.506240
  0
VERTEX
  8
0
  6
CONTINUOUS
 10
4.857160
 20
2.503600
  0
VERTEX
  8
0
  6
CONTINUOUS
 10
4.821960
 20
2.443320
  0
VERTEX
  8
0
  6
CONTINUOUS
 10
4.064720
 20
2.445960
  0
VERTEX
  8
0
  6
CONTINUOUS
 10
4.099920
 20
2.506240
  0
SEQEND
  8
0
  0
SOLID
  8
0
 62
    15
 10
4.064720
 20
2.445960
 11
4.821960
 21
2.443320
 12
4.018520
 22
2.389640
 13
4.775760
 23
2.387000
  0
POLYLINE
  8
0
  6
CONTINUOUS
 66
     1
 40
0.000000
 41
0.000000
  0
VERTEX
  8
0
  6
CONTINUOUS
 10
4.064720
 20
2.445960
  0
VERTEX
  8
0
  6
CONTINUOUS
 10
4.821960
 20
2.443320
  0
VERTEX
  8
0
  6
CONTINUOUS
 10
4.775760
 20
2.387000
  0
VERTEX
  8
0
  6
CONTINUOUS
 10
4.018520
 20
2.389640
  0
VERTEX
  8
0
  6
CONTINUOUS
 10
4.064720
 20
2.445960
  0
SEQEND
  8
0
  0
SOLID
  8
0
 62
    15
 10
4.018520
 20
2.389640
 11
4.775760
 21
2.387000
 12
3.960440
 22
2.339920
 13
4.717240
 23
2.337280
  0
POLYLINE
  8
0
  6
CONTINUOUS
 66
     1
 40
0.000000
 41
0.000000
  0
VERTEX
  8
0
  6
CONTINUOUS
 10
4.018520
 20
2.389640
  0
VERTEX
  8
0
  6
CONTINUOUS
 10
4.775760
 20
2.387000
  0
VERTEX
  8
0
  6
CONTINUOUS
 10
4.717240
 20
2.337280
  0
VERTEX
  8
0
  6
CONTINUOUS
 10
3.960440
 20
2.339920
  0
VERTEX
  8
0
  6
CONTINUOUS
 10
4.018520
 20
2.389640
  0
SEQEND
  8
0
  0
SOLID
  8
0
 62
    15
 10
3.960440
 20
2.339920
 11
4.717240
 21
2.337280
 12
3.890040
 22
2.297680
 13
4.647280
 23
2.295040
  0
POLYLINE
  8
0
  6
CONTINUOUS
 66
     1
 40
0.000000
 41
0.000000
  0
VERTEX
  8
0
  6
CONTINUOUS
 10
3.960440
 20
2.339920
  0
VERTEX
  8
0
  6
CONTINUOUS
 10
4.717240
 20
2.337280
  0
VERTEX
  8
0
  6
CONTINUOUS
 10
4.647280
 20
2.295040
  0
VERTEX
  8
0
  6
CONTINUOUS
 10
3.890040
 20
2.297680
  0
VERTEX
  8
0
  6
CONTINUOUS
 10
3.960440
 20
2.339920
  0
SEQEND
  8
0
  0
SOLID
  8
0
 62
    15
 10
3.890040
 20
2.297680
 11
4.647280
 21
2.295040
 12
3.807320
 22
2.265560
 13
4.564560
 23
2.262920
  0
POLYLINE
  8
0
  6
CONTINUOUS
 66
     1
 40
0.000000
 41
0.000000
  0
VERTEX
  8
0
  6
CONTINUOUS
 10
3.890040
 20
2.297680
  0
VERTEX
  8
0
  6
CONTINUOUS
 10
4.647280
 20
2.295040
  0
VERTEX
  8
0
  6
CONTINUOUS
 10
4.564560
 20
2.262920
  0
VERTEX
  8
0
  6
CONTINUOUS
 10
3.807320
 20
2.265560
  0
VERTEX
  8
0
  6
CONTINUOUS
 10
3.890040
 20
2.297680
  0
SEQEND
  8
0
  0
SOLID
  8
0
 62
    15
 10
3.807320
 20
2.265560
 11
4.564560
 21
2.262920
 12
3.712280
 22
2.245320
 13
4.469520
 23
2.242680
  0
POLYLINE
  8
0
  6
CONTINUOUS
 66
     1
 40
0.000000
 41
0.000000
  0
VERTEX
  8
0
  6
CONTINUOUS
 10
3.807320
 20
2.265560
  0
VERTEX
  8
0
  6
CONTINUOUS
 10
4.564560
 20
2.262920
  0
VERTEX
  8
0
  6
CONTINUOUS
 10
4.469520
 20
2.242680
  0
VERTEX
  8
0
  6
CONTINUOUS
 10
3.712280
 20
2.245320
  0
VERTEX
  8
0
  6
CONTINUOUS
 10
3.807320
 20
2.265560
  0
SEQEND
  8
0
  0
SOLID
  8
0
 62
    15
 10
3.712280
 20
2.245320
 11
4.469520
 21
2.242680
 12
3.604040
 22
2.238720
 13
4.361280
 23
2.236080
  0
POLYLINE
  8
0
  6
CONTINUOUS
 66
     1
 40
0.000000
 41
0.000000
  0
VERTEX
  8
0
  6
CONTINUOUS
 10
3.712280
 20
2.245320
  0
VERTEX
  8
0
  6
CONTINUOUS
 10
4.469520
 20
2.242680
  0
VERTEX
  8
0
  6
CONTINUOUS
 10
4.361280
 20
2.236080
  0
VERTEX
  8
0
  6
CONTINUOUS
 10
3.604040
 20
2.238720
  0
VERTEX
  8
0
  6
CONTINUOUS
 10
3.712280
 20
2.245320
  0
SEQEND
  8
0
  0
SOLID
  8
0
 62
    15
 10
3.604040
 20
2.238720
 11
4.361280
 21
2.236080
 12
3.604040
 22
2.071960
 13
4.361280
 23
2.069320
  0
POLYLINE
  8
0
  6
CONTINUOUS
 66
     1
 40
0.000000
 41
0.000000
  0
VERTEX
  8
0
  6
CONTINUOUS
 10
3.604040
 20
2.238720
  0
VERTEX
  8
0
  6
CONTINUOUS
 10
4.361280
 20
2.236080
  0
VERTEX
  8
0
  6
CONTINUOUS
 10
4.361280
 20
2.069320
  0
VERTEX
  8
0
  6
CONTINUOUS
 10
3.604040
 20
2.071960
  0
VERTEX
  8
0
  6
CONTINUOUS
 10
3.604040
 20
2.238720
  0
SEQEND
  8
0
  0
SOLID
  8
0
 62
    15
 10
3.604040
 20
2.071960
 11
4.361280
 21
2.069320
 12
3.600080
 22
2.071960
 13
4.357320
 23
2.069320
  0
POLYLINE
  8
0
  6
CONTINUOUS
 66
     1
 40
0.000000
 41
0.000000
  0
VERTEX
  8
0
  6
CONTINUOUS
 10
3.604040
 20
2.071960
  0
VERTEX
  8
0
  6
CONTINUOUS
 10
4.361280
 20
2.069320
  0
VERTEX
  8
0
  6
CONTINUOUS
 10
4.357320
 20
2.069320
  0
VERTEX
  8
0
  6
CONTINUOUS
 10
3.600080
 20
2.071960
  0
VERTEX
  8
0
  6
CONTINUOUS
 10
3.604040
 20
2.071960
  0
SEQEND
  8
0
  0
SOLID
  8
0
 62
    15
 10
3.600080
 20
2.071960
 11
4.357320
 21
2.069320
 12
3.476440
 22
2.066240
 13
4.233240
 23
2.063600
  0
POLYLINE
  8
0
  6
CONTINUOUS
 66
     1
 40
0.000000
 41
0.000000
  0
VERTEX
  8
0
  6
CONTINUOUS
 10
3.600080
 20
2.071960
  0
VERTEX
  8
0
  6
CONTINUOUS
 10
4.357320
 20
2.069320
  0
VERTEX
  8
0
  6
CONTINUOUS
 10
4.233240
 20
2.063600
  0
VERTEX
  8
0
  6
CONTINUOUS
 10
3.476440
 20
2.066240
  0
VERTEX
  8
0
  6
CONTINUOUS
 10
3.600080
 20
2.071960
  0
SEQEND
  8
0
  0
SOLID
  8
0
 62
    15
 10
3.476440
 20
2.066240
 11
4.233240
 21
2.063600
 12
3.372160
 22
2.049520
 13
4.129400
 23
2.046880
  0
POLYLINE
  8
0
  6
CONTINUOUS
 66
     1
 40
0.000000
 41
0.000000
  0
VERTEX
  8
0
  6
CONTINUOUS
 10
3.476440
 20
2.066240
  0
VERTEX
  8
0
  6
CONTINUOUS
 10
4.233240
 20
2.063600
  0
VERTEX
  8
0
  6
CONTINUOUS
 10
4.129400
 20
2.046880
  0
VERTEX
  8
0
  6
CONTINUOUS
 10
3.372160
 20
2.049520
  0
VERTEX
  8
0
  6
CONTINUOUS
 10
3.476440
 20
2.066240
  0
SEQEND
  8
0
  0
SOLID
  8
0
 62
    15
 10
3.372160
 20
2.049520
 11
4.129400
 21
2.046880
 12
3.286360
 22
2.024000
 13
4.043600
 23
2.021360
  0
POLYLINE
  8
0
  6
CONTINUOUS
 66
     1
 40
0.000000
 41
0.000000
  0
VERTEX
  8
0
  6
CONTINUOUS
 10
3.372160
 20
2.049520
  0
VERTEX
  8
0
  6
CONTINUOUS
 10
4.129400
 20
2.046880
  0
VERTEX
  8
0
  6
CONTINUOUS
 10
4.043600
 20
2.021360
  0
VERTEX
  8
0
  6
CONTINUOUS
 10
3.286360
 20
2.024000
  0
VERTEX
  8
0
  6
CONTINUOUS
 10
3.372160
 20
2.049520
  0
SEQEND
  8
0
  0
SOLID
  8
0
 62
    15
 10
3.286360
 20
2.024000
 11
4.043600
 21
2.021360
 12
3.218160
 22
1.990120
 13
3.975400
 23
1.987480
  0
POLYLINE
  8
0
  6
CONTINUOUS
 66
     1
 40
0.000000
 41
0.000000
  0
VERTEX
  8
0
  6
CONTINUOUS
 10
3.286360
 20
2.024000
  0
VERTEX
  8
0
  6
CONTINUOUS
 10
4.043600
 20
2.021360
  0
VERTEX
  8
0
  6
CONTINUOUS
 10
3.975400
 20
1.987480
  0
VERTEX
  8
0
  6
CONTINUOUS
 10
3.218160
 20
1.990120
  0
VERTEX
  8
0
  6
CONTINUOUS
 10
3.286360
 20
2.024000
  0
SEQEND
  8
0
  0
SOLID
  8
0
 62
    15
 10
2.908400
 20
0.803880
 11
3.665200
 21
0.801240
 12
2.908400
 22
0.792000
 13
3.665200
 23
0.789360
  0
POLYLINE
  8
0
  6
CONTINUOUS
 66
     1
 40
0.000000
 41
0.000000
  0
VERTEX
  8
0
  6
CONTINUOUS
 10
2.908400
 20
0.803880
  0
VERTEX
  8
0
  6
CONTINUOUS
 10
3.665200
 20
0.801240
  0
VERTEX
  8
0
  6
CONTINUOUS
 10
3.665200
 20
0.789360
  0
VERTEX
  8
0
  6
CONTINUOUS
 10
2.908400
 20
0.792000
  0
VERTEX
  8
0
  6
CONTINUOUS
 10
2.908400
 20
0.803880
  0
SEQEND
  8
0
  0
SOLID
  8
0
 62
    15
 10
3.165800
 20
1.950080
 11
3.923040
 21
1.947440
 12
3.127960
 22
1.904760
 13
3.885200
 23
1.902120
  0
POLYLINE
  8
0
  6
CONTINUOUS
 66
     1
 40
0.000000
 41
0.000000
  0
VERTEX
  8
0
  6
CONTINUOUS
 10
3.165800
 20
1.950080
  0
VERTEX
  8
0
  6
CONTINUOUS
 10
3.923040
 20
1.947440
  0
VERTEX
  8
0
  6
CONTINUOUS
 10
3.885200
 20
1.902120
  0
VERTEX
  8
0
  6
CONTINUOUS
 10
3.127960
 20
1.904760
  0
VERTEX
  8
0
  6
CONTINUOUS
 10
3.165800
 20
1.950080
  0
SEQEND
  8
0
  0
SOLID
  8
0
 62
    15
 10
3.127960
 20
1.904760
 11
3.885200
 21
1.902120
 12
3.103760
 22
1.855920
 13
3.861000
 23
1.853280
  0
POLYLINE
  8
0
  6
CONTINUOUS
 66
     1
 40
0.000000
 41
0.000000
  0
VERTEX
  8
0
  6
CONTINUOUS
 10
3.127960
 20
1.904760
  0
VERTEX
  8
0
  6
CONTINUOUS
 10
3.885200
 20
1.902120
  0
VERTEX
  8
0
  6
CONTINUOUS
 10
3.861000
 20
1.853280
  0
VERTEX
  8
0
  6
CONTINUOUS
 10
3.103760
 20
1.855920
  0
VERTEX
  8
0
  6
CONTINUOUS
 10
3.127960
 20
1.904760
  0
SEQEND
  8
0
  0
SOLID
  8
0
 62
    15
 10
3.103760
 20
1.855920
 11
3.861000
 21
1.853280
 12
3.091440
 22
1.804880
 13
3.848680
 23
1.802240
  0
POLYLINE
  8
0
  6
CONTINUOUS
 66
     1
 40
0.000000
 41
0.000000
  0
VERTEX
  8
0
  6
CONTINUOUS
 10
3.103760
 20
1.855920
  0
VERTEX
  8
0
  6
CONTINUOUS
 10
3.861000
 20
1.853280
  0
VERTEX
  8
0
  6
CONTINUOUS
 10
3.848680
 20
1.802240
  0
VERTEX
  8
0
  6
CONTINUOUS
 10
3.091440
 20
1.804880
  0
VERTEX
  8
0
  6
CONTINUOUS
 10
3.103760
 20
1.855920
  0
SEQEND
  8
0
  0
SOLID
  8
0
 62
    15
 10
3.091440
 20
1.804880
 11
3.848680
 21
1.802240
 12
3.090120
 22
1.753400
 13
3.847360
 23
1.750760
  0
POLYLINE
  8
0
  6
CONTINUOUS
 66
     1
 40
0.000000
 41
0.000000
  0
VERTEX
  8
0
  6
CONTINUOUS
 10
3.091440
 20
1.804880
  0
VERTEX
  8
0
  6
CONTINUOUS
 10
3.848680
 20
1.802240
  0
VERTEX
  8
0
  6
CONTINUOUS
 10
3.847360
 20
1.750760
  0
VERTEX
  8
0
  6
CONTINUOUS
 10
3.090120
 20
1.753400
  0
VERTEX
  8
0
  6
CONTINUOUS
 10
3.091440
 20
1.804880
  0
SEQEND
  8
0
  0
SOLID
  8
0
 62
    15
 10
3.090120
 20
1.753400
 11
3.847360
 21
1.750760
 12
3.098480
 22
1.701920
 13
3.855720
 23
1.699720
  0
POLYLINE
  8
0
  6
CONTINUOUS
 66
     1
 40
0.000000
 41
0.000000
  0
VERTEX
  8
0
  6
CONTINUOUS
 10
3.090120
 20
1.753400
  0
VERTEX
  8
0
  6
CONTINUOUS
 10
3.847360
 20
1.750760
  0
VERTEX
  8
0
  6
CONTINUOUS
 10
3.855720
 20
1.699720
  0
VERTEX
  8
0
  6
CONTINUOUS
 10
3.098480
 20
1.701920
  0
VERTEX
  8
0
  6
CONTINUOUS
 10
3.090120
 20
1.753400
  0
SEQEND
  8
0
  0
SOLID
  8
0
 62
    15
 10
3.098480
 20
1.701920
 11
3.855720
 21
1.699720
 12
3.115200
 22
1.653080
 13
3.872440
 23
1.650440
  0
POLYLINE
  8
0
  6
CONTINUOUS
 66
     1
 40
0.000000
 41
0.000000
  0
VERTEX
  8
0
  6
CONTINUOUS
 10
3.098480
 20
1.701920
  0
VERTEX
  8
0
  6
CONTINUOUS
 10
3.855720
 20
1.699720
  0
VERTEX
  8
0
  6
CONTINUOUS
 10
3.872440
 20
1.650440
  0
VERTEX
  8
0
  6
CONTINUOUS
 10
3.115200
 20
1.653080
  0
VERTEX
  8
0
  6
CONTINUOUS
 10
3.098480
 20
1.701920
  0
SEQEND
  8
0
  0
SOLID
  8
0
 62
    15
 10
3.115200
 20
1.653080
 11
3.872440
 21
1.650440
 12
3.138960
 22
1.607320
 13
3.896200
 23
1.604680
  0
POLYLINE
  8
0
  6
CONTINUOUS
 66
     1
 40
0.000000
 41
0.000000
  0
VERTEX
  8
0
  6
CONTINUOUS
 10
3.115200
 20
1.653080
  0
VERTEX
  8
0
  6
CONTINUOUS
 10
3.872440
 20
1.650440
  0
VERTEX
  8
0
  6
CONTINUOUS
 10
3.896200
 20
1.604680
  0
VERTEX
  8
0
  6
CONTINUOUS
 10
3.138960
 20
1.607320
  0
VERTEX
  8
0
  6
CONTINUOUS
 10
3.115200
 20
1.653080
  0
SEQEND
  8
0
  0
SOLID
  8
0
 62
    15
 10
3.138960
 20
1.607320
 11
3.896200
 21
1.604680
 12
3.168440
 22
1.566840
 13
3.925680
 23
1.564200
  0
POLYLINE
  8
0
  6
CONTINUOUS
 66
     1
 40
0.000000
 41
0.000000
  0
VERTEX
  8
0
  6
CONTINUOUS
 10
3.138960
 20
1.607320
  0
VERTEX
  8
0
  6
CONTINUOUS
 10
3.896200
 20
1.604680
  0
VERTEX
  8
0
  6
CONTINUOUS
 10
3.925680
 20
1.564200
  0
VERTEX
  8
0
  6
CONTINUOUS
 10
3.168440
 20
1.566840
  0
VERTEX
  8
0
  6
CONTINUOUS
 10
3.138960
 20
1.607320
  0
SEQEND
  8
0
  0
SOLID
  8
0
 62
    15
 10
3.168440
 20
1.566840
 11
3.925680
 21
1.564200
 12
3.202320
 22
1.532080
 13
3.959560
 23
1.529880
  0
POLYLINE
  8
0
  6
CONTINUOUS
 66
     1
 40
0.000000
 41
0.000000
  0
VERTEX
  8
0
  6
CONTINUOUS
 10
3.168440
 20
1.566840
  0
VERTEX
  8
0
  6
CONTINUOUS
 10
3.925680
 20
1.564200
  0
VERTEX
  8
0
  6
CONTINUOUS
 10
3.959560
 20
1.529880
  0
VERTEX
  8
0
  6
CONTINUOUS
 10
3.202320
 20
1.532080
  0
VERTEX
  8
0
  6
CONTINUOUS
 10
3.168440
 20
1.566840
  0
SEQEND
  8
0
  0
SOLID
  8
0
 62
    15
 10
3.202320
 20
1.532080
 11
3.959560
 21
1.529880
 12
3.239720
 22
1.505680
 13
3.996960
 23
1.503040
  0
POLYLINE
  8
0
  6
CONTINUOUS
 66
     1
 40
0.000000
 41
0.000000
  0
VERTEX
  8
0
  6
CONTINUOUS
 10
3.202320
 20
1.532080
  0
VERTEX
  8
0
  6
CONTINUOUS
 10
3.959560
 20
1.529880
  0
VERTEX
  8
0
  6
CONTINUOUS
 10
3.996960
 20
1.503040
  0
VERTEX
  8
0
  6
CONTINUOUS
 10
3.239720
 20
1.505680
  0
VERTEX
  8
0
  6
CONTINUOUS
 10
3.202320
 20
1.532080
  0
SEQEND
  8
0
  0
SOLID
  8
0
 62
    15
 10
3.239720
 20
1.505680
 11
3.996960
 21
1.503040
 12
3.278880
 22
1.488080
 13
4.036120
 23
1.485440
  0
POLYLINE
  8
0
  6
CONTINUOUS
 66
     1
 40
0.000000
 41
0.000000
  0
VERTEX
  8
0
  6
CONTINUOUS
 10
3.239720
 20
1.505680
  0
VERTEX
  8
0
  6
CONTINUOUS
 10
3.996960
 20
1.503040
  0
VERTEX
  8
0
  6
CONTINUOUS
 10
4.036120
 20
1.485440
  0
VERTEX
  8
0
  6
CONTINUOUS
 10
3.278880
 20
1.488080
  0
VERTEX
  8
0
  6
CONTINUOUS
 10
3.239720
 20
1.505680
  0
SEQEND
  8
0
  0
SOLID
  8
0
 62
    15
 10
3.206720
 20
1.279960
 11
3.963960
 21
1.277320
 12
3.205400
 22
1.276000
 13
3.962640
 23
1.273360
  0
POLYLINE
  8
0
  6
CONTINUOUS
 66
     1
 40
0.000000
 41
0.000000
  0
VERTEX
  8
0
  6
CONTINUOUS
 10
3.206720
 20
1.279960
  0
VERTEX
  8
0
  6
CONTINUOUS
 10
3.963960
 20
1.277320
  0
VERTEX
  8
0
  6
CONTINUOUS
 10
3.962640
 20
1.273360
  0
VERTEX
  8
0
  6
CONTINUOUS
 10
3.205400
 20
1.276000
  0
VERTEX
  8
0
  6
CONTINUOUS
 10
3.206720
 20
1.279960
  0
SEQEND
  8
0
  0
SOLID
  8
0
 62
    15
 10
3.278880
 20
1.279960
 11
4.036120
 21
1.277320
 12
3.206720
 22
1.279960
 13
3.963960
 23
1.277320
  0
POLYLINE
  8
0
  6
CONTINUOUS
 66
     1
 40
0.000000
 41
0.000000
  0
VERTEX
  8
0
  6
CONTINUOUS
 10
3.278880
 20
1.279960
  0
VERTEX
  8
0
  6
CONTINUOUS
 10
4.036120
 20
1.277320
  0
VERTEX
  8
0
  6
CONTINUOUS
 10
3.963960
 20
1.277320
  0
VERTEX
  8
0
  6
CONTINUOUS
 10
3.206720
 20
1.279960
  0
VERTEX
  8
0
  6
CONTINUOUS
 10
3.278880
 20
1.279960
  0
SEQEND
  8
0
  0
SOLID
  8
0
 62
    15
 10
3.278880
 20
1.488080
 11
4.036120
 21
1.485440
 12
3.278880
 22
1.279960
 13
4.036120
 23
1.277320
  0
POLYLINE
  8
0
  6
CONTINUOUS
 66
     1
 40
0.000000
 41
0.000000
  0
VERTEX
  8
0
  6
CONTINUOUS
 10
3.278880
 20
1.488080
  0
VERTEX
  8
0
  6
CONTINUOUS
 10
4.036120
 20
1.485440
  0
VERTEX
  8
0
  6
CONTINUOUS
 10
4.036120
 20
1.277320
  0
VERTEX
  8
0
  6
CONTINUOUS
 10
3.278880
 20
1.279960
  0
VERTEX
  8
0
  6
CONTINUOUS
 10
3.278880
 20
1.488080
  0
SEQEND
  8
0
  0
SOLID
  8
0
 62
    15
 10
3.205400
 20
1.276000
 11
3.962640
 21
1.273360
 12
3.201880
 22
1.192840
 13
3.959120
 23
1.190200
  0
POLYLINE
  8
0
  6
CONTINUOUS
 66
     1
 40
0.000000
 41
0.000000
  0
VERTEX
  8
0
  6
CONTINUOUS
 10
3.205400
 20
1.276000
  0
VERTEX
  8
0
  6
CONTINUOUS
 10
3.962640
 20
1.273360
  0
VERTEX
  8
0
  6
CONTINUOUS
 10
3.959120
 20
1.190200
  0
VERTEX
  8
0
  6
CONTINUOUS
 10
3.201880
 20
1.192840
  0
VERTEX
  8
0
  6
CONTINUOUS
 10
3.205400
 20
1.276000
  0
SEQEND
  8
0
  0
SOLID
  8
0
 62
    15
 10
3.201880
 20
1.192840
 11
3.959120
 21
1.190200
 12
3.190440
 22
1.122880
 13
3.947680
 23
1.120240
  0
POLYLINE
  8
0
  6
CONTINUOUS
 66
     1
 40
0.000000
 41
0.000000
  0
VERTEX
  8
0
  6
CONTINUOUS
 10
3.201880
 20
1.192840
  0
VERTEX
  8
0
  6
CONTINUOUS
 10
3.959120
 20
1.190200
  0
VERTEX
  8
0
  6
CONTINUOUS
 10
3.947680
 20
1.120240
  0
VERTEX
  8
0
  6
CONTINUOUS
 10
3.190440
 20
1.122880
  0
VERTEX
  8
0
  6
CONTINUOUS
 10
3.201880
 20
1.192840
  0
SEQEND
  8
0
  0
SOLID
  8
0
 62
    15
 10
3.190440
 20
1.122880
 11
3.947680
 21
1.120240
 12
3.170640
 22
1.066560
 13
3.927880
 23
1.063920
  0
POLYLINE
  8
0
  6
CONTINUOUS
 66
     1
 40
0.000000
 41
0.000000
  0
VERTEX
  8
0
  6
CONTINUOUS
 10
3.190440
 20
1.122880
  0
VERTEX
  8
0
  6
CONTINUOUS
 10
3.947680
 20
1.120240
  0
VERTEX
  8
0
  6
CONTINUOUS
 10
3.927880
 20
1.063920
  0
VERTEX
  8
0
  6
CONTINUOUS
 10
3.170640
 20
1.066560
  0
VERTEX
  8
0
  6
CONTINUOUS
 10
3.190440
 20
1.122880
  0
SEQEND
  8
0
  0
SOLID
  8
0
 62
    15
 10
3.170640
 20
1.066560
 11
3.927880
 21
1.063920
 12
3.141160
 22
1.022120
 13
3.898400
 23
1.019480
  0
POLYLINE
  8
0
  6
CONTINUOUS
 66
     1
 40
0.000000
 41
0.000000
  0
VERTEX
  8
0
  6
CONTINUOUS
 10
3.170640
 20
1.066560
  0
VERTEX
  8
0
  6
CONTINUOUS
 10
3.927880
 20
1.063920
  0
VERTEX
  8
0
  6
CONTINUOUS
 10
3.898400
 20
1.019480
  0
VERTEX
  8
0
  6
CONTINUOUS
 10
3.141160
 20
1.022120
  0
VERTEX
  8
0
  6
CONTINUOUS
 10
3.170640
 20
1.066560
  0
SEQEND
  8
0
  0
SOLID
  8
0
 62
    15
 10
3.141160
 20
1.022120
 11
3.898400
 21
1.019480
 12
3.101560
 22
0.989120
 13
3.858360
 23
0.986480
  0
POLYLINE
  8
0
  6
CONTINUOUS
 66
     1
 40
0.000000
 41
0.000000
  0
VERTEX
  8
0
  6
CONTINUOUS
 10
3.141160
 20
1.022120
  0
VERTEX
  8
0
  6
CONTINUOUS
 10
3.898400
 20
1.019480
  0
VERTEX
  8
0
  6
CONTINUOUS
 10
3.858360
 20
0.986480
  0
VERTEX
  8
0
  6
CONTINUOUS
 10
3.101560
 20
0.989120
  0
VERTEX
  8
0
  6
CONTINUOUS
 10
3.141160
 20
1.022120
  0
SEQEND
  8
0
  0
SOLID
  8
0
 62
    15
 10
3.101560
 20
0.989120
 11
3.858360
 21
0.986480
 12
3.050080
 22
0.967120
 13
3.807320
 23
0.964480
  0
POLYLINE
  8
0
  6
CONTINUOUS
 66
     1
 40
0.000000
 41
0.000000
  0
VERTEX
  8
0
  6
CONTINUOUS
 10
3.101560
 20
0.989120
  0
VERTEX
  8
0
  6
CONTINUOUS
 10
3.858360
 20
0.986480
  0
VERTEX
  8
0
  6
CONTINUOUS
 10
3.807320
 20
0.964480
  0
VERTEX
  8
0
  6
CONTINUOUS
 10
3.050080
 20
0.967120
  0
VERTEX
  8
0
  6
CONTINUOUS
 10
3.101560
 20
0.989120
  0
SEQEND
  8
0
  0
SOLID
  8
0
 62
    15
 10
2.987160
 20
0.954800
 11
3.744400
 21
0.952160
 12
2.911040
 22
0.952160
 13
3.667840
 23
0.949520
  0
POLYLINE
  8
0
  6
CONTINUOUS
 66
     1
 40
0.000000
 41
0.000000
  0
VERTEX
  8
0
  6
CONTINUOUS
 10
2.987160
 20
0.954800
  0
VERTEX
  8
0
  6
CONTINUOUS
 10
3.744400
 20
0.952160
  0
VERTEX
  8
0
  6
CONTINUOUS
 10
3.667840
 20
0.949520
  0
VERTEX
  8
0
  6
CONTINUOUS
 10
2.911040
 20
0.952160
  0
VERTEX
  8
0
  6
CONTINUOUS
 10
2.987160
 20
0.954800
  0
SEQEND
  8
0
  0
SOLID
  8
0
 62
    15
 10
3.050080
 20
0.967120
 11
3.807320
 21
0.964480
 12
2.987160
 22
0.954800
 13
3.744400
 23
0.952160
  0
POLYLINE
  8
0
  6
CONTINUOUS
 66
     1
 40
0.000000
 41
0.000000
  0
VERTEX
  8
0
  6
CONTINUOUS
 10
3.050080
 20
0.967120
  0
VERTEX
  8
0
  6
CONTINUOUS
 10
3.807320
 20
0.964480
  0
VERTEX
  8
0
  6
CONTINUOUS
 10
3.744400
 20
0.952160
  0
VERTEX
  8
0
  6
CONTINUOUS
 10
2.987160
 20
0.954800
  0
VERTEX
  8
0
  6
CONTINUOUS
 10
3.050080
 20
0.967120
  0
SEQEND
  8
0
  0
SOLID
  8
0
 62
    15
 10
2.908400
 20
0.952160
 11
3.665200
 21
0.949520
 12
2.908400
 22
0.795960
 13
3.665200
 23
0.793320
  0
POLYLINE
  8
0
  6
CONTINUOUS
 66
     1
 40
0.000000
 41
0.000000
  0
VERTEX
  8
0
  6
CONTINUOUS
 10
2.908400
 20
0.952160
  0
VERTEX
  8
0
  6
CONTINUOUS
 10
3.665200
 20
0.949520
  0
VERTEX
  8
0
  6
CONTINUOUS
 10
3.665200
 20
0.793320
  0
VERTEX
  8
0
  6
CONTINUOUS
 10
2.908400
 20
0.795960
  0
VERTEX
  8
0
  6
CONTINUOUS
 10
2.908400
 20
0.952160
  0
SEQEND
  8
0
  0
SOLID
  8
0
 62
    15
 10
2.911040
 20
0.952160
 11
3.667840
 21
0.949520
 12
2.908400
 22
0.952160
 13
3.665200
 23
0.949520
  0
POLYLINE
  8
0
  6
CONTINUOUS
 66
     1
 40
0.000000
 41
0.000000
  0
VERTEX
  8
0
  6
CONTINUOUS
 10
2.911040
 20
0.952160
  0
VERTEX
  8
0
  6
CONTINUOUS
 10
3.667840
 20
0.949520
  0
VERTEX
  8
0
  6
CONTINUOUS
 10
3.665200
 20
0.949520
  0
VERTEX
  8
0
  6
CONTINUOUS
 10
2.908400
 20
0.952160
  0
VERTEX
  8
0
  6
CONTINUOUS
 10
2.911040
 20
0.952160
  0
SEQEND
  8
0
  0
POLYLINE
  8
0
  6
CONTINUOUS
 66
     1
 40
0.000000
 41
0.000000
  0
VERTEX
  8
0
  6
CONTINUOUS
 10
2.908400
 20
0.803880
  0
VERTEX
  8
0
  6
CONTINUOUS
 10
2.908400
 20
0.792000
  0
VERTEX
  8
0
  6
CONTINUOUS
 10
2.709520
 20
0.792000
  0
VERTEX
  8
0
  6
CONTINUOUS
 10
2.709520
 20
2.937440
  0
VERTEX
  8
0
  6
CONTINUOUS
 10
3.936240
 20
2.937440
  0
VERTEX
  8
0
  6
CONTINUOUS
 10
3.938880
 20
2.934800
  0
VERTEX
  8
0
  6
CONTINUOUS
 10
3.996080
 20
2.919840
  0
VERTEX
  8
0
  6
CONTINUOUS
 10
4.043600
 20
2.892120
  0
VERTEX
  8
0
  6
CONTINUOUS
 10
4.081880
 20
2.854280
  0
VERTEX
  8
0
  6
CONTINUOUS
 10
4.110920
 20
2.807200
  0
VERTEX
  8
0
  6
CONTINUOUS
 10
4.129400
 20
2.753520
  0
VERTEX
  8
0
  6
CONTINUOUS
 10
4.138200
 20
2.694560
  0
VERTEX
  8
0
  6
CONTINUOUS
 10
4.136000
 20
2.632520
  0
VERTEX
  8
0
  6
CONTINUOUS
 10
4.123680
 20
2.569160
  0
VERTEX
  8
0
  6
CONTINUOUS
 10
4.099920
 20
2.506240
  0
VERTEX
  8
0
  6
CONTINUOUS
 10
4.064720
 20
2.445960
  0
VERTEX
  8
0
  6
CONTINUOUS
 10
4.018520
 20
2.389640
  0
VERTEX
  8
0
  6
CONTINUOUS
 10
3.960440
 20
2.339920
  0
VERTEX
  8
0
  6
CONTINUOUS
 10
3.890040
 20
2.297680
  0
VERTEX
  8
0
  6
CONTINUOUS
 10
3.807320
 20
2.265560
  0
VERTEX
  8
0
  6
CONTINUOUS
 10
3.712280
 20
2.245320
  0
VERTEX
  8
0
  6
CONTINUOUS
 10
3.604040
 20
2.238720
  0
VERTEX
  8
0
  6
CONTINUOUS
 10
3.604040
 20
2.071960
  0
VERTEX
  8
0
  6
CONTINUOUS
 10
3.476440
 20
2.066240
  0
VERTEX
  8
0
  6
CONTINUOUS
 10
3.372160
 20
2.049520
  0
VERTEX
  8
0
  6
CONTINUOUS
 10
3.286360
 20
2.024000
  0
VERTEX
  8
0
  6
CONTINUOUS
 10
3.218160
 20
1.990120
  0
VERTEX
  8
0
  6
CONTINUOUS
 10
3.165800
 20
1.950080
  0
VERTEX
  8
0
  6
CONTINUOUS
 10
3.127960
 20
1.904760
  0
VERTEX
  8
0
  6
CONTINUOUS
 10
3.103760
 20
1.855920
  0
VERTEX
  8
0
  6
CONTINUOUS
 10
3.091440
 20
1.804880
  0
VERTEX
  8
0
  6
CONTINUOUS
 10
3.090120
 20
1.753400
  0
VERTEX
  8
0
  6
CONTINUOUS
 10
3.098480
 20
1.701920
  0
VERTEX
  8
0
  6
CONTINUOUS
 10
3.115200
 20
1.653080
  0
VERTEX
  8
0
  6
CONTINUOUS
 10
3.138960
 20
1.607320
  0
VERTEX
  8
0
  6
CONTINUOUS
 10
3.168440
 20
1.566840
  0
VERTEX
  8
0
  6
CONTINUOUS
 10
3.202320
 20
1.532080
  0
VERTEX
  8
0
  6
CONTINUOUS
 10
3.239720
 20
1.505680
  0
VERTEX
  8
0
  6
CONTINUOUS
 10
3.278880
 20
1.488080
  0
VERTEX
  8
0
  6
CONTINUOUS
 10
3.278880
 20
1.279960
  0
VERTEX
  8
0
  6
CONTINUOUS
 10
3.206720
 20
1.279960
  0
VERTEX
  8
0
  6
CONTINUOUS
 10
3.205400
 20
1.276000
  0
VERTEX
  8
0
  6
CONTINUOUS
 10
3.201880
 20
1.192840
  0
VERTEX
  8
0
  6
CONTINUOUS
 10
3.190440
 20
1.122880
  0
VERTEX
  8
0
  6
CONTINUOUS
 10
3.170640
 20
1.066560
  0
VERTEX
  8
0
  6
CONTINUOUS
 10
3.141160
 20
1.022120
  0
VERTEX
  8
0
  6
CONTINUOUS
 10
3.101560
 20
0.989120
  0
VERTEX
  8
0
  6
CONTINUOUS
 10
3.050080
 20
0.967120
  0
VERTEX
  8
0
  6
CONTINUOUS
 10
2.987160
 20
0.954800
  0
VERTEX
  8
0
  6
CONTINUOUS
 10
2.908400
 20
0.952160
  0
VERTEX
  8
0
  6
CONTINUOUS
 10
2.908400
 20
0.795960
  0
VERTEX
  8
0
  6
CONTINUOUS
 10
2.908400
 20
0.803880
  0
SEQEND
  8
0
  0
TEXT
  8
0
 10
7.449200
 20
3.061520
 40
0.138018
  1
chair rail
 41
1.000000
  7
SN0
 71
     0
 72
     5
 11
8.075594
 21
3.061520
  0
TEXT
  8
0
 10
7.624320
 20
2.870120
 40
0.138018
  1
177
 41
1.000000
  7
SN0
 71
     0
 72
     5
 11
7.901554
 21
2.870120
  0
ENDSEC
  0
EOF
