  0
SECTION
  2
HEADER
  9
$ACADVER
  1
AC1006
  9
$EXTMIN
 10
2.765400
 20
0.343640
  9
$EXTMAX
 10
8.147480
 20
1.869560
  9
$LTSCALE
 40
0.044000
  9
$PDMODE
 70
    35
  9
$PDSIZE
 40
0.035200
  0
ENDSEC
  0
SECTION
  2
TABLES
  0
TABLE
  2
LTYPE
 70
     9
  0
LTYPE
  2
CONTINUOUS
 70
    64
  3
Solid line
 72
    65
 73
     0
 40
0.000000
  0
LTYPE
  2
DASHED
 70
    64
  3
__ __ __ __ __ __ __ __ __ __ __ __ __ __ __
 72
    65
 73
     2
 40
0.000330
 49
0.000220
 49
-0.000110
  0
LTYPE
  2
HIDDEN
 70
    64
  3
 _ _ _ _ _ _ _ _ _ _ _ _ _ _ _ _ _ _ _ _ _ _
 72
    65
 73
     2
 40
0.000165
 49
0.000110
 49
-0.000055
  0
LTYPE
  2
CENTER
 70
    64
  3
____ _ ____ _ ____ _ ____ _ ____ _ ____ _ ____
 72
    65
 73
     4
 40
0.000880
 49
0.000550
 49
-0.000110
 49
0.000110
 49
-0.000110
  0
LTYPE
  2
PHANTOM
 70
    64
  3
_____ _ _ _____ _ _ _____ _ _ _____ _ _ ____
 72
    65
 73
     6
 40
0.001100
 49
0.000550
 49
-0.000110
 49
0.000110
 49
-0.000110
 49
0.000110
 49
-0.000110
  0
LTYPE
  2
DOT
 70
    64
  3
...............................................
 72
    65
 73
     2
 40
0.000110
 49
0.000000
 49
-0.000110
  0
LTYPE
  2
DASHDOT
 70
    64
  3
__ . __ . __ . __ . __ . __ . __ . __ . __ . __
 72
    65
 73
     4
 40
0.000440
 49
0.000220
 49
-0.000110
 49
0.000000
 49
-0.000110
  0
LTYPE
  2
BORDER
 70
    64
  3
__ __ . __ __ . __ __ . __ __ . __ __ . __ __
 72
    65
 73
     6
 40
0.000770
 49
0.000220
 49
-0.000110
 49
0.000220
 49
-0.000110
 49
0.000000
 49
-0.000110
  0
LTYPE
  2
DIVIDE
 70
    64
  3
__ . . __ . . __ . . __ . . __ . . __ . . __
 72
    65
 73
     6
 40
0.000550
 49
0.000220
 49
-0.000110
 49
0.000000
 49
-0.000110
 49
0.000000
 49
-0.000110
  0
LTYPE
  2
DOTDOT
 70
    64
  3
 . .  . .  . .  . .  . .  . . 
 72
    65
 73
     5
 40
0.000242
 49
-0.000110
 49
0.000000
 49
-0.000110
 49
0.000000
 49
-0.000110
  0
ENDTAB
  0
TABLE
  2
STYLE
 70
     2
  0
STYLE
 70
     0
  2
SN0
 40
0.000000
 41
0.000440
 50
0.000000
 71
     0
 42
0.000000
  3
ROMAND
  0
STYLE
 70
    68
  2
SV0
 40
0.000000
 41
0.000440
 50
0.000000
 71
     0
 42
0.000000
  3
ROMAND
  0
ENDTAB
  0
TABLE
  2
LAYER
 70
     3
  0
LAYER
  2
FOREGROUND
 70
    64
 62
     7
  6
CONTINUOUS
  0
LAYER
  2
BACKGROUND
 70
    65
 62
    -7
  6
CONTINUOUS
  0
LAYER
  2
0
 70
    64
 62
     7
  6
CONTINUOUS
  0
ENDTAB
  0
ENDSEC
  0
SECTION
  2
ENTITIES
  0
POLYLINE
  8
FOREGROUND
  6
CONTINUOUS
 66
     1
 40
0.000000
 41
0.000000
  0
VERTEX
  8
FOREGROUND
  6
CONTINUOUS
 10
0.000000
 20
2.213200
  0
VERTEX
  8
FOREGROUND
  6
CONTINUOUS
 10
8.499920
 20
2.213200
  0
VERTEX
  8
FOREGROUND
  6
CONTINUOUS
 10
8.499920
 20
-8.786800
  0
VERTEX
  8
FOREGROUND
  6
CONTINUOUS
 10
0.000000
 20
-8.786800
  0
VERTEX
  8
FOREGROUND
  6
CONTINUOUS
 10
0.000000
 20
2.213200
  0
SEQEND
  8
0
  0
POLYLINE
  8
FOREGROUND
  6
CONTINUOUS
 66
     1
 40
0.000000
 41
0.000000
  0
VERTEX
  8
FOREGROUND
  6
CONTINUOUS
 10
0.000000
 20
2.213200
  0
VERTEX
  8
FOREGROUND
  6
CONTINUOUS
 10
8.499920
 20
2.213200
  0
VERTEX
  8
FOREGROUND
  6
CONTINUOUS
 10
8.499920
 20
-8.786800
  0
VERTEX
  8
FOREGROUND
  6
CONTINUOUS
 10
0.000000
 20
-8.786800
  0
VERTEX
  8
FOREGROUND
  6
CONTINUOUS
 10
0.000000
 20
2.213200
  0
SEQEND
  8
0
  0
POLYLINE
  8
0
  6
CONTINUOUS
 66
     1
 40
0.014080
 41
0.014080
  0
VERTEX
  8
0
  6
CONTINUOUS
 10
5.947920
 20
1.091200
  0
VERTEX
  8
0
  6
CONTINUOUS
 10
5.320920
 20
1.091200
  0
VERTEX
  8
0
  6
CONTINUOUS
 10
5.320920
 20
1.719080
  0
VERTEX
  8
0
  6
CONTINUOUS
 10
5.353040
 20
1.718200
  0
VERTEX
  8
0
  6
CONTINUOUS
 10
5.384280
 20
1.716000
  0
VERTEX
  8
0
  6
CONTINUOUS
 10
5.415520
 20
1.711600
  0
VERTEX
  8
0
  6
CONTINUOUS
 10
5.446320
 20
1.706320
  0
VERTEX
  8
0
  6
CONTINUOUS
 10
5.476680
 20
1.699280
  0
VERTEX
  8
0
  6
CONTINUOUS
 10
5.506160
 20
1.690480
  0
VERTEX
  8
0
  6
CONTINUOUS
 10
5.535200
 20
1.680360
  0
VERTEX
  8
0
  6
CONTINUOUS
 10
5.563800
 20
1.669360
  0
VERTEX
  8
0
  6
CONTINUOUS
 10
5.591520
 20
1.656600
  0
VERTEX
  8
0
  6
CONTINUOUS
 10
5.618800
 20
1.642520
  0
VERTEX
  8
0
  6
CONTINUOUS
 10
5.645200
 20
1.627120
  0
VERTEX
  8
0
  6
CONTINUOUS
 10
5.670720
 20
1.610840
  0
VERTEX
  8
0
  6
CONTINUOUS
 10
5.695360
 20
1.593240
  0
VERTEX
  8
0
  6
CONTINUOUS
 10
5.719560
 20
1.574320
  0
VERTEX
  8
0
  6
CONTINUOUS
 10
5.742440
 20
1.554520
  0
VERTEX
  8
0
  6
CONTINUOUS
 10
5.764440
 20
1.533840
  0
VERTEX
  8
0
  6
CONTINUOUS
 10
5.785120
 20
1.511840
  0
VERTEX
  8
0
  6
CONTINUOUS
 10
5.805360
 20
1.488960
  0
VERTEX
  8
0
  6
CONTINUOUS
 10
5.823840
 20
1.465200
  0
VERTEX
  8
0
  6
CONTINUOUS
 10
5.841880
 20
1.440560
  0
VERTEX
  8
0
  6
CONTINUOUS
 10
5.858160
 20
1.415040
  0
VERTEX
  8
0
  6
CONTINUOUS
 10
5.873560
 20
1.388640
  0
VERTEX
  8
0
  6
CONTINUOUS
 10
5.887640
 20
1.361800
  0
VERTEX
  8
0
  6
CONTINUOUS
 10
5.900400
 20
1.334080
  0
VERTEX
  8
0
  6
CONTINUOUS
 10
5.911840
 20
1.305480
  0
VERTEX
  8
0
  6
CONTINUOUS
 10
5.921960
 20
1.276440
  0
VERTEX
  8
0
  6
CONTINUOUS
 10
5.930320
 20
1.246960
  0
VERTEX
  8
0
  6
CONTINUOUS
 10
5.937360
 20
1.216600
  0
VERTEX
  8
0
  6
CONTINUOUS
 10
5.943080
 20
1.185800
  0
VERTEX
  8
0
  6
CONTINUOUS
 10
5.947040
 20
1.154560
  0
VERTEX
  8
0
  6
CONTINUOUS
 10
5.949680
 20
1.123320
  0
VERTEX
  8
0
  6
CONTINUOUS
 10
5.950560
 20
1.091200
  0
VERTEX
  8
0
  6
CONTINUOUS
 10
5.947920
 20
1.091200
  0
SEQEND
  8
0
  0
SOLID
  8
0
 62
    15
 10
3.209360
 20
1.242120
 11
3.845160
 21
1.612600
 12
3.250280
 22
1.197680
 13
3.885640
 23
1.568160
  0
POLYLINE
  8
0
  6
CONTINUOUS
 66
     1
 40
0.000000
 41
0.000000
  0
VERTEX
  8
0
  6
CONTINUOUS
 10
3.209360
 20
1.242120
  0
VERTEX
  8
0
  6
CONTINUOUS
 10
3.845160
 20
1.612600
  0
VERTEX
  8
0
  6
CONTINUOUS
 10
3.885640
 20
1.568160
  0
VERTEX
  8
0
  6
CONTINUOUS
 10
3.250280
 20
1.197680
  0
VERTEX
  8
0
  6
CONTINUOUS
 10
3.209360
 20
1.242120
  0
SEQEND
  8
0
  0
SOLID
  8
0
 62
    15
 10
2.829640
 20
1.424720
 11
3.465440
 21
1.795200
 12
2.891680
 22
1.415040
 13
3.527040
 23
1.785520
  0
POLYLINE
  8
0
  6
CONTINUOUS
 66
     1
 40
0.000000
 41
0.000000
  0
VERTEX
  8
0
  6
CONTINUOUS
 10
2.829640
 20
1.424720
  0
VERTEX
  8
0
  6
CONTINUOUS
 10
3.465440
 20
1.795200
  0
VERTEX
  8
0
  6
CONTINUOUS
 10
3.527040
 20
1.785520
  0
VERTEX
  8
0
  6
CONTINUOUS
 10
2.891680
 20
1.415040
  0
VERTEX
  8
0
  6
CONTINUOUS
 10
2.829640
 20
1.424720
  0
SEQEND
  8
0
  0
SOLID
  8
0
 62
    15
 10
2.891680
 20
1.415040
 11
3.527040
 21
1.785520
 12
2.951520
 22
1.399200
 13
3.586880
 23
1.769680
  0
POLYLINE
  8
0
  6
CONTINUOUS
 66
     1
 40
0.000000
 41
0.000000
  0
VERTEX
  8
0
  6
CONTINUOUS
 10
2.891680
 20
1.415040
  0
VERTEX
  8
0
  6
CONTINUOUS
 10
3.527040
 20
1.785520
  0
VERTEX
  8
0
  6
CONTINUOUS
 10
3.586880
 20
1.769680
  0
VERTEX
  8
0
  6
CONTINUOUS
 10
2.951520
 20
1.399200
  0
VERTEX
  8
0
  6
CONTINUOUS
 10
2.891680
 20
1.415040
  0
SEQEND
  8
0
  0
SOLID
  8
0
 62
    15
 10
2.951520
 20
1.399200
 11
3.586880
 21
1.769680
 12
3.009160
 22
1.378080
 13
3.644520
 23
1.748560
  0
POLYLINE
  8
0
  6
CONTINUOUS
 66
     1
 40
0.000000
 41
0.000000
  0
VERTEX
  8
0
  6
CONTINUOUS
 10
2.951520
 20
1.399200
  0
VERTEX
  8
0
  6
CONTINUOUS
 10
3.586880
 20
1.769680
  0
VERTEX
  8
0
  6
CONTINUOUS
 10
3.644520
 20
1.748560
  0
VERTEX
  8
0
  6
CONTINUOUS
 10
3.009160
 20
1.378080
  0
VERTEX
  8
0
  6
CONTINUOUS
 10
2.951520
 20
1.399200
  0
SEQEND
  8
0
  0
SOLID
  8
0
 62
    15
 10
3.009160
 20
1.378080
 11
3.644520
 21
1.748560
 12
3.063720
 22
1.351240
 13
3.699520
 23
1.721720
  0
POLYLINE
  8
0
  6
CONTINUOUS
 66
     1
 40
0.000000
 41
0.000000
  0
VERTEX
  8
0
  6
CONTINUOUS
 10
3.009160
 20
1.378080
  0
VERTEX
  8
0
  6
CONTINUOUS
 10
3.644520
 20
1.748560
  0
VERTEX
  8
0
  6
CONTINUOUS
 10
3.699520
 20
1.721720
  0
VERTEX
  8
0
  6
CONTINUOUS
 10
3.063720
 20
1.351240
  0
VERTEX
  8
0
  6
CONTINUOUS
 10
3.009160
 20
1.378080
  0
SEQEND
  8
0
  0
SOLID
  8
0
 62
    15
 10
3.063720
 20
1.351240
 11
3.699520
 21
1.721720
 12
3.115640
 22
1.319560
 13
3.751440
 23
1.690040
  0
POLYLINE
  8
0
  6
CONTINUOUS
 66
     1
 40
0.000000
 41
0.000000
  0
VERTEX
  8
0
  6
CONTINUOUS
 10
3.063720
 20
1.351240
  0
VERTEX
  8
0
  6
CONTINUOUS
 10
3.699520
 20
1.721720
  0
VERTEX
  8
0
  6
CONTINUOUS
 10
3.751440
 20
1.690040
  0
VERTEX
  8
0
  6
CONTINUOUS
 10
3.115640
 20
1.319560
  0
VERTEX
  8
0
  6
CONTINUOUS
 10
3.063720
 20
1.351240
  0
SEQEND
  8
0
  0
SOLID
  8
0
 62
    15
 10
3.115640
 20
1.319560
 11
3.751440
 21
1.690040
 12
3.164480
 22
1.283040
 13
3.799840
 23
1.653520
  0
POLYLINE
  8
0
  6
CONTINUOUS
 66
     1
 40
0.000000
 41
0.000000
  0
VERTEX
  8
0
  6
CONTINUOUS
 10
3.115640
 20
1.319560
  0
VERTEX
  8
0
  6
CONTINUOUS
 10
3.751440
 20
1.690040
  0
VERTEX
  8
0
  6
CONTINUOUS
 10
3.799840
 20
1.653520
  0
VERTEX
  8
0
  6
CONTINUOUS
 10
3.164480
 20
1.283040
  0
VERTEX
  8
0
  6
CONTINUOUS
 10
3.115640
 20
1.319560
  0
SEQEND
  8
0
  0
SOLID
  8
0
 62
    15
 10
3.164480
 20
1.283040
 11
3.799840
 21
1.653520
 12
3.209360
 22
1.242120
 13
3.845160
 23
1.612600
  0
POLYLINE
  8
0
  6
CONTINUOUS
 66
     1
 40
0.000000
 41
0.000000
  0
VERTEX
  8
0
  6
CONTINUOUS
 10
3.164480
 20
1.283040
  0
VERTEX
  8
0
  6
CONTINUOUS
 10
3.799840
 20
1.653520
  0
VERTEX
  8
0
  6
CONTINUOUS
 10
3.845160
 20
1.612600
  0
VERTEX
  8
0
  6
CONTINUOUS
 10
3.209360
 20
1.242120
  0
VERTEX
  8
0
  6
CONTINUOUS
 10
3.164480
 20
1.283040
  0
SEQEND
  8
0
  0
SOLID
  8
0
 62
    15
 10
2.766280
 20
1.427800
 11
3.401640
 21
1.798280
 12
2.829640
 22
1.424720
 13
3.465440
 23
1.795200
  0
POLYLINE
  8
0
  6
CONTINUOUS
 66
     1
 40
0.000000
 41
0.000000
  0
VERTEX
  8
0
  6
CONTINUOUS
 10
2.766280
 20
1.427800
  0
VERTEX
  8
0
  6
CONTINUOUS
 10
3.401640
 20
1.798280
  0
VERTEX
  8
0
  6
CONTINUOUS
 10
3.465440
 20
1.795200
  0
VERTEX
  8
0
  6
CONTINUOUS
 10
2.829640
 20
1.424720
  0
VERTEX
  8
0
  6
CONTINUOUS
 10
2.766280
 20
1.427800
  0
SEQEND
  8
0
  0
SOLID
  8
0
 62
    15
 10
3.250280
 20
1.197680
 11
3.885640
 21
1.568160
 12
3.286800
 22
1.149280
 13
3.922160
 23
1.519760
  0
POLYLINE
  8
0
  6
CONTINUOUS
 66
     1
 40
0.000000
 41
0.000000
  0
VERTEX
  8
0
  6
CONTINUOUS
 10
3.250280
 20
1.197680
  0
VERTEX
  8
0
  6
CONTINUOUS
 10
3.885640
 20
1.568160
  0
VERTEX
  8
0
  6
CONTINUOUS
 10
3.922160
 20
1.519760
  0
VERTEX
  8
0
  6
CONTINUOUS
 10
3.286800
 20
1.149280
  0
VERTEX
  8
0
  6
CONTINUOUS
 10
3.250280
 20
1.197680
  0
SEQEND
  8
0
  0
SOLID
  8
0
 62
    15
 10
3.286800
 20
1.149280
 11
3.922160
 21
1.519760
 12
3.318480
 22
1.097360
 13
3.954280
 23
1.467840
  0
POLYLINE
  8
0
  6
CONTINUOUS
 66
     1
 40
0.000000
 41
0.000000
  0
VERTEX
  8
0
  6
CONTINUOUS
 10
3.286800
 20
1.149280
  0
VERTEX
  8
0
  6
CONTINUOUS
 10
3.922160
 20
1.519760
  0
VERTEX
  8
0
  6
CONTINUOUS
 10
3.954280
 20
1.467840
  0
VERTEX
  8
0
  6
CONTINUOUS
 10
3.318480
 20
1.097360
  0
VERTEX
  8
0
  6
CONTINUOUS
 10
3.286800
 20
1.149280
  0
SEQEND
  8
0
  0
SOLID
  8
0
 62
    15
 10
3.318480
 20
1.097360
 11
3.954280
 21
1.467840
 12
3.345320
 22
1.042360
 13
3.981120
 23
1.412840
  0
POLYLINE
  8
0
  6
CONTINUOUS
 66
     1
 40
0.000000
 41
0.000000
  0
VERTEX
  8
0
  6
CONTINUOUS
 10
3.318480
 20
1.097360
  0
VERTEX
  8
0
  6
CONTINUOUS
 10
3.954280
 20
1.467840
  0
VERTEX
  8
0
  6
CONTINUOUS
 10
3.981120
 20
1.412840
  0
VERTEX
  8
0
  6
CONTINUOUS
 10
3.345320
 20
1.042360
  0
VERTEX
  8
0
  6
CONTINUOUS
 10
3.318480
 20
1.097360
  0
SEQEND
  8
0
  0
SOLID
  8
0
 62
    15
 10
3.345320
 20
1.042360
 11
3.981120
 21
1.412840
 12
3.366880
 22
0.985160
 13
4.002240
 23
1.355640
  0
POLYLINE
  8
0
  6
CONTINUOUS
 66
     1
 40
0.000000
 41
0.000000
  0
VERTEX
  8
0
  6
CONTINUOUS
 10
3.345320
 20
1.042360
  0
VERTEX
  8
0
  6
CONTINUOUS
 10
3.981120
 20
1.412840
  0
VERTEX
  8
0
  6
CONTINUOUS
 10
4.002240
 20
1.355640
  0
VERTEX
  8
0
  6
CONTINUOUS
 10
3.366880
 20
0.985160
  0
VERTEX
  8
0
  6
CONTINUOUS
 10
3.345320
 20
1.042360
  0
SEQEND
  8
0
  0
SOLID
  8
0
 62
    15
 10
3.366880
 20
0.985160
 11
4.002240
 21
1.355640
 12
3.382280
 22
0.925320
 13
4.018080
 23
1.295800
  0
POLYLINE
  8
0
  6
CONTINUOUS
 66
     1
 40
0.000000
 41
0.000000
  0
VERTEX
  8
0
  6
CONTINUOUS
 10
3.366880
 20
0.985160
  0
VERTEX
  8
0
  6
CONTINUOUS
 10
4.002240
 20
1.355640
  0
VERTEX
  8
0
  6
CONTINUOUS
 10
4.018080
 20
1.295800
  0
VERTEX
  8
0
  6
CONTINUOUS
 10
3.382280
 20
0.925320
  0
VERTEX
  8
0
  6
CONTINUOUS
 10
3.366880
 20
0.985160
  0
SEQEND
  8
0
  0
SOLID
  8
0
 62
    15
 10
3.382280
 20
0.925320
 11
4.018080
 21
1.295800
 12
3.391960
 22
0.863280
 13
4.027760
 23
1.233760
  0
POLYLINE
  8
0
  6
CONTINUOUS
 66
     1
 40
0.000000
 41
0.000000
  0
VERTEX
  8
0
  6
CONTINUOUS
 10
3.382280
 20
0.925320
  0
VERTEX
  8
0
  6
CONTINUOUS
 10
4.018080
 20
1.295800
  0
VERTEX
  8
0
  6
CONTINUOUS
 10
4.027760
 20
1.233760
  0
VERTEX
  8
0
  6
CONTINUOUS
 10
3.391960
 20
0.863280
  0
VERTEX
  8
0
  6
CONTINUOUS
 10
3.382280
 20
0.925320
  0
SEQEND
  8
0
  0
SOLID
  8
0
 62
    15
 10
3.391960
 20
0.863280
 11
4.027760
 21
1.233760
 12
3.395480
 22
0.799920
 13
4.031280
 23
1.170400
  0
POLYLINE
  8
0
  6
CONTINUOUS
 66
     1
 40
0.000000
 41
0.000000
  0
VERTEX
  8
0
  6
CONTINUOUS
 10
3.391960
 20
0.863280
  0
VERTEX
  8
0
  6
CONTINUOUS
 10
4.027760
 20
1.233760
  0
VERTEX
  8
0
  6
CONTINUOUS
 10
4.031280
 20
1.170400
  0
VERTEX
  8
0
  6
CONTINUOUS
 10
3.395480
 20
0.799920
  0
VERTEX
  8
0
  6
CONTINUOUS
 10
3.391960
 20
0.863280
  0
SEQEND
  8
0
  0
POLYLINE
  8
0
  6
CONTINUOUS
 66
     1
 40
0.000000
 41
0.000000
  0
VERTEX
  8
0
  6
CONTINUOUS
 10
3.392840
 20
0.799920
  0
VERTEX
  8
0
  6
CONTINUOUS
 10
2.766280
 20
0.799920
  0
VERTEX
  8
0
  6
CONTINUOUS
 10
2.766280
 20
1.427800
  0
VERTEX
  8
0
  6
CONTINUOUS
 10
2.829640
 20
1.424720
  0
VERTEX
  8
0
  6
CONTINUOUS
 10
2.891680
 20
1.415040
  0
VERTEX
  8
0
  6
CONTINUOUS
 10
2.951520
 20
1.399200
  0
VERTEX
  8
0
  6
CONTINUOUS
 10
3.009160
 20
1.378080
  0
VERTEX
  8
0
  6
CONTINUOUS
 10
3.063720
 20
1.351240
  0
VERTEX
  8
0
  6
CONTINUOUS
 10
3.115640
 20
1.319560
  0
VERTEX
  8
0
  6
CONTINUOUS
 10
3.164480
 20
1.283040
  0
VERTEX
  8
0
  6
CONTINUOUS
 10
3.209360
 20
1.242120
  0
VERTEX
  8
0
  6
CONTINUOUS
 10
3.250280
 20
1.197680
  0
VERTEX
  8
0
  6
CONTINUOUS
 10
3.286800
 20
1.149280
  0
VERTEX
  8
0
  6
CONTINUOUS
 10
3.318480
 20
1.097360
  0
VERTEX
  8
0
  6
CONTINUOUS
 10
3.345320
 20
1.042360
  0
VERTEX
  8
0
  6
CONTINUOUS
 10
3.366880
 20
0.985160
  0
VERTEX
  8
0
  6
CONTINUOUS
 10
3.382280
 20
0.925320
  0
VERTEX
  8
0
  6
CONTINUOUS
 10
3.391960
 20
0.863280
  0
VERTEX
  8
0
  6
CONTINUOUS
 10
3.395480
 20
0.799920
  0
VERTEX
  8
0
  6
CONTINUOUS
 10
3.392840
 20
0.799920
  0
SEQEND
  8
0
  0
TEXT
  8
0
 10
3.103760
 20
0.579480
 40
0.137898
  1
BA  176
 41
1.000000
  7
SN0
 71
     0
 72
     5
 11
3.694174
 21
0.579480
  0
TEXT
  8
0
 10
3.254240
 20
0.388080
 40
0.137898
  1
5/8"
 41
1.000000
  7
SN0
 71
     0
 72
     5
 11
3.543796
 21
0.388080
  0
TEXT
  8
0
 10
7.677120
 20
1.718640
 40
0.137898
  1
1/4rnd
 41
1.000000
  7
SN0
 71
     0
 72
     5
 11
8.147783
 21
1.718640
  0
TEXT
  8
0
 10
7.677120
 20
1.526800
 40
0.137898
  1
176
 41
1.000000
  7
SN0
 71
     0
 72
     5
 11
7.954297
 21
1.526800
  0
ENDSEC
  0
EOF
