  0
SECTION
  2
HEADER
  9
$ACADVER
  1
AC1006
  9
$EXTMIN
 10
0.828960
 20
0.370920
  9
$EXTMAX
 10
8.068720
 20
8.487600
  9
$LTSCALE
 40
0.044000
  9
$PDMODE
 70
    35
  9
$PDSIZE
 40
0.035200
  0
ENDSEC
  0
SECTION
  2
TABLES
  0
TABLE
  2
LTYPE
 70
     9
  0
LTYPE
  2
CONTINUOUS
 70
    64
  3
Solid line
 72
    65
 73
     0
 40
0.000000
  0
LTYPE
  2
DASHED
 70
    64
  3
__ __ __ __ __ __ __ __ __ __ __ __ __ __ __
 72
    65
 73
     2
 40
0.000330
 49
0.000220
 49
-0.000110
  0
LTYPE
  2
HIDDEN
 70
    64
  3
 _ _ _ _ _ _ _ _ _ _ _ _ _ _ _ _ _ _ _ _ _ _
 72
    65
 73
     2
 40
0.000165
 49
0.000110
 49
-0.000055
  0
LTYPE
  2
CENTER
 70
    64
  3
____ _ ____ _ ____ _ ____ _ ____ _ ____ _ ____
 72
    65
 73
     4
 40
0.000880
 49
0.000550
 49
-0.000110
 49
0.000110
 49
-0.000110
  0
LTYPE
  2
PHANTOM
 70
    64
  3
_____ _ _ _____ _ _ _____ _ _ _____ _ _ ____
 72
    65
 73
     6
 40
0.001100
 49
0.000550
 49
-0.000110
 49
0.000110
 49
-0.000110
 49
0.000110
 49
-0.000110
  0
LTYPE
  2
DOT
 70
    64
  3
...............................................
 72
    65
 73
     2
 40
0.000110
 49
0.000000
 49
-0.000110
  0
LTYPE
  2
DASHDOT
 70
    64
  3
__ . __ . __ . __ . __ . __ . __ . __ . __ . __
 72
    65
 73
     4
 40
0.000440
 49
0.000220
 49
-0.000110
 49
0.000000
 49
-0.000110
  0
LTYPE
  2
BORDER
 70
    64
  3
__ __ . __ __ . __ __ . __ __ . __ __ . __ __
 72
    65
 73
     6
 40
0.000770
 49
0.000220
 49
-0.000110
 49
0.000220
 49
-0.000110
 49
0.000000
 49
-0.000110
  0
LTYPE
  2
DIVIDE
 70
    64
  3
__ . . __ . . __ . . __ . . __ . . __ . . __
 72
    65
 73
     6
 40
0.000550
 49
0.000220
 49
-0.000110
 49
0.000000
 49
-0.000110
 49
0.000000
 49
-0.000110
  0
LTYPE
  2
DOTDOT
 70
    64
  3
 . .  . .  . .  . .  . .  . . 
 72
    65
 73
     5
 40
0.000242
 49
-0.000110
 49
0.000000
 49
-0.000110
 49
0.000000
 49
-0.000110
  0
ENDTAB
  0
TABLE
  2
STYLE
 70
     2
  0
STYLE
 70
     0
  2
SN0
 40
0.000000
 41
0.000440
 50
0.000000
 71
     0
 42
0.000000
  3
ROMAND
  0
STYLE
 70
    68
  2
SV0
 40
0.000000
 41
0.000440
 50
0.000000
 71
     0
 42
0.000000
  3
ROMAND
  0
ENDTAB
  0
TABLE
  2
LAYER
 70
     3
  0
LAYER
  2
FOREGROUND
 70
    64
 62
     7
  6
CONTINUOUS
  0
LAYER
  2
BACKGROUND
 70
    65
 62
    -7
  6
CONTINUOUS
  0
LAYER
  2
0
 70
    64
 62
     7
  6
CONTINUOUS
  0
ENDTAB
  0
ENDSEC
  0
SECTION
  2
ENTITIES
  0
POLYLINE
  8
FOREGROUND
  6
CONTINUOUS
 66
     1
 40
0.000000
 41
0.000000
  0
VERTEX
  8
FOREGROUND
  6
CONTINUOUS
 10
0.000000
 20
8.858520
  0
VERTEX
  8
FOREGROUND
  6
CONTINUOUS
 10
8.499920
 20
8.858520
  0
VERTEX
  8
FOREGROUND
  6
CONTINUOUS
 10
8.499920
 20
-2.141480
  0
VERTEX
  8
FOREGROUND
  6
CONTINUOUS
 10
0.000000
 20
-2.141480
  0
VERTEX
  8
FOREGROUND
  6
CONTINUOUS
 10
0.000000
 20
8.858520
  0
SEQEND
  8
0
  0
POLYLINE
  8
FOREGROUND
  6
CONTINUOUS
 66
     1
 40
0.000000
 41
0.000000
  0
VERTEX
  8
FOREGROUND
  6
CONTINUOUS
 10
0.000000
 20
8.858520
  0
VERTEX
  8
FOREGROUND
  6
CONTINUOUS
 10
8.499920
 20
8.858520
  0
VERTEX
  8
FOREGROUND
  6
CONTINUOUS
 10
8.499920
 20
-2.141480
  0
VERTEX
  8
FOREGROUND
  6
CONTINUOUS
 10
0.000000
 20
-2.141480
  0
VERTEX
  8
FOREGROUND
  6
CONTINUOUS
 10
0.000000
 20
8.858520
  0
SEQEND
  8
0
  0
SOLID
  8
0
 62
    15
 10
4.008400
 20
1.764400
 11
4.011920
 21
2.499640
 12
4.062520
 22
1.753400
 13
4.065600
 23
2.488640
  0
POLYLINE
  8
0
  6
CONTINUOUS
 66
     1
 40
0.000000
 41
0.000000
  0
VERTEX
  8
0
  6
CONTINUOUS
 10
4.008400
 20
1.764400
  0
VERTEX
  8
0
  6
CONTINUOUS
 10
4.011920
 20
2.499640
  0
VERTEX
  8
0
  6
CONTINUOUS
 10
4.065600
 20
2.488640
  0
VERTEX
  8
0
  6
CONTINUOUS
 10
4.062520
 20
1.753400
  0
VERTEX
  8
0
  6
CONTINUOUS
 10
4.008400
 20
1.764400
  0
SEQEND
  8
0
  0
SOLID
  8
0
 62
    15
 10
3.135880
 20
1.884960
 11
3.139400
 21
2.620200
 12
3.135880
 22
1.821160
 13
3.139400
 23
2.556400
  0
POLYLINE
  8
0
  6
CONTINUOUS
 66
     1
 40
0.000000
 41
0.000000
  0
VERTEX
  8
0
  6
CONTINUOUS
 10
3.135880
 20
1.884960
  0
VERTEX
  8
0
  6
CONTINUOUS
 10
3.139400
 20
2.620200
  0
VERTEX
  8
0
  6
CONTINUOUS
 10
3.139400
 20
2.556400
  0
VERTEX
  8
0
  6
CONTINUOUS
 10
3.135880
 20
1.821160
  0
VERTEX
  8
0
  6
CONTINUOUS
 10
3.135880
 20
1.884960
  0
SEQEND
  8
0
  0
SOLID
  8
0
 62
    15
 10
3.135880
 20
1.821160
 11
3.139400
 21
2.556400
 12
3.141160
 22
1.820720
 13
3.144680
 23
2.556400
  0
POLYLINE
  8
0
  6
CONTINUOUS
 66
     1
 40
0.000000
 41
0.000000
  0
VERTEX
  8
0
  6
CONTINUOUS
 10
3.135880
 20
1.821160
  0
VERTEX
  8
0
  6
CONTINUOUS
 10
3.139400
 20
2.556400
  0
VERTEX
  8
0
  6
CONTINUOUS
 10
3.144680
 20
2.556400
  0
VERTEX
  8
0
  6
CONTINUOUS
 10
3.141160
 20
1.820720
  0
VERTEX
  8
0
  6
CONTINUOUS
 10
3.135880
 20
1.821160
  0
SEQEND
  8
0
  0
SOLID
  8
0
 62
    15
 10
3.141160
 20
1.820720
 11
3.144680
 21
2.556400
 12
3.240160
 22
1.825120
 13
3.243680
 23
2.560360
  0
POLYLINE
  8
0
  6
CONTINUOUS
 66
     1
 40
0.000000
 41
0.000000
  0
VERTEX
  8
0
  6
CONTINUOUS
 10
3.141160
 20
1.820720
  0
VERTEX
  8
0
  6
CONTINUOUS
 10
3.144680
 20
2.556400
  0
VERTEX
  8
0
  6
CONTINUOUS
 10
3.243680
 20
2.560360
  0
VERTEX
  8
0
  6
CONTINUOUS
 10
3.240160
 20
1.825120
  0
VERTEX
  8
0
  6
CONTINUOUS
 10
3.141160
 20
1.820720
  0
SEQEND
  8
0
  0
SOLID
  8
0
 62
    15
 10
3.240160
 20
1.825120
 11
3.243680
 21
2.560360
 12
3.329480
 22
1.827760
 13
3.333000
 23
2.563440
  0
POLYLINE
  8
0
  6
CONTINUOUS
 66
     1
 40
0.000000
 41
0.000000
  0
VERTEX
  8
0
  6
CONTINUOUS
 10
3.240160
 20
1.825120
  0
VERTEX
  8
0
  6
CONTINUOUS
 10
3.243680
 20
2.560360
  0
VERTEX
  8
0
  6
CONTINUOUS
 10
3.333000
 20
2.563440
  0
VERTEX
  8
0
  6
CONTINUOUS
 10
3.329480
 20
1.827760
  0
VERTEX
  8
0
  6
CONTINUOUS
 10
3.240160
 20
1.825120
  0
SEQEND
  8
0
  0
SOLID
  8
0
 62
    15
 10
3.329480
 20
1.827760
 11
3.333000
 21
2.563440
 12
3.410000
 22
1.829960
 13
3.413520
 23
2.565200
  0
POLYLINE
  8
0
  6
CONTINUOUS
 66
     1
 40
0.000000
 41
0.000000
  0
VERTEX
  8
0
  6
CONTINUOUS
 10
3.329480
 20
1.827760
  0
VERTEX
  8
0
  6
CONTINUOUS
 10
3.333000
 20
2.563440
  0
VERTEX
  8
0
  6
CONTINUOUS
 10
3.413520
 20
2.565200
  0
VERTEX
  8
0
  6
CONTINUOUS
 10
3.410000
 20
1.829960
  0
VERTEX
  8
0
  6
CONTINUOUS
 10
3.329480
 20
1.827760
  0
SEQEND
  8
0
  0
SOLID
  8
0
 62
    15
 10
3.410000
 20
1.829960
 11
3.413520
 21
2.565200
 12
3.482160
 22
1.830400
 13
3.485680
 23
2.566080
  0
POLYLINE
  8
0
  6
CONTINUOUS
 66
     1
 40
0.000000
 41
0.000000
  0
VERTEX
  8
0
  6
CONTINUOUS
 10
3.410000
 20
1.829960
  0
VERTEX
  8
0
  6
CONTINUOUS
 10
3.413520
 20
2.565200
  0
VERTEX
  8
0
  6
CONTINUOUS
 10
3.485680
 20
2.566080
  0
VERTEX
  8
0
  6
CONTINUOUS
 10
3.482160
 20
1.830400
  0
VERTEX
  8
0
  6
CONTINUOUS
 10
3.410000
 20
1.829960
  0
SEQEND
  8
0
  0
SOLID
  8
0
 62
    15
 10
3.482160
 20
1.830400
 11
3.485680
 21
2.566080
 12
3.546400
 22
1.830400
 13
3.549920
 23
2.566080
  0
POLYLINE
  8
0
  6
CONTINUOUS
 66
     1
 40
0.000000
 41
0.000000
  0
VERTEX
  8
0
  6
CONTINUOUS
 10
3.482160
 20
1.830400
  0
VERTEX
  8
0
  6
CONTINUOUS
 10
3.485680
 20
2.566080
  0
VERTEX
  8
0
  6
CONTINUOUS
 10
3.549920
 20
2.566080
  0
VERTEX
  8
0
  6
CONTINUOUS
 10
3.546400
 20
1.830400
  0
VERTEX
  8
0
  6
CONTINUOUS
 10
3.482160
 20
1.830400
  0
SEQEND
  8
0
  0
SOLID
  8
0
 62
    15
 10
3.546400
 20
1.830400
 11
3.549920
 21
2.566080
 12
3.603600
 22
1.829520
 13
3.607120
 23
2.565200
  0
POLYLINE
  8
0
  6
CONTINUOUS
 66
     1
 40
0.000000
 41
0.000000
  0
VERTEX
  8
0
  6
CONTINUOUS
 10
3.546400
 20
1.830400
  0
VERTEX
  8
0
  6
CONTINUOUS
 10
3.549920
 20
2.566080
  0
VERTEX
  8
0
  6
CONTINUOUS
 10
3.607120
 20
2.565200
  0
VERTEX
  8
0
  6
CONTINUOUS
 10
3.603600
 20
1.829520
  0
VERTEX
  8
0
  6
CONTINUOUS
 10
3.546400
 20
1.830400
  0
SEQEND
  8
0
  0
SOLID
  8
0
 62
    15
 10
3.603600
 20
1.829520
 11
3.607120
 21
2.565200
 12
3.654640
 22
1.827760
 13
3.657720
 23
2.563440
  0
POLYLINE
  8
0
  6
CONTINUOUS
 66
     1
 40
0.000000
 41
0.000000
  0
VERTEX
  8
0
  6
CONTINUOUS
 10
3.603600
 20
1.829520
  0
VERTEX
  8
0
  6
CONTINUOUS
 10
3.607120
 20
2.565200
  0
VERTEX
  8
0
  6
CONTINUOUS
 10
3.657720
 20
2.563440
  0
VERTEX
  8
0
  6
CONTINUOUS
 10
3.654640
 20
1.827760
  0
VERTEX
  8
0
  6
CONTINUOUS
 10
3.603600
 20
1.829520
  0
SEQEND
  8
0
  0
SOLID
  8
0
 62
    15
 10
3.654640
 20
1.827760
 11
3.657720
 21
2.563440
 12
3.699520
 22
1.825560
 13
3.702600
 23
2.560800
  0
POLYLINE
  8
0
  6
CONTINUOUS
 66
     1
 40
0.000000
 41
0.000000
  0
VERTEX
  8
0
  6
CONTINUOUS
 10
3.654640
 20
1.827760
  0
VERTEX
  8
0
  6
CONTINUOUS
 10
3.657720
 20
2.563440
  0
VERTEX
  8
0
  6
CONTINUOUS
 10
3.702600
 20
2.560800
  0
VERTEX
  8
0
  6
CONTINUOUS
 10
3.699520
 20
1.825560
  0
VERTEX
  8
0
  6
CONTINUOUS
 10
3.654640
 20
1.827760
  0
SEQEND
  8
0
  0
SOLID
  8
0
 62
    15
 10
3.699520
 20
1.825560
 11
3.702600
 21
2.560800
 12
3.773880
 22
1.818520
 13
3.777400
 23
2.554200
  0
POLYLINE
  8
0
  6
CONTINUOUS
 66
     1
 40
0.000000
 41
0.000000
  0
VERTEX
  8
0
  6
CONTINUOUS
 10
3.699520
 20
1.825560
  0
VERTEX
  8
0
  6
CONTINUOUS
 10
3.702600
 20
2.560800
  0
VERTEX
  8
0
  6
CONTINUOUS
 10
3.777400
 20
2.554200
  0
VERTEX
  8
0
  6
CONTINUOUS
 10
3.773880
 20
1.818520
  0
VERTEX
  8
0
  6
CONTINUOUS
 10
3.699520
 20
1.825560
  0
SEQEND
  8
0
  0
SOLID
  8
0
 62
    15
 10
3.773880
 20
1.818520
 11
3.777400
 21
2.554200
 12
3.832840
 22
1.809720
 13
3.835920
 23
2.544960
  0
POLYLINE
  8
0
  6
CONTINUOUS
 66
     1
 40
0.000000
 41
0.000000
  0
VERTEX
  8
0
  6
CONTINUOUS
 10
3.773880
 20
1.818520
  0
VERTEX
  8
0
  6
CONTINUOUS
 10
3.777400
 20
2.554200
  0
VERTEX
  8
0
  6
CONTINUOUS
 10
3.835920
 20
2.544960
  0
VERTEX
  8
0
  6
CONTINUOUS
 10
3.832840
 20
1.809720
  0
VERTEX
  8
0
  6
CONTINUOUS
 10
3.773880
 20
1.818520
  0
SEQEND
  8
0
  0
SOLID
  8
0
 62
    15
 10
3.832840
 20
1.809720
 11
3.835920
 21
2.544960
 12
3.880800
 22
1.799160
 13
3.883880
 23
2.534840
  0
POLYLINE
  8
0
  6
CONTINUOUS
 66
     1
 40
0.000000
 41
0.000000
  0
VERTEX
  8
0
  6
CONTINUOUS
 10
3.832840
 20
1.809720
  0
VERTEX
  8
0
  6
CONTINUOUS
 10
3.835920
 20
2.544960
  0
VERTEX
  8
0
  6
CONTINUOUS
 10
3.883880
 20
2.534840
  0
VERTEX
  8
0
  6
CONTINUOUS
 10
3.880800
 20
1.799160
  0
VERTEX
  8
0
  6
CONTINUOUS
 10
3.832840
 20
1.809720
  0
SEQEND
  8
0
  0
SOLID
  8
0
 62
    15
 10
3.880800
 20
1.799160
 11
3.883880
 21
2.534840
 12
3.922600
 22
1.787720
 13
3.926120
 23
2.523400
  0
POLYLINE
  8
0
  6
CONTINUOUS
 66
     1
 40
0.000000
 41
0.000000
  0
VERTEX
  8
0
  6
CONTINUOUS
 10
3.880800
 20
1.799160
  0
VERTEX
  8
0
  6
CONTINUOUS
 10
3.883880
 20
2.534840
  0
VERTEX
  8
0
  6
CONTINUOUS
 10
3.926120
 20
2.523400
  0
VERTEX
  8
0
  6
CONTINUOUS
 10
3.922600
 20
1.787720
  0
VERTEX
  8
0
  6
CONTINUOUS
 10
3.880800
 20
1.799160
  0
SEQEND
  8
0
  0
SOLID
  8
0
 62
    15
 10
3.922600
 20
1.787720
 11
3.926120
 21
2.523400
 12
4.008400
 22
1.764400
 13
4.011920
 23
2.499640
  0
POLYLINE
  8
0
  6
CONTINUOUS
 66
     1
 40
0.000000
 41
0.000000
  0
VERTEX
  8
0
  6
CONTINUOUS
 10
3.922600
 20
1.787720
  0
VERTEX
  8
0
  6
CONTINUOUS
 10
3.926120
 20
2.523400
  0
VERTEX
  8
0
  6
CONTINUOUS
 10
4.011920
 20
2.499640
  0
VERTEX
  8
0
  6
CONTINUOUS
 10
4.008400
 20
1.764400
  0
VERTEX
  8
0
  6
CONTINUOUS
 10
3.922600
 20
1.787720
  0
SEQEND
  8
0
  0
SOLID
  8
0
 62
    15
 10
2.416920
 20
0.894520
 11
2.420000
 21
1.629760
 12
2.416040
 22
1.884960
 13
2.419560
 23
2.620200
  0
POLYLINE
  8
0
  6
CONTINUOUS
 66
     1
 40
0.000000
 41
0.000000
  0
VERTEX
  8
0
  6
CONTINUOUS
 10
2.416920
 20
0.894520
  0
VERTEX
  8
0
  6
CONTINUOUS
 10
2.420000
 20
1.629760
  0
VERTEX
  8
0
  6
CONTINUOUS
 10
2.419560
 20
2.620200
  0
VERTEX
  8
0
  6
CONTINUOUS
 10
2.416040
 20
1.884960
  0
VERTEX
  8
0
  6
CONTINUOUS
 10
2.416920
 20
0.894520
  0
SEQEND
  8
0
  0
SOLID
  8
0
 62
    15
 10
4.062520
 20
1.753400
 11
4.065600
 21
2.488640
 12
4.130720
 22
1.743280
 13
4.133800
 23
2.478960
  0
POLYLINE
  8
0
  6
CONTINUOUS
 66
     1
 40
0.000000
 41
0.000000
  0
VERTEX
  8
0
  6
CONTINUOUS
 10
4.062520
 20
1.753400
  0
VERTEX
  8
0
  6
CONTINUOUS
 10
4.065600
 20
2.488640
  0
VERTEX
  8
0
  6
CONTINUOUS
 10
4.133800
 20
2.478960
  0
VERTEX
  8
0
  6
CONTINUOUS
 10
4.130720
 20
1.743280
  0
VERTEX
  8
0
  6
CONTINUOUS
 10
4.062520
 20
1.753400
  0
SEQEND
  8
0
  0
SOLID
  8
0
 62
    15
 10
4.130720
 20
1.743280
 11
4.133800
 21
2.478960
 12
4.171200
 22
1.739320
 13
4.174720
 23
2.474560
  0
POLYLINE
  8
0
  6
CONTINUOUS
 66
     1
 40
0.000000
 41
0.000000
  0
VERTEX
  8
0
  6
CONTINUOUS
 10
4.130720
 20
1.743280
  0
VERTEX
  8
0
  6
CONTINUOUS
 10
4.133800
 20
2.478960
  0
VERTEX
  8
0
  6
CONTINUOUS
 10
4.174720
 20
2.474560
  0
VERTEX
  8
0
  6
CONTINUOUS
 10
4.171200
 20
1.739320
  0
VERTEX
  8
0
  6
CONTINUOUS
 10
4.130720
 20
1.743280
  0
SEQEND
  8
0
  0
SOLID
  8
0
 62
    15
 10
4.171200
 20
1.739320
 11
4.174720
 21
2.474560
 12
4.217400
 22
1.735360
 13
4.220920
 23
2.470600
  0
POLYLINE
  8
0
  6
CONTINUOUS
 66
     1
 40
0.000000
 41
0.000000
  0
VERTEX
  8
0
  6
CONTINUOUS
 10
4.171200
 20
1.739320
  0
VERTEX
  8
0
  6
CONTINUOUS
 10
4.174720
 20
2.474560
  0
VERTEX
  8
0
  6
CONTINUOUS
 10
4.220920
 20
2.470600
  0
VERTEX
  8
0
  6
CONTINUOUS
 10
4.217400
 20
1.735360
  0
VERTEX
  8
0
  6
CONTINUOUS
 10
4.171200
 20
1.739320
  0
SEQEND
  8
0
  0
SOLID
  8
0
 62
    15
 10
4.217400
 20
1.735360
 11
4.220920
 21
2.470600
 12
4.269760
 22
1.732280
 13
4.273280
 23
2.467520
  0
POLYLINE
  8
0
  6
CONTINUOUS
 66
     1
 40
0.000000
 41
0.000000
  0
VERTEX
  8
0
  6
CONTINUOUS
 10
4.217400
 20
1.735360
  0
VERTEX
  8
0
  6
CONTINUOUS
 10
4.220920
 20
2.470600
  0
VERTEX
  8
0
  6
CONTINUOUS
 10
4.273280
 20
2.467520
  0
VERTEX
  8
0
  6
CONTINUOUS
 10
4.269760
 20
1.732280
  0
VERTEX
  8
0
  6
CONTINUOUS
 10
4.217400
 20
1.735360
  0
SEQEND
  8
0
  0
SOLID
  8
0
 62
    15
 10
4.269760
 20
1.732280
 11
4.273280
 21
2.467520
 12
4.328720
 22
1.729200
 13
4.332240
 23
2.464880
  0
POLYLINE
  8
0
  6
CONTINUOUS
 66
     1
 40
0.000000
 41
0.000000
  0
VERTEX
  8
0
  6
CONTINUOUS
 10
4.269760
 20
1.732280
  0
VERTEX
  8
0
  6
CONTINUOUS
 10
4.273280
 20
2.467520
  0
VERTEX
  8
0
  6
CONTINUOUS
 10
4.332240
 20
2.464880
  0
VERTEX
  8
0
  6
CONTINUOUS
 10
4.328720
 20
1.729200
  0
VERTEX
  8
0
  6
CONTINUOUS
 10
4.269760
 20
1.732280
  0
SEQEND
  8
0
  0
SOLID
  8
0
 62
    15
 10
4.328720
 20
1.729200
 11
4.332240
 21
2.464880
 12
4.394720
 22
1.727440
 13
4.398240
 23
2.462680
  0
POLYLINE
  8
0
  6
CONTINUOUS
 66
     1
 40
0.000000
 41
0.000000
  0
VERTEX
  8
0
  6
CONTINUOUS
 10
4.328720
 20
1.729200
  0
VERTEX
  8
0
  6
CONTINUOUS
 10
4.332240
 20
2.464880
  0
VERTEX
  8
0
  6
CONTINUOUS
 10
4.398240
 20
2.462680
  0
VERTEX
  8
0
  6
CONTINUOUS
 10
4.394720
 20
1.727440
  0
VERTEX
  8
0
  6
CONTINUOUS
 10
4.328720
 20
1.729200
  0
SEQEND
  8
0
  0
SOLID
  8
0
 62
    15
 10
4.394720
 20
1.727440
 11
4.398240
 21
2.462680
 12
4.468640
 22
1.726120
 13
4.472160
 23
2.461800
  0
POLYLINE
  8
0
  6
CONTINUOUS
 66
     1
 40
0.000000
 41
0.000000
  0
VERTEX
  8
0
  6
CONTINUOUS
 10
4.394720
 20
1.727440
  0
VERTEX
  8
0
  6
CONTINUOUS
 10
4.398240
 20
2.462680
  0
VERTEX
  8
0
  6
CONTINUOUS
 10
4.472160
 20
2.461800
  0
VERTEX
  8
0
  6
CONTINUOUS
 10
4.468640
 20
1.726120
  0
VERTEX
  8
0
  6
CONTINUOUS
 10
4.394720
 20
1.727440
  0
SEQEND
  8
0
  0
SOLID
  8
0
 62
    15
 10
4.468640
 20
1.726120
 11
4.472160
 21
2.461800
 12
4.551360
 22
1.726120
 13
4.554440
 23
2.461360
  0
POLYLINE
  8
0
  6
CONTINUOUS
 66
     1
 40
0.000000
 41
0.000000
  0
VERTEX
  8
0
  6
CONTINUOUS
 10
4.468640
 20
1.726120
  0
VERTEX
  8
0
  6
CONTINUOUS
 10
4.472160
 20
2.461800
  0
VERTEX
  8
0
  6
CONTINUOUS
 10
4.554440
 20
2.461360
  0
VERTEX
  8
0
  6
CONTINUOUS
 10
4.551360
 20
1.726120
  0
VERTEX
  8
0
  6
CONTINUOUS
 10
4.468640
 20
1.726120
  0
SEQEND
  8
0
  0
SOLID
  8
0
 62
    15
 10
7.400800
 20
1.725680
 11
7.404320
 21
2.460920
 12
7.400800
 22
1.605120
 13
7.404320
 23
2.340360
  0
POLYLINE
  8
0
  6
CONTINUOUS
 66
     1
 40
0.000000
 41
0.000000
  0
VERTEX
  8
0
  6
CONTINUOUS
 10
7.400800
 20
1.725680
  0
VERTEX
  8
0
  6
CONTINUOUS
 10
7.404320
 20
2.460920
  0
VERTEX
  8
0
  6
CONTINUOUS
 10
7.404320
 20
2.340360
  0
VERTEX
  8
0
  6
CONTINUOUS
 10
7.400800
 20
1.605120
  0
VERTEX
  8
0
  6
CONTINUOUS
 10
7.400800
 20
1.725680
  0
SEQEND
  8
0
  0
SOLID
  8
0
 62
    15
 10
7.400800
 20
1.605120
 11
7.404320
 21
2.340360
 12
7.399480
 22
1.686960
 13
7.403000
 23
2.422640
  0
POLYLINE
  8
0
  6
CONTINUOUS
 66
     1
 40
0.000000
 41
0.000000
  0
VERTEX
  8
0
  6
CONTINUOUS
 10
7.400800
 20
1.605120
  0
VERTEX
  8
0
  6
CONTINUOUS
 10
7.404320
 20
2.340360
  0
VERTEX
  8
0
  6
CONTINUOUS
 10
7.403000
 20
2.422640
  0
VERTEX
  8
0
  6
CONTINUOUS
 10
7.399480
 20
1.686960
  0
VERTEX
  8
0
  6
CONTINUOUS
 10
7.400800
 20
1.605120
  0
SEQEND
  8
0
  0
SOLID
  8
0
 62
    15
 10
7.399480
 20
1.686960
 11
7.403000
 21
2.422640
 12
7.399480
 22
0.898920
 13
7.403000
 23
1.634160
  0
POLYLINE
  8
0
  6
CONTINUOUS
 66
     1
 40
0.000000
 41
0.000000
  0
VERTEX
  8
0
  6
CONTINUOUS
 10
7.399480
 20
1.686960
  0
VERTEX
  8
0
  6
CONTINUOUS
 10
7.403000
 20
2.422640
  0
VERTEX
  8
0
  6
CONTINUOUS
 10
7.403000
 20
1.634160
  0
VERTEX
  8
0
  6
CONTINUOUS
 10
7.399480
 20
0.898920
  0
VERTEX
  8
0
  6
CONTINUOUS
 10
7.399480
 20
1.686960
  0
SEQEND
  8
0
  0
SOLID
  8
0
 62
    15
 10
4.618680
 20
1.725680
 11
4.621760
 21
2.460920
 12
7.400800
 22
1.725680
 13
7.404320
 23
2.460920
  0
POLYLINE
  8
0
  6
CONTINUOUS
 66
     1
 40
0.000000
 41
0.000000
  0
VERTEX
  8
0
  6
CONTINUOUS
 10
4.618680
 20
1.725680
  0
VERTEX
  8
0
  6
CONTINUOUS
 10
4.621760
 20
2.460920
  0
VERTEX
  8
0
  6
CONTINUOUS
 10
7.404320
 20
2.460920
  0
VERTEX
  8
0
  6
CONTINUOUS
 10
7.400800
 20
1.725680
  0
VERTEX
  8
0
  6
CONTINUOUS
 10
4.618680
 20
1.725680
  0
SEQEND
  8
0
  0
SOLID
  8
0
 62
    15
 10
4.642880
 20
1.726560
 11
4.646400
 21
2.461800
 12
4.618680
 22
1.725680
 13
4.621760
 23
2.460920
  0
POLYLINE
  8
0
  6
CONTINUOUS
 66
     1
 40
0.000000
 41
0.000000
  0
VERTEX
  8
0
  6
CONTINUOUS
 10
4.642880
 20
1.726560
  0
VERTEX
  8
0
  6
CONTINUOUS
 10
4.646400
 20
2.461800
  0
VERTEX
  8
0
  6
CONTINUOUS
 10
4.621760
 20
2.460920
  0
VERTEX
  8
0
  6
CONTINUOUS
 10
4.618680
 20
1.725680
  0
VERTEX
  8
0
  6
CONTINUOUS
 10
4.642880
 20
1.726560
  0
SEQEND
  8
0
  0
SOLID
  8
0
 62
    15
 10
4.551360
 20
1.726120
 11
4.554440
 21
2.461360
 12
4.642880
 22
1.726560
 13
4.646400
 23
2.461800
  0
POLYLINE
  8
0
  6
CONTINUOUS
 66
     1
 40
0.000000
 41
0.000000
  0
VERTEX
  8
0
  6
CONTINUOUS
 10
4.551360
 20
1.726120
  0
VERTEX
  8
0
  6
CONTINUOUS
 10
4.554440
 20
2.461360
  0
VERTEX
  8
0
  6
CONTINUOUS
 10
4.646400
 20
2.461800
  0
VERTEX
  8
0
  6
CONTINUOUS
 10
4.642880
 20
1.726560
  0
VERTEX
  8
0
  6
CONTINUOUS
 10
4.551360
 20
1.726120
  0
SEQEND
  8
0
  0
SOLID
  8
0
 62
    15
 10
7.399480
 20
0.898920
 11
7.403000
 21
1.634160
 12
2.416920
 22
0.894520
 13
2.420000
 23
1.629760
  0
POLYLINE
  8
0
  6
CONTINUOUS
 66
     1
 40
0.000000
 41
0.000000
  0
VERTEX
  8
0
  6
CONTINUOUS
 10
7.399480
 20
0.898920
  0
VERTEX
  8
0
  6
CONTINUOUS
 10
7.403000
 20
1.634160
  0
VERTEX
  8
0
  6
CONTINUOUS
 10
2.420000
 20
1.629760
  0
VERTEX
  8
0
  6
CONTINUOUS
 10
2.416920
 20
0.894520
  0
VERTEX
  8
0
  6
CONTINUOUS
 10
7.399480
 20
0.898920
  0
SEQEND
  8
0
  0
SOLID
  8
0
 62
    15
 10
2.416040
 20
1.884960
 11
2.419560
 21
2.620200
 12
3.135880
 22
1.884960
 13
3.139400
 23
2.620200
  0
POLYLINE
  8
0
  6
CONTINUOUS
 66
     1
 40
0.000000
 41
0.000000
  0
VERTEX
  8
0
  6
CONTINUOUS
 10
2.416040
 20
1.884960
  0
VERTEX
  8
0
  6
CONTINUOUS
 10
2.419560
 20
2.620200
  0
VERTEX
  8
0
  6
CONTINUOUS
 10
3.139400
 20
2.620200
  0
VERTEX
  8
0
  6
CONTINUOUS
 10
3.135880
 20
1.884960
  0
VERTEX
  8
0
  6
CONTINUOUS
 10
2.416040
 20
1.884960
  0
SEQEND
  8
0
  0
POLYLINE
  8
0
  6
CONTINUOUS
 66
     1
 40
0.000000
 41
0.000000
  0
VERTEX
  8
0
  6
CONTINUOUS
 10
2.416040
 20
1.884960
  0
VERTEX
  8
0
  6
CONTINUOUS
 10
3.135880
 20
1.884960
  0
VERTEX
  8
0
  6
CONTINUOUS
 10
3.135880
 20
1.821160
  0
VERTEX
  8
0
  6
CONTINUOUS
 10
3.141160
 20
1.820720
  0
VERTEX
  8
0
  6
CONTINUOUS
 10
3.240160
 20
1.825120
  0
VERTEX
  8
0
  6
CONTINUOUS
 10
3.329480
 20
1.827760
  0
VERTEX
  8
0
  6
CONTINUOUS
 10
3.410000
 20
1.829960
  0
VERTEX
  8
0
  6
CONTINUOUS
 10
3.482160
 20
1.830400
  0
VERTEX
  8
0
  6
CONTINUOUS
 10
3.546400
 20
1.830400
  0
VERTEX
  8
0
  6
CONTINUOUS
 10
3.603600
 20
1.829520
  0
VERTEX
  8
0
  6
CONTINUOUS
 10
3.654640
 20
1.827760
  0
VERTEX
  8
0
  6
CONTINUOUS
 10
3.699520
 20
1.825560
  0
VERTEX
  8
0
  6
CONTINUOUS
 10
3.773880
 20
1.818520
  0
VERTEX
  8
0
  6
CONTINUOUS
 10
3.832840
 20
1.809720
  0
VERTEX
  8
0
  6
CONTINUOUS
 10
3.880800
 20
1.799160
  0
VERTEX
  8
0
  6
CONTINUOUS
 10
3.922600
 20
1.787720
  0
VERTEX
  8
0
  6
CONTINUOUS
 10
4.008400
 20
1.764400
  0
VERTEX
  8
0
  6
CONTINUOUS
 10
4.062520
 20
1.753400
  0
VERTEX
  8
0
  6
CONTINUOUS
 10
4.130720
 20
1.743280
  0
VERTEX
  8
0
  6
CONTINUOUS
 10
4.171200
 20
1.739320
  0
VERTEX
  8
0
  6
CONTINUOUS
 10
4.217400
 20
1.735360
  0
VERTEX
  8
0
  6
CONTINUOUS
 10
4.269760
 20
1.732280
  0
VERTEX
  8
0
  6
CONTINUOUS
 10
4.328720
 20
1.729200
  0
VERTEX
  8
0
  6
CONTINUOUS
 10
4.394720
 20
1.727440
  0
VERTEX
  8
0
  6
CONTINUOUS
 10
4.468640
 20
1.726120
  0
VERTEX
  8
0
  6
CONTINUOUS
 10
4.551360
 20
1.726120
  0
VERTEX
  8
0
  6
CONTINUOUS
 10
4.642880
 20
1.726560
  0
VERTEX
  8
0
  6
CONTINUOUS
 10
4.618680
 20
1.725680
  0
VERTEX
  8
0
  6
CONTINUOUS
 10
7.400800
 20
1.725680
  0
VERTEX
  8
0
  6
CONTINUOUS
 10
7.400800
 20
1.605120
  0
VERTEX
  8
0
  6
CONTINUOUS
 10
7.399480
 20
1.686960
  0
VERTEX
  8
0
  6
CONTINUOUS
 10
7.399480
 20
0.898920
  0
VERTEX
  8
0
  6
CONTINUOUS
 10
2.416920
 20
0.894520
  0
VERTEX
  8
0
  6
CONTINUOUS
 10
2.416040
 20
1.884960
  0
SEQEND
  8
0
  0
SOLID
  8
0
 62
    15
 10
1.816320
 20
2.753520
 11
1.814560
 21
3.501080
 12
1.875720
 22
2.680920
 13
1.873960
 23
3.428920
  0
POLYLINE
  8
0
  6
CONTINUOUS
 66
     1
 40
0.000000
 41
0.000000
  0
VERTEX
  8
0
  6
CONTINUOUS
 10
1.816320
 20
2.753520
  0
VERTEX
  8
0
  6
CONTINUOUS
 10
1.814560
 20
3.501080
  0
VERTEX
  8
0
  6
CONTINUOUS
 10
1.873960
 20
3.428920
  0
VERTEX
  8
0
  6
CONTINUOUS
 10
1.875720
 20
2.680920
  0
VERTEX
  8
0
  6
CONTINUOUS
 10
1.816320
 20
2.753520
  0
SEQEND
  8
0
  0
SOLID
  8
0
 62
    15
 10
0.985160
 20
0.894080
 11
0.983400
 21
1.642080
 12
0.985160
 22
2.410320
 13
0.983400
 23
3.157880
  0
POLYLINE
  8
0
  6
CONTINUOUS
 66
     1
 40
0.000000
 41
0.000000
  0
VERTEX
  8
0
  6
CONTINUOUS
 10
0.985160
 20
0.894080
  0
VERTEX
  8
0
  6
CONTINUOUS
 10
0.983400
 20
1.642080
  0
VERTEX
  8
0
  6
CONTINUOUS
 10
0.983400
 20
3.157880
  0
VERTEX
  8
0
  6
CONTINUOUS
 10
0.985160
 20
2.410320
  0
VERTEX
  8
0
  6
CONTINUOUS
 10
0.985160
 20
0.894080
  0
SEQEND
  8
0
  0
SOLID
  8
0
 62
    15
 10
0.993520
 20
2.506680
 11
0.991760
 21
3.254680
 12
1.022120
 22
2.598200
 13
1.020360
 23
3.345760
  0
POLYLINE
  8
0
  6
CONTINUOUS
 66
     1
 40
0.000000
 41
0.000000
  0
VERTEX
  8
0
  6
CONTINUOUS
 10
0.993520
 20
2.506680
  0
VERTEX
  8
0
  6
CONTINUOUS
 10
0.991760
 20
3.254680
  0
VERTEX
  8
0
  6
CONTINUOUS
 10
1.020360
 20
3.345760
  0
VERTEX
  8
0
  6
CONTINUOUS
 10
1.022120
 20
2.598200
  0
VERTEX
  8
0
  6
CONTINUOUS
 10
0.993520
 20
2.506680
  0
SEQEND
  8
0
  0
SOLID
  8
0
 62
    15
 10
1.022120
 20
2.598200
 11
1.020360
 21
3.345760
 12
1.067440
 22
2.680920
 13
1.065680
 23
3.428920
  0
POLYLINE
  8
0
  6
CONTINUOUS
 66
     1
 40
0.000000
 41
0.000000
  0
VERTEX
  8
0
  6
CONTINUOUS
 10
1.022120
 20
2.598200
  0
VERTEX
  8
0
  6
CONTINUOUS
 10
1.020360
 20
3.345760
  0
VERTEX
  8
0
  6
CONTINUOUS
 10
1.065680
 20
3.428920
  0
VERTEX
  8
0
  6
CONTINUOUS
 10
1.067440
 20
2.680920
  0
VERTEX
  8
0
  6
CONTINUOUS
 10
1.022120
 20
2.598200
  0
SEQEND
  8
0
  0
SOLID
  8
0
 62
    15
 10
1.067440
 20
2.680920
 11
1.065680
 21
3.428920
 12
1.127280
 22
2.753520
 13
1.125520
 23
3.501080
  0
POLYLINE
  8
0
  6
CONTINUOUS
 66
     1
 40
0.000000
 41
0.000000
  0
VERTEX
  8
0
  6
CONTINUOUS
 10
1.067440
 20
2.680920
  0
VERTEX
  8
0
  6
CONTINUOUS
 10
1.065680
 20
3.428920
  0
VERTEX
  8
0
  6
CONTINUOUS
 10
1.125520
 20
3.501080
  0
VERTEX
  8
0
  6
CONTINUOUS
 10
1.127280
 20
2.753520
  0
VERTEX
  8
0
  6
CONTINUOUS
 10
1.067440
 20
2.680920
  0
SEQEND
  8
0
  0
SOLID
  8
0
 62
    15
 10
1.127280
 20
2.753520
 11
1.125520
 21
3.501080
 12
1.199440
 22
2.813360
 13
1.197680
 23
3.560920
  0
POLYLINE
  8
0
  6
CONTINUOUS
 66
     1
 40
0.000000
 41
0.000000
  0
VERTEX
  8
0
  6
CONTINUOUS
 10
1.127280
 20
2.753520
  0
VERTEX
  8
0
  6
CONTINUOUS
 10
1.125520
 20
3.501080
  0
VERTEX
  8
0
  6
CONTINUOUS
 10
1.197680
 20
3.560920
  0
VERTEX
  8
0
  6
CONTINUOUS
 10
1.199440
 20
2.813360
  0
VERTEX
  8
0
  6
CONTINUOUS
 10
1.127280
 20
2.753520
  0
SEQEND
  8
0
  0
SOLID
  8
0
 62
    15
 10
1.199440
 20
2.813360
 11
1.197680
 21
3.560920
 12
1.282160
 22
2.858240
 13
1.280400
 23
3.606240
  0
POLYLINE
  8
0
  6
CONTINUOUS
 66
     1
 40
0.000000
 41
0.000000
  0
VERTEX
  8
0
  6
CONTINUOUS
 10
1.199440
 20
2.813360
  0
VERTEX
  8
0
  6
CONTINUOUS
 10
1.197680
 20
3.560920
  0
VERTEX
  8
0
  6
CONTINUOUS
 10
1.280400
 20
3.606240
  0
VERTEX
  8
0
  6
CONTINUOUS
 10
1.282160
 20
2.858240
  0
VERTEX
  8
0
  6
CONTINUOUS
 10
1.199440
 20
2.813360
  0
SEQEND
  8
0
  0
SOLID
  8
0
 62
    15
 10
1.282160
 20
2.858240
 11
1.280400
 21
3.606240
 12
1.373680
 22
2.886840
 13
1.371920
 23
3.634840
  0
POLYLINE
  8
0
  6
CONTINUOUS
 66
     1
 40
0.000000
 41
0.000000
  0
VERTEX
  8
0
  6
CONTINUOUS
 10
1.282160
 20
2.858240
  0
VERTEX
  8
0
  6
CONTINUOUS
 10
1.280400
 20
3.606240
  0
VERTEX
  8
0
  6
CONTINUOUS
 10
1.371920
 20
3.634840
  0
VERTEX
  8
0
  6
CONTINUOUS
 10
1.373680
 20
2.886840
  0
VERTEX
  8
0
  6
CONTINUOUS
 10
1.282160
 20
2.858240
  0
SEQEND
  8
0
  0
SOLID
  8
0
 62
    15
 10
1.373680
 20
2.886840
 11
1.371920
 21
3.634840
 12
1.471800
 22
2.896960
 13
1.470040
 23
3.644520
  0
POLYLINE
  8
0
  6
CONTINUOUS
 66
     1
 40
0.000000
 41
0.000000
  0
VERTEX
  8
0
  6
CONTINUOUS
 10
1.373680
 20
2.886840
  0
VERTEX
  8
0
  6
CONTINUOUS
 10
1.371920
 20
3.634840
  0
VERTEX
  8
0
  6
CONTINUOUS
 10
1.470040
 20
3.644520
  0
VERTEX
  8
0
  6
CONTINUOUS
 10
1.471800
 20
2.896960
  0
VERTEX
  8
0
  6
CONTINUOUS
 10
1.373680
 20
2.886840
  0
SEQEND
  8
0
  0
SOLID
  8
0
 62
    15
 10
1.471800
 20
2.896960
 11
1.470040
 21
3.644520
 12
1.569480
 22
2.886840
 13
1.567720
 23
3.634840
  0
POLYLINE
  8
0
  6
CONTINUOUS
 66
     1
 40
0.000000
 41
0.000000
  0
VERTEX
  8
0
  6
CONTINUOUS
 10
1.471800
 20
2.896960
  0
VERTEX
  8
0
  6
CONTINUOUS
 10
1.470040
 20
3.644520
  0
VERTEX
  8
0
  6
CONTINUOUS
 10
1.567720
 20
3.634840
  0
VERTEX
  8
0
  6
CONTINUOUS
 10
1.569480
 20
2.886840
  0
VERTEX
  8
0
  6
CONTINUOUS
 10
1.471800
 20
2.896960
  0
SEQEND
  8
0
  0
SOLID
  8
0
 62
    15
 10
1.569480
 20
2.886840
 11
1.567720
 21
3.634840
 12
1.661000
 22
2.858240
 13
1.659240
 23
3.606240
  0
POLYLINE
  8
0
  6
CONTINUOUS
 66
     1
 40
0.000000
 41
0.000000
  0
VERTEX
  8
0
  6
CONTINUOUS
 10
1.569480
 20
2.886840
  0
VERTEX
  8
0
  6
CONTINUOUS
 10
1.567720
 20
3.634840
  0
VERTEX
  8
0
  6
CONTINUOUS
 10
1.659240
 20
3.606240
  0
VERTEX
  8
0
  6
CONTINUOUS
 10
1.661000
 20
2.858240
  0
VERTEX
  8
0
  6
CONTINUOUS
 10
1.569480
 20
2.886840
  0
SEQEND
  8
0
  0
SOLID
  8
0
 62
    15
 10
1.661000
 20
2.858240
 11
1.659240
 21
3.606240
 12
1.743720
 22
2.813360
 13
1.741960
 23
3.560920
  0
POLYLINE
  8
0
  6
CONTINUOUS
 66
     1
 40
0.000000
 41
0.000000
  0
VERTEX
  8
0
  6
CONTINUOUS
 10
1.661000
 20
2.858240
  0
VERTEX
  8
0
  6
CONTINUOUS
 10
1.659240
 20
3.606240
  0
VERTEX
  8
0
  6
CONTINUOUS
 10
1.741960
 20
3.560920
  0
VERTEX
  8
0
  6
CONTINUOUS
 10
1.743720
 20
2.813360
  0
VERTEX
  8
0
  6
CONTINUOUS
 10
1.661000
 20
2.858240
  0
SEQEND
  8
0
  0
SOLID
  8
0
 62
    15
 10
1.743720
 20
2.813360
 11
1.741960
 21
3.560920
 12
1.816320
 22
2.753520
 13
1.814560
 23
3.501080
  0
POLYLINE
  8
0
  6
CONTINUOUS
 66
     1
 40
0.000000
 41
0.000000
  0
VERTEX
  8
0
  6
CONTINUOUS
 10
1.743720
 20
2.813360
  0
VERTEX
  8
0
  6
CONTINUOUS
 10
1.741960
 20
3.560920
  0
VERTEX
  8
0
  6
CONTINUOUS
 10
1.814560
 20
3.501080
  0
VERTEX
  8
0
  6
CONTINUOUS
 10
1.816320
 20
2.753520
  0
VERTEX
  8
0
  6
CONTINUOUS
 10
1.743720
 20
2.813360
  0
SEQEND
  8
0
  0
SOLID
  8
0
 62
    15
 10
0.983840
 20
2.409000
 11
0.982080
 21
3.156560
 12
0.993520
 22
2.506680
 13
0.991760
 23
3.254680
  0
POLYLINE
  8
0
  6
CONTINUOUS
 66
     1
 40
0.000000
 41
0.000000
  0
VERTEX
  8
0
  6
CONTINUOUS
 10
0.983840
 20
2.409000
  0
VERTEX
  8
0
  6
CONTINUOUS
 10
0.982080
 20
3.156560
  0
VERTEX
  8
0
  6
CONTINUOUS
 10
0.991760
 20
3.254680
  0
VERTEX
  8
0
  6
CONTINUOUS
 10
0.993520
 20
2.506680
  0
VERTEX
  8
0
  6
CONTINUOUS
 10
0.983840
 20
2.409000
  0
SEQEND
  8
0
  0
SOLID
  8
0
 62
    15
 10
1.875720
 20
2.680920
 11
1.873960
 21
3.428920
 12
1.921040
 22
2.598200
 13
1.919280
 23
3.345760
  0
POLYLINE
  8
0
  6
CONTINUOUS
 66
     1
 40
0.000000
 41
0.000000
  0
VERTEX
  8
0
  6
CONTINUOUS
 10
1.875720
 20
2.680920
  0
VERTEX
  8
0
  6
CONTINUOUS
 10
1.873960
 20
3.428920
  0
VERTEX
  8
0
  6
CONTINUOUS
 10
1.919280
 20
3.345760
  0
VERTEX
  8
0
  6
CONTINUOUS
 10
1.921040
 20
2.598200
  0
VERTEX
  8
0
  6
CONTINUOUS
 10
1.875720
 20
2.680920
  0
SEQEND
  8
0
  0
SOLID
  8
0
 62
    15
 10
1.921040
 20
2.598200
 11
1.919280
 21
3.345760
 12
1.949640
 22
2.506680
 13
1.947880
 23
3.254680
  0
POLYLINE
  8
0
  6
CONTINUOUS
 66
     1
 40
0.000000
 41
0.000000
  0
VERTEX
  8
0
  6
CONTINUOUS
 10
1.921040
 20
2.598200
  0
VERTEX
  8
0
  6
CONTINUOUS
 10
1.919280
 20
3.345760
  0
VERTEX
  8
0
  6
CONTINUOUS
 10
1.947880
 20
3.254680
  0
VERTEX
  8
0
  6
CONTINUOUS
 10
1.949640
 20
2.506680
  0
VERTEX
  8
0
  6
CONTINUOUS
 10
1.921040
 20
2.598200
  0
SEQEND
  8
0
  0
SOLID
  8
0
 62
    15
 10
1.949640
 20
2.506680
 11
1.947880
 21
3.254680
 12
1.959760
 22
2.409000
 13
1.958000
 23
3.156560
  0
POLYLINE
  8
0
  6
CONTINUOUS
 66
     1
 40
0.000000
 41
0.000000
  0
VERTEX
  8
0
  6
CONTINUOUS
 10
1.949640
 20
2.506680
  0
VERTEX
  8
0
  6
CONTINUOUS
 10
1.947880
 20
3.254680
  0
VERTEX
  8
0
  6
CONTINUOUS
 10
1.958000
 20
3.156560
  0
VERTEX
  8
0
  6
CONTINUOUS
 10
1.959760
 20
2.409000
  0
VERTEX
  8
0
  6
CONTINUOUS
 10
1.949640
 20
2.506680
  0
SEQEND
  8
0
  0
SOLID
  8
0
 62
    15
 10
2.198240
 20
2.401080
 11
2.196480
 21
3.148640
 12
2.203960
 22
2.344320
 13
2.202200
 23
3.092320
  0
POLYLINE
  8
0
  6
CONTINUOUS
 66
     1
 40
0.000000
 41
0.000000
  0
VERTEX
  8
0
  6
CONTINUOUS
 10
2.198240
 20
2.401080
  0
VERTEX
  8
0
  6
CONTINUOUS
 10
2.196480
 20
3.148640
  0
VERTEX
  8
0
  6
CONTINUOUS
 10
2.202200
 20
3.092320
  0
VERTEX
  8
0
  6
CONTINUOUS
 10
2.203960
 20
2.344320
  0
VERTEX
  8
0
  6
CONTINUOUS
 10
2.198240
 20
2.401080
  0
SEQEND
  8
0
  0
SOLID
  8
0
 62
    15
 10
1.959760
 20
2.409000
 11
1.958000
 21
3.156560
 12
2.198240
 22
2.409000
 13
2.196480
 23
3.156560
  0
POLYLINE
  8
0
  6
CONTINUOUS
 66
     1
 40
0.000000
 41
0.000000
  0
VERTEX
  8
0
  6
CONTINUOUS
 10
1.959760
 20
2.409000
  0
VERTEX
  8
0
  6
CONTINUOUS
 10
1.958000
 20
3.156560
  0
VERTEX
  8
0
  6
CONTINUOUS
 10
2.196480
 20
3.156560
  0
VERTEX
  8
0
  6
CONTINUOUS
 10
2.198240
 20
2.409000
  0
VERTEX
  8
0
  6
CONTINUOUS
 10
1.959760
 20
2.409000
  0
SEQEND
  8
0
  0
SOLID
  8
0
 62
    15
 10
2.203960
 20
2.344320
 11
2.202200
 21
3.092320
 12
2.220240
 22
2.283600
 13
2.218480
 23
3.031160
  0
POLYLINE
  8
0
  6
CONTINUOUS
 66
     1
 40
0.000000
 41
0.000000
  0
VERTEX
  8
0
  6
CONTINUOUS
 10
2.203960
 20
2.344320
  0
VERTEX
  8
0
  6
CONTINUOUS
 10
2.202200
 20
3.092320
  0
VERTEX
  8
0
  6
CONTINUOUS
 10
2.218480
 20
3.031160
  0
VERTEX
  8
0
  6
CONTINUOUS
 10
2.220240
 20
2.283600
  0
VERTEX
  8
0
  6
CONTINUOUS
 10
2.203960
 20
2.344320
  0
SEQEND
  8
0
  0
SOLID
  8
0
 62
    15
 10
2.220240
 20
2.283600
 11
2.218480
 21
3.031160
 12
2.247960
 22
2.221560
 13
2.246200
 23
2.969120
  0
POLYLINE
  8
0
  6
CONTINUOUS
 66
     1
 40
0.000000
 41
0.000000
  0
VERTEX
  8
0
  6
CONTINUOUS
 10
2.220240
 20
2.283600
  0
VERTEX
  8
0
  6
CONTINUOUS
 10
2.218480
 20
3.031160
  0
VERTEX
  8
0
  6
CONTINUOUS
 10
2.246200
 20
2.969120
  0
VERTEX
  8
0
  6
CONTINUOUS
 10
2.247960
 20
2.221560
  0
VERTEX
  8
0
  6
CONTINUOUS
 10
2.220240
 20
2.283600
  0
SEQEND
  8
0
  0
SOLID
  8
0
 62
    15
 10
2.247960
 20
2.221560
 11
2.246200
 21
2.969120
 12
2.287560
 22
2.162160
 13
2.285800
 23
2.909720
  0
POLYLINE
  8
0
  6
CONTINUOUS
 66
     1
 40
0.000000
 41
0.000000
  0
VERTEX
  8
0
  6
CONTINUOUS
 10
2.247960
 20
2.221560
  0
VERTEX
  8
0
  6
CONTINUOUS
 10
2.246200
 20
2.969120
  0
VERTEX
  8
0
  6
CONTINUOUS
 10
2.285800
 20
2.909720
  0
VERTEX
  8
0
  6
CONTINUOUS
 10
2.287560
 20
2.162160
  0
VERTEX
  8
0
  6
CONTINUOUS
 10
2.247960
 20
2.221560
  0
SEQEND
  8
0
  0
SOLID
  8
0
 62
    15
 10
2.287560
 20
2.162160
 11
2.285800
 21
2.909720
 12
2.339920
 22
2.108480
 13
2.338600
 23
2.856040
  0
POLYLINE
  8
0
  6
CONTINUOUS
 66
     1
 40
0.000000
 41
0.000000
  0
VERTEX
  8
0
  6
CONTINUOUS
 10
2.287560
 20
2.162160
  0
VERTEX
  8
0
  6
CONTINUOUS
 10
2.285800
 20
2.909720
  0
VERTEX
  8
0
  6
CONTINUOUS
 10
2.338600
 20
2.856040
  0
VERTEX
  8
0
  6
CONTINUOUS
 10
2.339920
 20
2.108480
  0
VERTEX
  8
0
  6
CONTINUOUS
 10
2.287560
 20
2.162160
  0
SEQEND
  8
0
  0
SOLID
  8
0
 62
    15
 10
2.339920
 20
2.108480
 11
2.338600
 21
2.856040
 12
2.405920
 22
2.064480
 13
2.404160
 23
2.812040
  0
POLYLINE
  8
0
  6
CONTINUOUS
 66
     1
 40
0.000000
 41
0.000000
  0
VERTEX
  8
0
  6
CONTINUOUS
 10
2.339920
 20
2.108480
  0
VERTEX
  8
0
  6
CONTINUOUS
 10
2.338600
 20
2.856040
  0
VERTEX
  8
0
  6
CONTINUOUS
 10
2.404160
 20
2.812040
  0
VERTEX
  8
0
  6
CONTINUOUS
 10
2.405920
 20
2.064480
  0
VERTEX
  8
0
  6
CONTINUOUS
 10
2.339920
 20
2.108480
  0
SEQEND
  8
0
  0
SOLID
  8
0
 62
    15
 10
2.405920
 20
2.064480
 11
2.404160
 21
2.812040
 12
2.486000
 22
2.033240
 13
2.484240
 23
2.780800
  0
POLYLINE
  8
0
  6
CONTINUOUS
 66
     1
 40
0.000000
 41
0.000000
  0
VERTEX
  8
0
  6
CONTINUOUS
 10
2.405920
 20
2.064480
  0
VERTEX
  8
0
  6
CONTINUOUS
 10
2.404160
 20
2.812040
  0
VERTEX
  8
0
  6
CONTINUOUS
 10
2.484240
 20
2.780800
  0
VERTEX
  8
0
  6
CONTINUOUS
 10
2.486000
 20
2.033240
  0
VERTEX
  8
0
  6
CONTINUOUS
 10
2.405920
 20
2.064480
  0
SEQEND
  8
0
  0
SOLID
  8
0
 62
    15
 10
2.486000
 20
2.033240
 11
2.484240
 21
2.780800
 12
2.581040
 22
2.018280
 13
2.579280
 23
2.765840
  0
POLYLINE
  8
0
  6
CONTINUOUS
 66
     1
 40
0.000000
 41
0.000000
  0
VERTEX
  8
0
  6
CONTINUOUS
 10
2.486000
 20
2.033240
  0
VERTEX
  8
0
  6
CONTINUOUS
 10
2.484240
 20
2.780800
  0
VERTEX
  8
0
  6
CONTINUOUS
 10
2.579280
 20
2.765840
  0
VERTEX
  8
0
  6
CONTINUOUS
 10
2.581040
 20
2.018280
  0
VERTEX
  8
0
  6
CONTINUOUS
 10
2.486000
 20
2.033240
  0
SEQEND
  8
0
  0
SOLID
  8
0
 62
    15
 10
2.581040
 20
2.018280
 11
2.579280
 21
2.765840
 12
2.581920
 22
2.019160
 13
2.580160
 23
2.766720
  0
POLYLINE
  8
0
  6
CONTINUOUS
 66
     1
 40
0.000000
 41
0.000000
  0
VERTEX
  8
0
  6
CONTINUOUS
 10
2.581040
 20
2.018280
  0
VERTEX
  8
0
  6
CONTINUOUS
 10
2.579280
 20
2.765840
  0
VERTEX
  8
0
  6
CONTINUOUS
 10
2.580160
 20
2.766720
  0
VERTEX
  8
0
  6
CONTINUOUS
 10
2.581920
 20
2.019160
  0
VERTEX
  8
0
  6
CONTINUOUS
 10
2.581040
 20
2.018280
  0
SEQEND
  8
0
  0
POLYLINE
  8
0
  6
CONTINUOUS
 66
     1
 40
0.000000
 41
0.000000
  0
VERTEX
  8
0
  6
CONTINUOUS
 10
2.412960
 20
0.894080
  0
VERTEX
  8
0
  6
CONTINUOUS
 10
0.985160
 20
0.894080
  0
VERTEX
  8
0
  6
CONTINUOUS
 10
0.985160
 20
2.410320
  0
VERTEX
  8
0
  6
CONTINUOUS
 10
0.983840
 20
2.409000
  0
VERTEX
  8
0
  6
CONTINUOUS
 10
0.993520
 20
2.506680
  0
VERTEX
  8
0
  6
CONTINUOUS
 10
1.022120
 20
2.598200
  0
VERTEX
  8
0
  6
CONTINUOUS
 10
1.067440
 20
2.680920
  0
VERTEX
  8
0
  6
CONTINUOUS
 10
1.127280
 20
2.753520
  0
VERTEX
  8
0
  6
CONTINUOUS
 10
1.199440
 20
2.813360
  0
VERTEX
  8
0
  6
CONTINUOUS
 10
1.282160
 20
2.858240
  0
VERTEX
  8
0
  6
CONTINUOUS
 10
1.373680
 20
2.886840
  0
VERTEX
  8
0
  6
CONTINUOUS
 10
1.471800
 20
2.896960
  0
VERTEX
  8
0
  6
CONTINUOUS
 10
1.569480
 20
2.886840
  0
VERTEX
  8
0
  6
CONTINUOUS
 10
1.661000
 20
2.858240
  0
VERTEX
  8
0
  6
CONTINUOUS
 10
1.743720
 20
2.813360
  0
VERTEX
  8
0
  6
CONTINUOUS
 10
1.816320
 20
2.753520
  0
VERTEX
  8
0
  6
CONTINUOUS
 10
1.875720
 20
2.680920
  0
VERTEX
  8
0
  6
CONTINUOUS
 10
1.921040
 20
2.598200
  0
VERTEX
  8
0
  6
CONTINUOUS
 10
1.949640
 20
2.506680
  0
VERTEX
  8
0
  6
CONTINUOUS
 10
1.959760
 20
2.409000
  0
VERTEX
  8
0
  6
CONTINUOUS
 10
2.198240
 20
2.409000
  0
VERTEX
  8
0
  6
CONTINUOUS
 10
2.198240
 20
2.401080
  0
VERTEX
  8
0
  6
CONTINUOUS
 10
2.203960
 20
2.344320
  0
VERTEX
  8
0
  6
CONTINUOUS
 10
2.220240
 20
2.283600
  0
VERTEX
  8
0
  6
CONTINUOUS
 10
2.247960
 20
2.221560
  0
VERTEX
  8
0
  6
CONTINUOUS
 10
2.287560
 20
2.162160
  0
VERTEX
  8
0
  6
CONTINUOUS
 10
2.339920
 20
2.108480
  0
VERTEX
  8
0
  6
CONTINUOUS
 10
2.405920
 20
2.064480
  0
VERTEX
  8
0
  6
CONTINUOUS
 10
2.486000
 20
2.033240
  0
VERTEX
  8
0
  6
CONTINUOUS
 10
2.581040
 20
2.018280
  0
VERTEX
  8
0
  6
CONTINUOUS
 10
2.581920
 20
2.019160
  0
VERTEX
  8
0
  6
CONTINUOUS
 10
2.580160
 20
2.019160
  0
VERTEX
  8
0
  6
CONTINUOUS
 10
2.580160
 20
1.883200
  0
VERTEX
  8
0
  6
CONTINUOUS
 10
2.415160
 20
1.883200
  0
VERTEX
  8
0
  6
CONTINUOUS
 10
2.415160
 20
0.893640
  0
VERTEX
  8
0
  6
CONTINUOUS
 10
2.412960
 20
0.894080
  0
SEQEND
  8
0
  0
TEXT
  8
0
 10
1.054680
 20
0.986920
 40
0.138022
  1
A
 41
1.000000
  7
SN0
 71
     0
 72
     5
 11
1.165473
 21
0.986920
  0
TEXT
  8
0
 10
2.484240
 20
0.973720
 40
0.138022
  1
B
 41
1.000000
  7
SN0
 71
     0
 72
     5
 11
2.595033
 21
0.973720
  0
TEXT
  8
0
 10
3.547280
 20
0.606760
 40
0.138022
  1
BA  172A 2" x 1-9/16"
 41
1.000000
  7
SN0
 71
     0
 72
     5
 11
5.146672
 21
0.606760
  0
TEXT
  8
0
 10
3.547280
 20
0.414920
 40
0.138022
  1
BA  172B 1" x 5"
 41
1.000000
  7
SN0
 71
     0
 72
     5
 11
4.769246
 21
0.414920
  0
POLYLINE
  8
0
  6
CONTINUOUS
 66
     1
 40
0.000000
 41
0.000000
  0
VERTEX
  8
0
  6
CONTINUOUS
 10
2.262040
 20
6.299480
  0
VERTEX
  8
0
  6
CONTINUOUS
 10
2.981880
 20
6.299480
  0
VERTEX
  8
0
  6
CONTINUOUS
 10
2.981880
 20
6.235680
  0
VERTEX
  8
0
  6
CONTINUOUS
 10
3.216840
 20
6.243600
  0
VERTEX
  8
0
  6
CONTINUOUS
 10
3.392400
 20
6.245360
  0
VERTEX
  8
0
  6
CONTINUOUS
 10
3.500200
 20
6.242720
  0
VERTEX
  8
0
  6
CONTINUOUS
 10
3.584680
 20
6.237000
  0
VERTEX
  8
0
  6
CONTINUOUS
 10
3.651120
 20
6.229080
  0
VERTEX
  8
0
  6
CONTINUOUS
 10
3.726360
 20
6.214120
  0
VERTEX
  8
0
  6
CONTINUOUS
 10
3.854400
 20
6.178920
  0
VERTEX
  8
0
  6
CONTINUOUS
 10
3.923920
 20
6.165280
  0
VERTEX
  8
0
  6
CONTINUOUS
 10
3.996080
 20
6.155600
  0
VERTEX
  8
0
  6
CONTINUOUS
 10
4.115760
 20
6.146360
  0
VERTEX
  8
0
  6
CONTINUOUS
 10
4.240720
 20
6.141960
  0
VERTEX
  8
0
  6
CONTINUOUS
 10
4.314640
 20
6.140640
  0
VERTEX
  8
0
  6
CONTINUOUS
 10
7.246800
 20
6.140200
  0
VERTEX
  8
0
  6
CONTINUOUS
 10
7.246800
 20
6.019640
  0
VERTEX
  8
0
  6
CONTINUOUS
 10
7.245480
 20
6.101920
  0
VERTEX
  8
0
  6
CONTINUOUS
 10
7.245480
 20
5.313440
  0
VERTEX
  8
0
  6
CONTINUOUS
 10
2.262920
 20
5.309040
  0
VERTEX
  8
0
  6
CONTINUOUS
 10
2.262040
 20
6.299480
  0
SEQEND
  8
0
  0
POLYLINE
  8
0
  6
CONTINUOUS
 66
     1
 40
0.000000
 41
0.000000
  0
VERTEX
  8
0
  6
CONTINUOUS
 10
2.261160
 20
5.308160
  0
VERTEX
  8
0
  6
CONTINUOUS
 10
2.261160
 20
6.297720
  0
VERTEX
  8
0
  6
CONTINUOUS
 10
2.426160
 20
6.297720
  0
VERTEX
  8
0
  6
CONTINUOUS
 10
2.426160
 20
6.433680
  0
VERTEX
  8
0
  6
CONTINUOUS
 10
2.427480
 20
6.433680
  0
VERTEX
  8
0
  6
CONTINUOUS
 10
2.426600
 20
6.432800
  0
VERTEX
  8
0
  6
CONTINUOUS
 10
2.377320
 20
6.438080
  0
VERTEX
  8
0
  6
CONTINUOUS
 10
2.331560
 20
6.447760
  0
VERTEX
  8
0
  6
CONTINUOUS
 10
2.289760
 20
6.461400
  0
VERTEX
  8
0
  6
CONTINUOUS
 10
2.251920
 20
6.479000
  0
VERTEX
  8
0
  6
CONTINUOUS
 10
2.217160
 20
6.499680
  0
VERTEX
  8
0
  6
CONTINUOUS
 10
2.185920
 20
6.523440
  0
VERTEX
  8
0
  6
CONTINUOUS
 10
2.158200
 20
6.548960
  0
VERTEX
  8
0
  6
CONTINUOUS
 10
2.133560
 20
6.576680
  0
VERTEX
  8
0
  6
CONTINUOUS
 10
2.102320
 20
6.621120
  0
VERTEX
  8
0
  6
CONTINUOUS
 10
2.078560
 20
6.667320
  0
VERTEX
  8
0
  6
CONTINUOUS
 10
2.060960
 20
6.713960
  0
VERTEX
  8
0
  6
CONTINUOUS
 10
2.049960
 20
6.759280
  0
VERTEX
  8
0
  6
CONTINUOUS
 10
2.045560
 20
6.788320
  0
VERTEX
  8
0
  6
CONTINUOUS
 10
2.044240
 20
6.823520
  0
VERTEX
  8
0
  6
CONTINUOUS
 10
1.805320
 20
6.823520
  0
VERTEX
  8
0
  6
CONTINUOUS
 10
1.804880
 20
6.848600
  0
VERTEX
  8
0
  6
CONTINUOUS
 10
1.799600
 20
6.897440
  0
VERTEX
  8
0
  6
CONTINUOUS
 10
1.789920
 20
6.944960
  0
VERTEX
  8
0
  6
CONTINUOUS
 10
1.775400
 20
6.990720
  0
VERTEX
  8
0
  6
CONTINUOUS
 10
1.756920
 20
7.034280
  0
VERTEX
  8
0
  6
CONTINUOUS
 10
1.734480
 20
7.076080
  0
VERTEX
  8
0
  6
CONTINUOUS
 10
1.708080
 20
7.114800
  0
VERTEX
  8
0
  6
CONTINUOUS
 10
1.678160
 20
7.150880
  0
VERTEX
  8
0
  6
CONTINUOUS
 10
1.644720
 20
7.184320
  0
VERTEX
  8
0
  6
CONTINUOUS
 10
1.608640
 20
7.214240
  0
VERTEX
  8
0
  6
CONTINUOUS
 10
1.569920
 20
7.240640
  0
VERTEX
  8
0
  6
CONTINUOUS
 10
1.528120
 20
7.263080
  0
VERTEX
  8
0
  6
CONTINUOUS
 10
1.484560
 20
7.281560
  0
VERTEX
  8
0
  6
CONTINUOUS
 10
1.438800
 20
7.296080
  0
VERTEX
  8
0
  6
CONTINUOUS
 10
1.391280
 20
7.305760
  0
VERTEX
  8
0
  6
CONTINUOUS
 10
1.342440
 20
7.311040
  0
VERTEX
  8
0
  6
CONTINUOUS
 10
1.292280
 20
7.311040
  0
VERTEX
  8
0
  6
CONTINUOUS
 10
1.243440
 20
7.305760
  0
VERTEX
  8
0
  6
CONTINUOUS
 10
1.195920
 20
7.296080
  0
VERTEX
  8
0
  6
CONTINUOUS
 10
1.150160
 20
7.281560
  0
VERTEX
  8
0
  6
CONTINUOUS
 10
1.106600
 20
7.263080
  0
VERTEX
  8
0
  6
CONTINUOUS
 10
1.064800
 20
7.240640
  0
VERTEX
  8
0
  6
CONTINUOUS
 10
1.026080
 20
7.214240
  0
VERTEX
  8
0
  6
CONTINUOUS
 10
0.990000
 20
7.184320
  0
VERTEX
  8
0
  6
CONTINUOUS
 10
0.956560
 20
7.150880
  0
VERTEX
  8
0
  6
CONTINUOUS
 10
0.926640
 20
7.114800
  0
VERTEX
  8
0
  6
CONTINUOUS
 10
0.900240
 20
7.076080
  0
VERTEX
  8
0
  6
CONTINUOUS
 10
0.877800
 20
7.034280
  0
VERTEX
  8
0
  6
CONTINUOUS
 10
0.859320
 20
6.990720
  0
VERTEX
  8
0
  6
CONTINUOUS
 10
0.844800
 20
6.944960
  0
VERTEX
  8
0
  6
CONTINUOUS
 10
0.835120
 20
6.897440
  0
VERTEX
  8
0
  6
CONTINUOUS
 10
0.829840
 20
6.848600
  0
VERTEX
  8
0
  6
CONTINUOUS
 10
0.829400
 20
6.823520
  0
VERTEX
  8
0
  6
CONTINUOUS
 10
0.830720
 20
6.824840
  0
VERTEX
  8
0
  6
CONTINUOUS
 10
0.830720
 20
5.309040
  0
VERTEX
  8
0
  6
CONTINUOUS
 10
2.258960
 20
5.309040
  0
VERTEX
  8
0
  6
CONTINUOUS
 10
2.261160
 20
5.308160
  0
SEQEND
  8
0
  0
TEXT
  8
0
 10
0.918280
 20
5.421680
 40
0.138022
  1
A
 41
1.000000
  7
SN0
 71
     0
 72
     5
 11
1.029073
 21
5.421680
  0
TEXT
  8
0
 10
2.382160
 20
5.408480
 40
0.138022
  1
B
 41
1.000000
  7
SN0
 71
     0
 72
     5
 11
2.492953
 21
5.408480
  0
TEXT
  8
0
 10
3.546400
 20
4.996200
 40
0.138022
  1
172A 2" x 1-9/16"
 41
1.000000
  7
SN0
 71
     0
 72
     5
 11
4.833300
 21
4.996200
  0
TEXT
  8
0
 10
3.546400
 20
4.804360
 40
0.138022
  1
172B 1" x 5"
 41
1.000000
  7
SN0
 71
     0
 72
     5
 11
4.455874
 21
4.804360
  0
TEXT
  8
0
 10
7.718480
 20
8.336240
 40
0.138022
  1
case
 41
1.000000
  7
SN0
 71
     0
 72
     5
 11
8.068715
 21
8.336240
  0
TEXT
  8
0
 10
7.718480
 20
8.144840
 40
0.138022
  1
172
 41
1.000000
  7
SN0
 71
     0
 72
     5
 11
7.995259
 21
8.144840
  0
ENDSEC
  0
EOF
