  0
SECTION
  2
HEADER
  9
$ACADVER
  1
AC1006
  9
$EXTMIN
 10
3.773880
 20
0.451000
  9
$EXTMAX
 10
7.690320
 20
2.082960
  9
$LTSCALE
 40
0.044000
  9
$PDMODE
 70
    35
  9
$PDSIZE
 40
0.035200
  0
ENDSEC
  0
SECTION
  2
TABLES
  0
TABLE
  2
LTYPE
 70
     9
  0
LTYPE
  2
CONTINUOUS
 70
    64
  3
Solid line
 72
    65
 73
     0
 40
0.000000
  0
LTYPE
  2
DASHED
 70
    64
  3
__ __ __ __ __ __ __ __ __ __ __ __ __ __ __
 72
    65
 73
     2
 40
0.000330
 49
0.000220
 49
-0.000110
  0
LTYPE
  2
HIDDEN
 70
    64
  3
 _ _ _ _ _ _ _ _ _ _ _ _ _ _ _ _ _ _ _ _ _ _
 72
    65
 73
     2
 40
0.000165
 49
0.000110
 49
-0.000055
  0
LTYPE
  2
CENTER
 70
    64
  3
____ _ ____ _ ____ _ ____ _ ____ _ ____ _ ____
 72
    65
 73
     4
 40
0.000880
 49
0.000550
 49
-0.000110
 49
0.000110
 49
-0.000110
  0
LTYPE
  2
PHANTOM
 70
    64
  3
_____ _ _ _____ _ _ _____ _ _ _____ _ _ ____
 72
    65
 73
     6
 40
0.001100
 49
0.000550
 49
-0.000110
 49
0.000110
 49
-0.000110
 49
0.000110
 49
-0.000110
  0
LTYPE
  2
DOT
 70
    64
  3
...............................................
 72
    65
 73
     2
 40
0.000110
 49
0.000000
 49
-0.000110
  0
LTYPE
  2
DASHDOT
 70
    64
  3
__ . __ . __ . __ . __ . __ . __ . __ . __ . __
 72
    65
 73
     4
 40
0.000440
 49
0.000220
 49
-0.000110
 49
0.000000
 49
-0.000110
  0
LTYPE
  2
BORDER
 70
    64
  3
__ __ . __ __ . __ __ . __ __ . __ __ . __ __
 72
    65
 73
     6
 40
0.000770
 49
0.000220
 49
-0.000110
 49
0.000220
 49
-0.000110
 49
0.000000
 49
-0.000110
  0
LTYPE
  2
DIVIDE
 70
    64
  3
__ . . __ . . __ . . __ . . __ . . __ . . __
 72
    65
 73
     6
 40
0.000550
 49
0.000220
 49
-0.000110
 49
0.000000
 49
-0.000110
 49
0.000000
 49
-0.000110
  0
LTYPE
  2
DOTDOT
 70
    64
  3
 . .  . .  . .  . .  . .  . . 
 72
    65
 73
     5
 40
0.000242
 49
-0.000110
 49
0.000000
 49
-0.000110
 49
0.000000
 49
-0.000110
  0
ENDTAB
  0
TABLE
  2
STYLE
 70
     2
  0
STYLE
 70
     0
  2
SN0
 40
0.000000
 41
0.000440
 50
0.000000
 71
     0
 42
0.000000
  3
ROMAND
  0
STYLE
 70
    68
  2
SV0
 40
0.000000
 41
0.000440
 50
0.000000
 71
     0
 42
0.000000
  3
ROMAND
  0
ENDTAB
  0
TABLE
  2
LAYER
 70
     3
  0
LAYER
  2
FOREGROUND
 70
    64
 62
     7
  6
CONTINUOUS
  0
LAYER
  2
BACKGROUND
 70
    65
 62
    -7
  6
CONTINUOUS
  0
LAYER
  2
0
 70
    64
 62
     7
  6
CONTINUOUS
  0
ENDTAB
  0
ENDSEC
  0
SECTION
  2
ENTITIES
  0
POLYLINE
  8
FOREGROUND
  6
CONTINUOUS
 66
     1
 40
0.000000
 41
0.000000
  0
VERTEX
  8
FOREGROUND
  6
CONTINUOUS
 10
0.000000
 20
2.533960
  0
VERTEX
  8
FOREGROUND
  6
CONTINUOUS
 10
8.499920
 20
2.533960
  0
VERTEX
  8
FOREGROUND
  6
CONTINUOUS
 10
8.499920
 20
-8.466040
  0
VERTEX
  8
FOREGROUND
  6
CONTINUOUS
 10
0.000000
 20
-8.466040
  0
VERTEX
  8
FOREGROUND
  6
CONTINUOUS
 10
0.000000
 20
2.533960
  0
SEQEND
  8
0
  0
POLYLINE
  8
FOREGROUND
  6
CONTINUOUS
 66
     1
 40
0.000000
 41
0.000000
  0
VERTEX
  8
FOREGROUND
  6
CONTINUOUS
 10
0.000000
 20
2.533960
  0
VERTEX
  8
FOREGROUND
  6
CONTINUOUS
 10
8.499920
 20
2.533960
  0
VERTEX
  8
FOREGROUND
  6
CONTINUOUS
 10
8.499920
 20
-8.466040
  0
VERTEX
  8
FOREGROUND
  6
CONTINUOUS
 10
0.000000
 20
-8.466040
  0
VERTEX
  8
FOREGROUND
  6
CONTINUOUS
 10
0.000000
 20
2.533960
  0
SEQEND
  8
0
  0
POLYLINE
  8
0
  6
CONTINUOUS
 66
     1
 40
0.014080
 41
0.014080
  0
VERTEX
  8
0
  6
CONTINUOUS
 10
6.005560
 20
1.611280
  0
VERTEX
  8
0
  6
CONTINUOUS
 10
6.057480
 20
1.655280
  0
VERTEX
  8
0
  6
CONTINUOUS
 10
6.001600
 20
1.703240
  0
VERTEX
  8
0
  6
CONTINUOUS
 10
6.010400
 20
1.750760
  0
VERTEX
  8
0
  6
CONTINUOUS
 10
6.025360
 20
1.796080
  0
VERTEX
  8
0
  6
CONTINUOUS
 10
6.034600
 20
1.818080
  0
VERTEX
  8
0
  6
CONTINUOUS
 10
6.057480
 20
1.859880
  0
VERTEX
  8
0
  6
CONTINUOUS
 10
6.084320
 20
1.898160
  0
VERTEX
  8
0
  6
CONTINUOUS
 10
6.115560
 20
1.933360
  0
VERTEX
  8
0
  6
CONTINUOUS
 10
6.150320
 20
1.964600
  0
VERTEX
  8
0
  6
CONTINUOUS
 10
6.188160
 20
1.991440
  0
VERTEX
  8
0
  6
CONTINUOUS
 10
6.209280
 20
2.003320
  0
VERTEX
  8
0
  6
CONTINUOUS
 10
6.320160
 20
2.003320
  0
VERTEX
  8
0
  6
CONTINUOUS
 10
6.320160
 20
2.042040
  0
VERTEX
  8
0
  6
CONTINUOUS
 10
6.321480
 20
2.043360
  0
VERTEX
  8
0
  6
CONTINUOUS
 10
6.356240
 20
2.049080
  0
VERTEX
  8
0
  6
CONTINUOUS
 10
6.391880
 20
2.051280
  0
VERTEX
  8
0
  6
CONTINUOUS
 10
6.432800
 20
2.049080
  0
VERTEX
  8
0
  6
CONTINUOUS
 10
6.471960
 20
2.043360
  0
VERTEX
  8
0
  6
CONTINUOUS
 10
6.471960
 20
2.003320
  0
VERTEX
  8
0
  6
CONTINUOUS
 10
6.585480
 20
2.003320
  0
VERTEX
  8
0
  6
CONTINUOUS
 10
6.625960
 20
1.978680
  0
VERTEX
  8
0
  6
CONTINUOUS
 10
6.662920
 20
1.949200
  0
VERTEX
  8
0
  6
CONTINUOUS
 10
6.680520
 20
1.933360
  0
VERTEX
  8
0
  6
CONTINUOUS
 10
6.712200
 20
1.898160
  0
VERTEX
  8
0
  6
CONTINUOUS
 10
6.740360
 20
1.859880
  0
VERTEX
  8
0
  6
CONTINUOUS
 10
6.763240
 20
1.818080
  0
VERTEX
  8
0
  6
CONTINUOUS
 10
6.781280
 20
1.773640
  0
VERTEX
  8
0
  6
CONTINUOUS
 10
6.788320
 20
1.750760
  0
VERTEX
  8
0
  6
CONTINUOUS
 10
6.797560
 20
1.703240
  0
VERTEX
  8
0
  6
CONTINUOUS
 10
6.739920
 20
1.655280
  0
VERTEX
  8
0
  6
CONTINUOUS
 10
6.796240
 20
1.609960
  0
VERTEX
  8
0
  6
CONTINUOUS
 10
6.792720
 20
1.585760
  0
VERTEX
  8
0
  6
CONTINUOUS
 10
6.780840
 20
1.538240
  0
VERTEX
  8
0
  6
CONTINUOUS
 10
6.762800
 20
1.493360
  0
VERTEX
  8
0
  6
CONTINUOUS
 10
6.739920
 20
1.451120
  0
VERTEX
  8
0
  6
CONTINUOUS
 10
6.711760
 20
1.411960
  0
VERTEX
  8
0
  6
CONTINUOUS
 10
6.679200
 20
1.376320
  0
VERTEX
  8
0
  6
CONTINUOUS
 10
6.642680
 20
1.344640
  0
VERTEX
  8
0
  6
CONTINUOUS
 10
6.623320
 20
1.330560
  0
VERTEX
  8
0
  6
CONTINUOUS
 10
6.580200
 20
1.305920
  0
VERTEX
  8
0
  6
CONTINUOUS
 10
6.471960
 20
1.305920
  0
VERTEX
  8
0
  6
CONTINUOUS
 10
6.471960
 20
1.267200
  0
VERTEX
  8
0
  6
CONTINUOUS
 10
6.470640
 20
1.265880
  0
VERTEX
  8
0
  6
CONTINUOUS
 10
6.435880
 20
1.259720
  0
VERTEX
  8
0
  6
CONTINUOUS
 10
6.400240
 20
1.257960
  0
VERTEX
  8
0
  6
CONTINUOUS
 10
6.359760
 20
1.259720
  0
VERTEX
  8
0
  6
CONTINUOUS
 10
6.320160
 20
1.265880
  0
VERTEX
  8
0
  6
CONTINUOUS
 10
6.320160
 20
1.305920
  0
VERTEX
  8
0
  6
CONTINUOUS
 10
6.211920
 20
1.305920
  0
VERTEX
  8
0
  6
CONTINUOUS
 10
6.171440
 20
1.330560
  0
VERTEX
  8
0
  6
CONTINUOUS
 10
6.134040
 20
1.360040
  0
VERTEX
  8
0
  6
CONTINUOUS
 10
6.100600
 20
1.393480
  0
VERTEX
  8
0
  6
CONTINUOUS
 10
6.071120
 20
1.430880
  0
VERTEX
  8
0
  6
CONTINUOUS
 10
6.046040
 20
1.471800
  0
VERTEX
  8
0
  6
CONTINUOUS
 10
6.025800
 20
1.515800
  0
VERTEX
  8
0
  6
CONTINUOUS
 10
6.017880
 20
1.538240
  0
VERTEX
  8
0
  6
CONTINUOUS
 10
6.011280
 20
1.562000
  0
VERTEX
  8
0
  6
CONTINUOUS
 10
6.002920
 20
1.609960
  0
VERTEX
  8
0
  6
CONTINUOUS
 10
6.005560
 20
1.611280
  0
SEQEND
  8
0
  0
SOLID
  8
0
 62
    15
 10
4.570720
 20
1.342440
 11
5.206520
 21
1.712920
 12
4.569400
 22
1.341120
 13
5.205200
 23
1.711600
  0
POLYLINE
  8
0
  6
CONTINUOUS
 66
     1
 40
0.000000
 41
0.000000
  0
VERTEX
  8
0
  6
CONTINUOUS
 10
4.570720
 20
1.342440
  0
VERTEX
  8
0
  6
CONTINUOUS
 10
5.206520
 20
1.712920
  0
VERTEX
  8
0
  6
CONTINUOUS
 10
5.205200
 20
1.711600
  0
VERTEX
  8
0
  6
CONTINUOUS
 10
4.569400
 20
1.341120
  0
VERTEX
  8
0
  6
CONTINUOUS
 10
4.570720
 20
1.342440
  0
SEQEND
  8
0
  0
SOLID
  8
0
 62
    15
 10
3.981120
 20
1.642520
 11
4.617360
 21
2.013000
 12
4.093320
 22
1.642520
 13
4.729120
 23
2.013000
  0
POLYLINE
  8
0
  6
CONTINUOUS
 66
     1
 40
0.000000
 41
0.000000
  0
VERTEX
  8
0
  6
CONTINUOUS
 10
3.981120
 20
1.642520
  0
VERTEX
  8
0
  6
CONTINUOUS
 10
4.617360
 20
2.013000
  0
VERTEX
  8
0
  6
CONTINUOUS
 10
4.729120
 20
2.013000
  0
VERTEX
  8
0
  6
CONTINUOUS
 10
4.093320
 20
1.642520
  0
VERTEX
  8
0
  6
CONTINUOUS
 10
3.981120
 20
1.642520
  0
SEQEND
  8
0
  0
SOLID
  8
0
 62
    15
 10
4.129400
 20
1.688280
 11
4.765640
 21
2.058760
 12
4.165480
 22
1.690480
 13
4.801280
 23
2.060960
  0
POLYLINE
  8
0
  6
CONTINUOUS
 66
     1
 40
0.000000
 41
0.000000
  0
VERTEX
  8
0
  6
CONTINUOUS
 10
4.129400
 20
1.688280
  0
VERTEX
  8
0
  6
CONTINUOUS
 10
4.765640
 20
2.058760
  0
VERTEX
  8
0
  6
CONTINUOUS
 10
4.801280
 20
2.060960
  0
VERTEX
  8
0
  6
CONTINUOUS
 10
4.165480
 20
1.690480
  0
VERTEX
  8
0
  6
CONTINUOUS
 10
4.129400
 20
1.688280
  0
SEQEND
  8
0
  0
SOLID
  8
0
 62
    15
 10
4.165480
 20
1.690480
 11
4.801280
 21
2.060960
 12
4.205960
 22
1.688280
 13
4.841760
 23
2.058760
  0
POLYLINE
  8
0
  6
CONTINUOUS
 66
     1
 40
0.000000
 41
0.000000
  0
VERTEX
  8
0
  6
CONTINUOUS
 10
4.165480
 20
1.690480
  0
VERTEX
  8
0
  6
CONTINUOUS
 10
4.801280
 20
2.060960
  0
VERTEX
  8
0
  6
CONTINUOUS
 10
4.841760
 20
2.058760
  0
VERTEX
  8
0
  6
CONTINUOUS
 10
4.205960
 20
1.688280
  0
VERTEX
  8
0
  6
CONTINUOUS
 10
4.165480
 20
1.690480
  0
SEQEND
  8
0
  0
SOLID
  8
0
 62
    15
 10
4.205960
 20
1.688280
 11
4.841760
 21
2.058760
 12
4.245120
 22
1.682120
 13
4.881360
 23
2.053040
  0
POLYLINE
  8
0
  6
CONTINUOUS
 66
     1
 40
0.000000
 41
0.000000
  0
VERTEX
  8
0
  6
CONTINUOUS
 10
4.205960
 20
1.688280
  0
VERTEX
  8
0
  6
CONTINUOUS
 10
4.841760
 20
2.058760
  0
VERTEX
  8
0
  6
CONTINUOUS
 10
4.881360
 20
2.053040
  0
VERTEX
  8
0
  6
CONTINUOUS
 10
4.245120
 20
1.682120
  0
VERTEX
  8
0
  6
CONTINUOUS
 10
4.205960
 20
1.688280
  0
SEQEND
  8
0
  0
SOLID
  8
0
 62
     7
 10
4.245120
 20
1.682120
 11
4.881360
 21
2.053040
 12
4.245120
 22
1.642520
 13
4.881360
 23
2.013000
  0
POLYLINE
  8
0
  6
CONTINUOUS
 66
     1
 40
0.000000
 41
0.000000
  0
VERTEX
  8
0
  6
CONTINUOUS
 10
4.245120
 20
1.682120
  0
VERTEX
  8
0
  6
CONTINUOUS
 10
4.881360
 20
2.053040
  0
VERTEX
  8
0
  6
CONTINUOUS
 10
4.881360
 20
2.013000
  0
VERTEX
  8
0
  6
CONTINUOUS
 10
4.245120
 20
1.642520
  0
VERTEX
  8
0
  6
CONTINUOUS
 10
4.245120
 20
1.682120
  0
SEQEND
  8
0
  0
SOLID
  8
0
 62
    15
 10
4.245120
 20
1.642520
 11
4.881360
 21
2.013000
 12
4.358640
 22
1.642520
 13
4.994440
 23
2.013000
  0
POLYLINE
  8
0
  6
CONTINUOUS
 66
     1
 40
0.000000
 41
0.000000
  0
VERTEX
  8
0
  6
CONTINUOUS
 10
4.245120
 20
1.642520
  0
VERTEX
  8
0
  6
CONTINUOUS
 10
4.881360
 20
2.013000
  0
VERTEX
  8
0
  6
CONTINUOUS
 10
4.994440
 20
2.013000
  0
VERTEX
  8
0
  6
CONTINUOUS
 10
4.358640
 20
1.642520
  0
VERTEX
  8
0
  6
CONTINUOUS
 10
4.245120
 20
1.642520
  0
SEQEND
  8
0
  0
SOLID
  8
0
 62
     7
 10
4.358640
 20
1.642520
 11
4.994440
 21
2.013000
 12
4.398680
 22
1.617440
 13
5.034920
 23
1.987920
  0
POLYLINE
  8
0
  6
CONTINUOUS
 66
     1
 40
0.000000
 41
0.000000
  0
VERTEX
  8
0
  6
CONTINUOUS
 10
4.358640
 20
1.642520
  0
VERTEX
  8
0
  6
CONTINUOUS
 10
4.994440
 20
2.013000
  0
VERTEX
  8
0
  6
CONTINUOUS
 10
5.034920
 20
1.987920
  0
VERTEX
  8
0
  6
CONTINUOUS
 10
4.398680
 20
1.617440
  0
VERTEX
  8
0
  6
CONTINUOUS
 10
4.358640
 20
1.642520
  0
SEQEND
  8
0
  0
SOLID
  8
0
 62
    15
 10
3.776080
 20
1.249160
 11
4.411880
 21
1.619640
 12
3.778720
 22
1.250480
 13
4.414520
 23
1.620960
  0
POLYLINE
  8
0
  6
CONTINUOUS
 66
     1
 40
0.000000
 41
0.000000
  0
VERTEX
  8
0
  6
CONTINUOUS
 10
3.776080
 20
1.249160
  0
VERTEX
  8
0
  6
CONTINUOUS
 10
4.411880
 20
1.619640
  0
VERTEX
  8
0
  6
CONTINUOUS
 10
4.414520
 20
1.620960
  0
VERTEX
  8
0
  6
CONTINUOUS
 10
3.778720
 20
1.250480
  0
VERTEX
  8
0
  6
CONTINUOUS
 10
3.776080
 20
1.249160
  0
SEQEND
  8
0
  0
SOLID
  8
0
 62
     7
 10
4.436080
 20
1.588400
 11
5.072320
 21
1.958880
 12
4.469960
 22
1.554960
 13
5.106200
 23
1.925880
  0
POLYLINE
  8
0
  6
CONTINUOUS
 66
     1
 40
0.000000
 41
0.000000
  0
VERTEX
  8
0
  6
CONTINUOUS
 10
4.436080
 20
1.588400
  0
VERTEX
  8
0
  6
CONTINUOUS
 10
5.072320
 20
1.958880
  0
VERTEX
  8
0
  6
CONTINUOUS
 10
5.106200
 20
1.925880
  0
VERTEX
  8
0
  6
CONTINUOUS
 10
4.469960
 20
1.554960
  0
VERTEX
  8
0
  6
CONTINUOUS
 10
4.436080
 20
1.588400
  0
SEQEND
  8
0
  0
SOLID
  8
0
 62
     7
 10
4.469960
 20
1.554960
 11
5.106200
 21
1.925880
 12
4.499880
 22
1.518440
 13
5.136120
 23
1.888920
  0
POLYLINE
  8
0
  6
CONTINUOUS
 66
     1
 40
0.000000
 41
0.000000
  0
VERTEX
  8
0
  6
CONTINUOUS
 10
4.469960
 20
1.554960
  0
VERTEX
  8
0
  6
CONTINUOUS
 10
5.106200
 20
1.925880
  0
VERTEX
  8
0
  6
CONTINUOUS
 10
5.136120
 20
1.888920
  0
VERTEX
  8
0
  6
CONTINUOUS
 10
4.499880
 20
1.518440
  0
VERTEX
  8
0
  6
CONTINUOUS
 10
4.469960
 20
1.554960
  0
SEQEND
  8
0
  0
SOLID
  8
0
 62
     7
 10
4.499880
 20
1.518440
 11
5.136120
 21
1.888920
 12
4.525400
 22
1.478400
 13
5.161640
 23
1.848880
  0
POLYLINE
  8
0
  6
CONTINUOUS
 66
     1
 40
0.000000
 41
0.000000
  0
VERTEX
  8
0
  6
CONTINUOUS
 10
4.499880
 20
1.518440
  0
VERTEX
  8
0
  6
CONTINUOUS
 10
5.136120
 20
1.888920
  0
VERTEX
  8
0
  6
CONTINUOUS
 10
5.161640
 20
1.848880
  0
VERTEX
  8
0
  6
CONTINUOUS
 10
4.525400
 20
1.478400
  0
VERTEX
  8
0
  6
CONTINUOUS
 10
4.499880
 20
1.518440
  0
SEQEND
  8
0
  0
SOLID
  8
0
 62
     7
 10
4.525400
 20
1.478400
 11
5.161640
 21
1.848880
 12
4.546080
 22
1.435280
 13
5.182320
 23
1.805760
  0
POLYLINE
  8
0
  6
CONTINUOUS
 66
     1
 40
0.000000
 41
0.000000
  0
VERTEX
  8
0
  6
CONTINUOUS
 10
4.525400
 20
1.478400
  0
VERTEX
  8
0
  6
CONTINUOUS
 10
5.161640
 20
1.848880
  0
VERTEX
  8
0
  6
CONTINUOUS
 10
5.182320
 20
1.805760
  0
VERTEX
  8
0
  6
CONTINUOUS
 10
4.546080
 20
1.435280
  0
VERTEX
  8
0
  6
CONTINUOUS
 10
4.525400
 20
1.478400
  0
SEQEND
  8
0
  0
SOLID
  8
0
 62
     7
 10
4.546080
 20
1.435280
 11
5.182320
 21
1.805760
 12
4.561480
 22
1.389960
 13
5.197280
 23
1.760440
  0
POLYLINE
  8
0
  6
CONTINUOUS
 66
     1
 40
0.000000
 41
0.000000
  0
VERTEX
  8
0
  6
CONTINUOUS
 10
4.546080
 20
1.435280
  0
VERTEX
  8
0
  6
CONTINUOUS
 10
5.182320
 20
1.805760
  0
VERTEX
  8
0
  6
CONTINUOUS
 10
5.197280
 20
1.760440
  0
VERTEX
  8
0
  6
CONTINUOUS
 10
4.561480
 20
1.389960
  0
VERTEX
  8
0
  6
CONTINUOUS
 10
4.546080
 20
1.435280
  0
SEQEND
  8
0
  0
SOLID
  8
0
 62
     7
 10
4.561480
 20
1.389960
 11
5.197280
 21
1.760440
 12
4.570720
 22
1.342440
 13
5.206520
 23
1.712920
  0
POLYLINE
  8
0
  6
CONTINUOUS
 66
     1
 40
0.000000
 41
0.000000
  0
VERTEX
  8
0
  6
CONTINUOUS
 10
4.561480
 20
1.389960
  0
VERTEX
  8
0
  6
CONTINUOUS
 10
5.197280
 20
1.760440
  0
VERTEX
  8
0
  6
CONTINUOUS
 10
5.206520
 20
1.712920
  0
VERTEX
  8
0
  6
CONTINUOUS
 10
4.570720
 20
1.342440
  0
VERTEX
  8
0
  6
CONTINUOUS
 10
4.561480
 20
1.389960
  0
SEQEND
  8
0
  0
SOLID
  8
0
 62
    15
 10
4.094640
 20
1.682120
 11
4.730440
 21
2.053040
 12
4.129400
 22
1.688280
 13
4.765640
 23
2.058760
  0
POLYLINE
  8
0
  6
CONTINUOUS
 66
     1
 40
0.000000
 41
0.000000
  0
VERTEX
  8
0
  6
CONTINUOUS
 10
4.094640
 20
1.682120
  0
VERTEX
  8
0
  6
CONTINUOUS
 10
4.730440
 20
2.053040
  0
VERTEX
  8
0
  6
CONTINUOUS
 10
4.765640
 20
2.058760
  0
VERTEX
  8
0
  6
CONTINUOUS
 10
4.129400
 20
1.688280
  0
VERTEX
  8
0
  6
CONTINUOUS
 10
4.094640
 20
1.682120
  0
SEQEND
  8
0
  0
SOLID
  8
0
 62
    15
 10
4.569400
 20
1.341120
 11
5.205200
 21
1.711600
 12
4.513080
 22
1.294480
 13
5.149320
 23
1.664960
  0
POLYLINE
  8
0
  6
CONTINUOUS
 66
     1
 40
0.000000
 41
0.000000
  0
VERTEX
  8
0
  6
CONTINUOUS
 10
4.569400
 20
1.341120
  0
VERTEX
  8
0
  6
CONTINUOUS
 10
5.205200
 20
1.711600
  0
VERTEX
  8
0
  6
CONTINUOUS
 10
5.149320
 20
1.664960
  0
VERTEX
  8
0
  6
CONTINUOUS
 10
4.513080
 20
1.294480
  0
VERTEX
  8
0
  6
CONTINUOUS
 10
4.569400
 20
1.341120
  0
SEQEND
  8
0
  0
SOLID
  8
0
 62
     7
 10
4.513080
 20
1.294480
 11
5.149320
 21
1.664960
 12
4.566760
 22
1.250480
 13
5.202560
 23
1.620960
  0
POLYLINE
  8
0
  6
CONTINUOUS
 66
     1
 40
0.000000
 41
0.000000
  0
VERTEX
  8
0
  6
CONTINUOUS
 10
4.513080
 20
1.294480
  0
VERTEX
  8
0
  6
CONTINUOUS
 10
5.149320
 20
1.664960
  0
VERTEX
  8
0
  6
CONTINUOUS
 10
5.202560
 20
1.620960
  0
VERTEX
  8
0
  6
CONTINUOUS
 10
4.566760
 20
1.250480
  0
VERTEX
  8
0
  6
CONTINUOUS
 10
4.513080
 20
1.294480
  0
SEQEND
  8
0
  0
SOLID
  8
0
 62
     7
 10
4.566760
 20
1.250480
 11
5.202560
 21
1.620960
 12
4.569400
 22
1.249160
 13
5.205200
 23
1.619640
  0
POLYLINE
  8
0
  6
CONTINUOUS
 66
     1
 40
0.000000
 41
0.000000
  0
VERTEX
  8
0
  6
CONTINUOUS
 10
4.566760
 20
1.250480
  0
VERTEX
  8
0
  6
CONTINUOUS
 10
5.202560
 20
1.620960
  0
VERTEX
  8
0
  6
CONTINUOUS
 10
5.205200
 20
1.619640
  0
VERTEX
  8
0
  6
CONTINUOUS
 10
4.569400
 20
1.249160
  0
VERTEX
  8
0
  6
CONTINUOUS
 10
4.566760
 20
1.250480
  0
SEQEND
  8
0
  0
SOLID
  8
0
 62
     7
 10
4.569400
 20
1.249160
 11
5.205200
 21
1.619640
 12
4.560600
 22
1.200760
 13
5.196400
 23
1.571240
  0
POLYLINE
  8
0
  6
CONTINUOUS
 66
     1
 40
0.000000
 41
0.000000
  0
VERTEX
  8
0
  6
CONTINUOUS
 10
4.569400
 20
1.249160
  0
VERTEX
  8
0
  6
CONTINUOUS
 10
5.205200
 20
1.619640
  0
VERTEX
  8
0
  6
CONTINUOUS
 10
5.196400
 20
1.571240
  0
VERTEX
  8
0
  6
CONTINUOUS
 10
4.560600
 20
1.200760
  0
VERTEX
  8
0
  6
CONTINUOUS
 10
4.569400
 20
1.249160
  0
SEQEND
  8
0
  0
SOLID
  8
0
 62
     7
 10
4.560600
 20
1.200760
 11
5.196400
 21
1.571240
 12
4.545640
 22
1.154560
 13
5.181440
 23
1.525040
  0
POLYLINE
  8
0
  6
CONTINUOUS
 66
     1
 40
0.000000
 41
0.000000
  0
VERTEX
  8
0
  6
CONTINUOUS
 10
4.560600
 20
1.200760
  0
VERTEX
  8
0
  6
CONTINUOUS
 10
5.196400
 20
1.571240
  0
VERTEX
  8
0
  6
CONTINUOUS
 10
5.181440
 20
1.525040
  0
VERTEX
  8
0
  6
CONTINUOUS
 10
4.545640
 20
1.154560
  0
VERTEX
  8
0
  6
CONTINUOUS
 10
4.560600
 20
1.200760
  0
SEQEND
  8
0
  0
SOLID
  8
0
 62
    15
 10
4.545640
 20
1.154560
 11
5.181440
 21
1.525040
 12
4.524960
 22
1.111000
 13
5.161200
 23
1.481480
  0
POLYLINE
  8
0
  6
CONTINUOUS
 66
     1
 40
0.000000
 41
0.000000
  0
VERTEX
  8
0
  6
CONTINUOUS
 10
4.545640
 20
1.154560
  0
VERTEX
  8
0
  6
CONTINUOUS
 10
5.181440
 20
1.525040
  0
VERTEX
  8
0
  6
CONTINUOUS
 10
5.161200
 20
1.481480
  0
VERTEX
  8
0
  6
CONTINUOUS
 10
4.524960
 20
1.111000
  0
VERTEX
  8
0
  6
CONTINUOUS
 10
4.545640
 20
1.154560
  0
SEQEND
  8
0
  0
SOLID
  8
0
 62
     7
 10
4.245120
 20
0.945120
 11
4.881360
 21
1.315600
 12
4.245120
 22
0.906400
 13
4.881360
 23
1.276880
  0
POLYLINE
  8
0
  6
CONTINUOUS
 66
     1
 40
0.000000
 41
0.000000
  0
VERTEX
  8
0
  6
CONTINUOUS
 10
4.245120
 20
0.945120
  0
VERTEX
  8
0
  6
CONTINUOUS
 10
4.881360
 20
1.315600
  0
VERTEX
  8
0
  6
CONTINUOUS
 10
4.881360
 20
1.276880
  0
VERTEX
  8
0
  6
CONTINUOUS
 10
4.245120
 20
0.906400
  0
VERTEX
  8
0
  6
CONTINUOUS
 10
4.245120
 20
0.945120
  0
SEQEND
  8
0
  0
SOLID
  8
0
 62
    15
 10
4.245120
 20
0.906400
 11
4.881360
 21
1.276880
 12
4.243800
 22
0.905080
 13
4.880040
 23
1.275560
  0
POLYLINE
  8
0
  6
CONTINUOUS
 66
     1
 40
0.000000
 41
0.000000
  0
VERTEX
  8
0
  6
CONTINUOUS
 10
4.245120
 20
0.906400
  0
VERTEX
  8
0
  6
CONTINUOUS
 10
4.881360
 20
1.276880
  0
VERTEX
  8
0
  6
CONTINUOUS
 10
4.880040
 20
1.275560
  0
VERTEX
  8
0
  6
CONTINUOUS
 10
4.243800
 20
0.905080
  0
VERTEX
  8
0
  6
CONTINUOUS
 10
4.245120
 20
0.906400
  0
SEQEND
  8
0
  0
SOLID
  8
0
 62
    15
 10
4.469080
 20
1.032680
 11
5.104880
 21
1.403160
 12
4.434320
 22
0.998800
 13
5.070560
 23
1.369280
  0
POLYLINE
  8
0
  6
CONTINUOUS
 66
     1
 40
0.000000
 41
0.000000
  0
VERTEX
  8
0
  6
CONTINUOUS
 10
4.469080
 20
1.032680
  0
VERTEX
  8
0
  6
CONTINUOUS
 10
5.104880
 20
1.403160
  0
VERTEX
  8
0
  6
CONTINUOUS
 10
5.070560
 20
1.369280
  0
VERTEX
  8
0
  6
CONTINUOUS
 10
4.434320
 20
0.998800
  0
VERTEX
  8
0
  6
CONTINUOUS
 10
4.469080
 20
1.032680
  0
SEQEND
  8
0
  0
SOLID
  8
0
 62
    15
 10
4.396040
 20
0.969320
 11
5.032280
 21
1.340240
 12
4.354680
 22
0.945120
 13
4.990480
 23
1.315600
  0
POLYLINE
  8
0
  6
CONTINUOUS
 66
     1
 40
0.000000
 41
0.000000
  0
VERTEX
  8
0
  6
CONTINUOUS
 10
4.396040
 20
0.969320
  0
VERTEX
  8
0
  6
CONTINUOUS
 10
5.032280
 20
1.340240
  0
VERTEX
  8
0
  6
CONTINUOUS
 10
4.990480
 20
1.315600
  0
VERTEX
  8
0
  6
CONTINUOUS
 10
4.354680
 20
0.945120
  0
VERTEX
  8
0
  6
CONTINUOUS
 10
4.396040
 20
0.969320
  0
SEQEND
  8
0
  0
SOLID
  8
0
 62
    15
 10
4.434320
 20
0.998800
 11
5.070560
 21
1.369280
 12
4.396040
 22
0.969320
 13
5.032280
 23
1.340240
  0
POLYLINE
  8
0
  6
CONTINUOUS
 66
     1
 40
0.000000
 41
0.000000
  0
VERTEX
  8
0
  6
CONTINUOUS
 10
4.434320
 20
0.998800
  0
VERTEX
  8
0
  6
CONTINUOUS
 10
5.070560
 20
1.369280
  0
VERTEX
  8
0
  6
CONTINUOUS
 10
5.032280
 20
1.340240
  0
VERTEX
  8
0
  6
CONTINUOUS
 10
4.396040
 20
0.969320
  0
VERTEX
  8
0
  6
CONTINUOUS
 10
4.434320
 20
0.998800
  0
SEQEND
  8
0
  0
SOLID
  8
0
 62
    15
 10
4.524960
 20
1.111000
 11
5.161200
 21
1.481480
 12
4.499440
 22
1.070080
 13
5.135240
 23
1.440560
  0
POLYLINE
  8
0
  6
CONTINUOUS
 66
     1
 40
0.000000
 41
0.000000
  0
VERTEX
  8
0
  6
CONTINUOUS
 10
4.524960
 20
1.111000
  0
VERTEX
  8
0
  6
CONTINUOUS
 10
5.161200
 20
1.481480
  0
VERTEX
  8
0
  6
CONTINUOUS
 10
5.135240
 20
1.440560
  0
VERTEX
  8
0
  6
CONTINUOUS
 10
4.499440
 20
1.070080
  0
VERTEX
  8
0
  6
CONTINUOUS
 10
4.524960
 20
1.111000
  0
SEQEND
  8
0
  0
SOLID
  8
0
 62
    15
 10
4.499440
 20
1.070080
 11
5.135240
 21
1.440560
 12
4.469080
 22
1.032680
 13
5.104880
 23
1.403160
  0
POLYLINE
  8
0
  6
CONTINUOUS
 66
     1
 40
0.000000
 41
0.000000
  0
VERTEX
  8
0
  6
CONTINUOUS
 10
4.499440
 20
1.070080
  0
VERTEX
  8
0
  6
CONTINUOUS
 10
5.135240
 20
1.440560
  0
VERTEX
  8
0
  6
CONTINUOUS
 10
5.104880
 20
1.403160
  0
VERTEX
  8
0
  6
CONTINUOUS
 10
4.469080
 20
1.032680
  0
VERTEX
  8
0
  6
CONTINUOUS
 10
4.499440
 20
1.070080
  0
SEQEND
  8
0
  0
SOLID
  8
0
 62
     7
 10
4.398680
 20
1.617440
 11
5.034920
 21
1.987920
 12
4.436080
 22
1.588400
 13
5.072320
 23
1.958880
  0
POLYLINE
  8
0
  6
CONTINUOUS
 66
     1
 40
0.000000
 41
0.000000
  0
VERTEX
  8
0
  6
CONTINUOUS
 10
4.398680
 20
1.617440
  0
VERTEX
  8
0
  6
CONTINUOUS
 10
5.034920
 20
1.987920
  0
VERTEX
  8
0
  6
CONTINUOUS
 10
5.072320
 20
1.958880
  0
VERTEX
  8
0
  6
CONTINUOUS
 10
4.436080
 20
1.588400
  0
VERTEX
  8
0
  6
CONTINUOUS
 10
4.398680
 20
1.617440
  0
SEQEND
  8
0
  0
POLYLINE
  8
0
  6
CONTINUOUS
 66
     1
 40
0.000000
 41
0.000000
  0
VERTEX
  8
0
  6
CONTINUOUS
 10
3.778720
 20
1.250480
  0
VERTEX
  8
0
  6
CONTINUOUS
 10
3.830640
 20
1.294480
  0
VERTEX
  8
0
  6
CONTINUOUS
 10
3.774760
 20
1.342440
  0
VERTEX
  8
0
  6
CONTINUOUS
 10
3.783560
 20
1.389960
  0
VERTEX
  8
0
  6
CONTINUOUS
 10
3.798520
 20
1.435280
  0
VERTEX
  8
0
  6
CONTINUOUS
 10
3.818760
 20
1.478400
  0
VERTEX
  8
0
  6
CONTINUOUS
 10
3.843400
 20
1.518440
  0
VERTEX
  8
0
  6
CONTINUOUS
 10
3.872440
 20
1.554960
  0
VERTEX
  8
0
  6
CONTINUOUS
 10
3.905880
 20
1.588400
  0
VERTEX
  8
0
  6
CONTINUOUS
 10
3.941960
 20
1.617440
  0
VERTEX
  8
0
  6
CONTINUOUS
 10
3.981120
 20
1.642520
  0
VERTEX
  8
0
  6
CONTINUOUS
 10
4.093320
 20
1.642520
  0
VERTEX
  8
0
  6
CONTINUOUS
 10
4.093320
 20
1.680800
  0
VERTEX
  8
0
  6
CONTINUOUS
 10
4.094640
 20
1.682120
  0
VERTEX
  8
0
  6
CONTINUOUS
 10
4.129400
 20
1.688280
  0
VERTEX
  8
0
  6
CONTINUOUS
 10
4.165480
 20
1.690480
  0
VERTEX
  8
0
  6
CONTINUOUS
 10
4.205960
 20
1.688280
  0
VERTEX
  8
0
  6
CONTINUOUS
 10
4.245120
 20
1.682120
  0
VERTEX
  8
0
  6
CONTINUOUS
 10
4.245120
 20
1.642520
  0
VERTEX
  8
0
  6
CONTINUOUS
 10
4.358640
 20
1.642520
  0
VERTEX
  8
0
  6
CONTINUOUS
 10
4.398680
 20
1.617440
  0
VERTEX
  8
0
  6
CONTINUOUS
 10
4.436080
 20
1.588400
  0
VERTEX
  8
0
  6
CONTINUOUS
 10
4.469960
 20
1.554960
  0
VERTEX
  8
0
  6
CONTINUOUS
 10
4.499880
 20
1.518440
  0
VERTEX
  8
0
  6
CONTINUOUS
 10
4.525400
 20
1.478400
  0
VERTEX
  8
0
  6
CONTINUOUS
 10
4.546080
 20
1.435280
  0
VERTEX
  8
0
  6
CONTINUOUS
 10
4.561480
 20
1.389960
  0
VERTEX
  8
0
  6
CONTINUOUS
 10
4.570720
 20
1.342440
  0
VERTEX
  8
0
  6
CONTINUOUS
 10
4.513080
 20
1.294480
  0
VERTEX
  8
0
  6
CONTINUOUS
 10
4.569400
 20
1.249160
  0
VERTEX
  8
0
  6
CONTINUOUS
 10
4.560600
 20
1.200760
  0
VERTEX
  8
0
  6
CONTINUOUS
 10
4.545640
 20
1.154560
  0
VERTEX
  8
0
  6
CONTINUOUS
 10
4.524960
 20
1.111000
  0
VERTEX
  8
0
  6
CONTINUOUS
 10
4.499440
 20
1.070080
  0
VERTEX
  8
0
  6
CONTINUOUS
 10
4.469080
 20
1.032680
  0
VERTEX
  8
0
  6
CONTINUOUS
 10
4.434320
 20
0.998800
  0
VERTEX
  8
0
  6
CONTINUOUS
 10
4.396040
 20
0.969320
  0
VERTEX
  8
0
  6
CONTINUOUS
 10
4.354680
 20
0.945120
  0
VERTEX
  8
0
  6
CONTINUOUS
 10
4.245120
 20
0.945120
  0
VERTEX
  8
0
  6
CONTINUOUS
 10
4.245120
 20
0.906400
  0
VERTEX
  8
0
  6
CONTINUOUS
 10
4.243800
 20
0.905080
  0
VERTEX
  8
0
  6
CONTINUOUS
 10
4.209040
 20
0.898920
  0
VERTEX
  8
0
  6
CONTINUOUS
 10
4.173400
 20
0.897160
  0
VERTEX
  8
0
  6
CONTINUOUS
 10
4.132920
 20
0.898920
  0
VERTEX
  8
0
  6
CONTINUOUS
 10
4.093320
 20
0.905080
  0
VERTEX
  8
0
  6
CONTINUOUS
 10
4.093320
 20
0.945120
  0
VERTEX
  8
0
  6
CONTINUOUS
 10
3.985080
 20
0.945120
  0
VERTEX
  8
0
  6
CONTINUOUS
 10
3.944600
 20
0.969320
  0
VERTEX
  8
0
  6
CONTINUOUS
 10
3.907200
 20
0.998800
  0
VERTEX
  8
0
  6
CONTINUOUS
 10
3.873760
 20
1.032680
  0
VERTEX
  8
0
  6
CONTINUOUS
 10
3.844280
 20
1.070080
  0
VERTEX
  8
0
  6
CONTINUOUS
 10
3.819200
 20
1.111000
  0
VERTEX
  8
0
  6
CONTINUOUS
 10
3.798960
 20
1.154560
  0
VERTEX
  8
0
  6
CONTINUOUS
 10
3.784440
 20
1.200760
  0
VERTEX
  8
0
  6
CONTINUOUS
 10
3.776080
 20
1.249160
  0
VERTEX
  8
0
  6
CONTINUOUS
 10
3.778720
 20
1.250480
  0
SEQEND
  8
0
  0
TEXT
  8
0
 10
4.353360
 20
0.682880
 40
0.138043
  1
170
 41
1.000000
  7
SN0
 71
     0
 72
     5
 11
4.630448
 21
0.682880
  0
TEXT
  8
0
 10
4.260960
 20
0.491480
 40
0.138043
  1
20mm
 41
1.000000
  7
SN0
 71
     0
 72
     5
 11
4.722317
 21
0.491480
  0
TEXT
  8
0
 10
7.265720
 20
1.931160
 40
0.138043
  1
round
 41
1.000000
  7
SN0
 71
     0
 72
     5
 11
7.691633
 21
1.931160
  0
TEXT
  8
0
 10
7.339200
 20
1.739760
 40
0.138043
  1
170
 41
1.000000
  7
SN0
 71
     0
 72
     5
 11
7.616288
 21
1.739760
  0
ENDSEC
  0
EOF
