  0
SECTION
  2
HEADER
  9
$ACADVER
  1
AC1006
  9
$EXTMIN
 10
2.557280
 20
0.342320
  9
$EXTMAX
 10
8.121520
 20
2.196040
  9
$LTSCALE
 40
0.044000
  9
$PDMODE
 70
    35
  9
$PDSIZE
 40
0.035200
  0
ENDSEC
  0
SECTION
  2
TABLES
  0
TABLE
  2
LTYPE
 70
     9
  0
LTYPE
  2
CONTINUOUS
 70
    64
  3
Solid line
 72
    65
 73
     0
 40
0.000000
  0
LTYPE
  2
DASHED
 70
    64
  3
__ __ __ __ __ __ __ __ __ __ __ __ __ __ __
 72
    65
 73
     2
 40
0.000330
 49
0.000220
 49
-0.000110
  0
LTYPE
  2
HIDDEN
 70
    64
  3
 _ _ _ _ _ _ _ _ _ _ _ _ _ _ _ _ _ _ _ _ _ _
 72
    65
 73
     2
 40
0.000165
 49
0.000110
 49
-0.000055
  0
LTYPE
  2
CENTER
 70
    64
  3
____ _ ____ _ ____ _ ____ _ ____ _ ____ _ ____
 72
    65
 73
     4
 40
0.000880
 49
0.000550
 49
-0.000110
 49
0.000110
 49
-0.000110
  0
LTYPE
  2
PHANTOM
 70
    64
  3
_____ _ _ _____ _ _ _____ _ _ _____ _ _ ____
 72
    65
 73
     6
 40
0.001100
 49
0.000550
 49
-0.000110
 49
0.000110
 49
-0.000110
 49
0.000110
 49
-0.000110
  0
LTYPE
  2
DOT
 70
    64
  3
...............................................
 72
    65
 73
     2
 40
0.000110
 49
0.000000
 49
-0.000110
  0
LTYPE
  2
DASHDOT
 70
    64
  3
__ . __ . __ . __ . __ . __ . __ . __ . __ . __
 72
    65
 73
     4
 40
0.000440
 49
0.000220
 49
-0.000110
 49
0.000000
 49
-0.000110
  0
LTYPE
  2
BORDER
 70
    64
  3
__ __ . __ __ . __ __ . __ __ . __ __ . __ __
 72
    65
 73
     6
 40
0.000770
 49
0.000220
 49
-0.000110
 49
0.000220
 49
-0.000110
 49
0.000000
 49
-0.000110
  0
LTYPE
  2
DIVIDE
 70
    64
  3
__ . . __ . . __ . . __ . . __ . . __ . . __
 72
    65
 73
     6
 40
0.000550
 49
0.000220
 49
-0.000110
 49
0.000000
 49
-0.000110
 49
0.000000
 49
-0.000110
  0
LTYPE
  2
DOTDOT
 70
    64
  3
 . .  . .  . .  . .  . .  . . 
 72
    65
 73
     5
 40
0.000242
 49
-0.000110
 49
0.000000
 49
-0.000110
 49
0.000000
 49
-0.000110
  0
ENDTAB
  0
TABLE
  2
STYLE
 70
     2
  0
STYLE
 70
     0
  2
SN0
 40
0.000000
 41
0.000440
 50
0.000000
 71
     0
 42
0.000000
  3
ROMAND
  0
STYLE
 70
    68
  2
SV0
 40
0.000000
 41
0.000440
 50
0.000000
 71
     0
 42
0.000000
  3
ROMAND
  0
ENDTAB
  0
TABLE
  2
LAYER
 70
     3
  0
LAYER
  2
FOREGROUND
 70
    64
 62
     7
  6
CONTINUOUS
  0
LAYER
  2
BACKGROUND
 70
    65
 62
    -7
  6
CONTINUOUS
  0
LAYER
  2
0
 70
    64
 62
     7
  6
CONTINUOUS
  0
ENDTAB
  0
ENDSEC
  0
SECTION
  2
ENTITIES
  0
POLYLINE
  8
FOREGROUND
  6
CONTINUOUS
 66
     1
 40
0.000000
 41
0.000000
  0
VERTEX
  8
FOREGROUND
  6
CONTINUOUS
 10
0.000000
 20
2.538360
  0
VERTEX
  8
FOREGROUND
  6
CONTINUOUS
 10
8.499920
 20
2.538360
  0
VERTEX
  8
FOREGROUND
  6
CONTINUOUS
 10
8.499920
 20
-8.461640
  0
VERTEX
  8
FOREGROUND
  6
CONTINUOUS
 10
0.000000
 20
-8.461640
  0
VERTEX
  8
FOREGROUND
  6
CONTINUOUS
 10
0.000000
 20
2.538360
  0
SEQEND
  8
0
  0
POLYLINE
  8
FOREGROUND
  6
CONTINUOUS
 66
     1
 40
0.000000
 41
0.000000
  0
VERTEX
  8
FOREGROUND
  6
CONTINUOUS
 10
0.000000
 20
2.538360
  0
VERTEX
  8
FOREGROUND
  6
CONTINUOUS
 10
8.499920
 20
2.538360
  0
VERTEX
  8
FOREGROUND
  6
CONTINUOUS
 10
8.499920
 20
-8.461640
  0
VERTEX
  8
FOREGROUND
  6
CONTINUOUS
 10
0.000000
 20
-8.461640
  0
VERTEX
  8
FOREGROUND
  6
CONTINUOUS
 10
0.000000
 20
2.538360
  0
SEQEND
  8
0
  0
POLYLINE
  8
0
  6
CONTINUOUS
 66
     1
 40
0.014080
 41
0.014080
  0
VERTEX
  8
0
  6
CONTINUOUS
 10
6.768960
 20
1.371480
  0
VERTEX
  8
0
  6
CONTINUOUS
 10
6.708240
 20
1.376760
  0
VERTEX
  8
0
  6
CONTINUOUS
 10
6.628600
 20
1.388640
  0
VERTEX
  8
0
  6
CONTINUOUS
 10
6.581960
 20
1.398320
  0
VERTEX
  8
0
  6
CONTINUOUS
 10
6.540160
 20
1.409760
  0
VERTEX
  8
0
  6
CONTINUOUS
 10
6.484720
 20
1.430000
  0
VERTEX
  8
0
  6
CONTINUOUS
 10
6.451280
 20
1.445400
  0
VERTEX
  8
0
  6
CONTINUOUS
 10
6.390560
 20
1.480600
  0
VERTEX
  8
0
  6
CONTINUOUS
 10
6.332920
 20
1.520640
  0
VERTEX
  8
0
  6
CONTINUOUS
 10
6.206200
 20
1.613920
  0
VERTEX
  8
0
  6
CONTINUOUS
 10
6.167920
 20
1.639440
  0
VERTEX
  8
0
  6
CONTINUOUS
 10
6.138440
 20
1.665400
  0
VERTEX
  8
0
  6
CONTINUOUS
 10
6.083880
 20
1.704120
  0
VERTEX
  8
0
  6
CONTINUOUS
 10
6.020080
 20
1.740200
  0
VERTEX
  8
0
  6
CONTINUOUS
 10
5.949680
 20
1.771880
  0
VERTEX
  8
0
  6
CONTINUOUS
 10
5.899960
 20
1.789480
  0
VERTEX
  8
0
  6
CONTINUOUS
 10
5.849360
 20
1.803560
  0
VERTEX
  8
0
  6
CONTINUOUS
 10
5.798760
 20
1.813680
  0
VERTEX
  8
0
  6
CONTINUOUS
 10
5.748600
 20
1.818520
  0
VERTEX
  8
0
  6
CONTINUOUS
 10
5.723960
 20
1.818960
  0
VERTEX
  8
0
  6
CONTINUOUS
 10
5.699760
 20
1.818080
  0
VERTEX
  8
0
  6
CONTINUOUS
 10
5.653120
 20
1.811480
  0
VERTEX
  8
0
  6
CONTINUOUS
 10
5.630680
 20
1.805760
  0
VERTEX
  8
0
  6
CONTINUOUS
 10
5.588880
 20
1.788600
  0
VERTEX
  8
0
  6
CONTINUOUS
 10
5.569080
 20
1.777160
  0
VERTEX
  8
0
  6
CONTINUOUS
 10
5.541800
 20
1.756480
  0
VERTEX
  8
0
  6
CONTINUOUS
 10
5.510120
 20
1.721280
  0
VERTEX
  8
0
  6
CONTINUOUS
 10
5.490320
 20
1.688720
  0
VERTEX
  8
0
  6
CONTINUOUS
 10
5.486360
 20
1.684760
  0
VERTEX
  8
0
  6
CONTINUOUS
 10
5.271640
 20
1.684760
  0
VERTEX
  8
0
  6
CONTINUOUS
 10
5.271640
 20
1.271160
  0
VERTEX
  8
0
  6
CONTINUOUS
 10
6.774240
 20
1.271160
  0
VERTEX
  8
0
  6
CONTINUOUS
 10
6.774240
 20
1.371480
  0
VERTEX
  8
0
  6
CONTINUOUS
 10
6.768960
 20
1.371480
  0
SEQEND
  8
0
  0
SOLID
  8
0
 62
    15
 10
3.349280
 20
1.218360
 11
3.350160
 21
1.959760
 12
3.389320
 22
1.193280
 13
3.389760
 23
1.934680
  0
POLYLINE
  8
0
  6
CONTINUOUS
 66
     1
 40
0.000000
 41
0.000000
  0
VERTEX
  8
0
  6
CONTINUOUS
 10
3.349280
 20
1.218360
  0
VERTEX
  8
0
  6
CONTINUOUS
 10
3.350160
 20
1.959760
  0
VERTEX
  8
0
  6
CONTINUOUS
 10
3.389760
 20
1.934680
  0
VERTEX
  8
0
  6
CONTINUOUS
 10
3.389320
 20
1.193280
  0
VERTEX
  8
0
  6
CONTINUOUS
 10
3.349280
 20
1.218360
  0
SEQEND
  8
0
  0
SOLID
  8
0
 62
    15
 10
2.557720
 20
1.186680
 11
2.558160
 21
1.928080
 12
2.772440
 22
1.186680
 13
2.772880
 23
1.928080
  0
POLYLINE
  8
0
  6
CONTINUOUS
 66
     1
 40
0.000000
 41
0.000000
  0
VERTEX
  8
0
  6
CONTINUOUS
 10
2.557720
 20
1.186680
  0
VERTEX
  8
0
  6
CONTINUOUS
 10
2.558160
 20
1.928080
  0
VERTEX
  8
0
  6
CONTINUOUS
 10
2.772880
 20
1.928080
  0
VERTEX
  8
0
  6
CONTINUOUS
 10
2.772440
 20
1.186680
  0
VERTEX
  8
0
  6
CONTINUOUS
 10
2.557720
 20
1.186680
  0
SEQEND
  8
0
  0
SOLID
  8
0
 62
    15
 10
2.772440
 20
1.186680
 11
2.772880
 21
1.928080
 12
2.776400
 22
1.190640
 13
2.776840
 23
1.932480
  0
POLYLINE
  8
0
  6
CONTINUOUS
 66
     1
 40
0.000000
 41
0.000000
  0
VERTEX
  8
0
  6
CONTINUOUS
 10
2.772440
 20
1.186680
  0
VERTEX
  8
0
  6
CONTINUOUS
 10
2.772880
 20
1.928080
  0
VERTEX
  8
0
  6
CONTINUOUS
 10
2.776840
 20
1.932480
  0
VERTEX
  8
0
  6
CONTINUOUS
 10
2.776400
 20
1.190640
  0
VERTEX
  8
0
  6
CONTINUOUS
 10
2.772440
 20
1.186680
  0
SEQEND
  8
0
  0
SOLID
  8
0
 62
    15
 10
2.776400
 20
1.190640
 11
2.776840
 21
1.932480
 12
2.789600
 22
1.212640
 13
2.790040
 23
1.954480
  0
POLYLINE
  8
0
  6
CONTINUOUS
 66
     1
 40
0.000000
 41
0.000000
  0
VERTEX
  8
0
  6
CONTINUOUS
 10
2.776400
 20
1.190640
  0
VERTEX
  8
0
  6
CONTINUOUS
 10
2.776840
 20
1.932480
  0
VERTEX
  8
0
  6
CONTINUOUS
 10
2.790040
 20
1.954480
  0
VERTEX
  8
0
  6
CONTINUOUS
 10
2.789600
 20
1.212640
  0
VERTEX
  8
0
  6
CONTINUOUS
 10
2.776400
 20
1.190640
  0
SEQEND
  8
0
  0
SOLID
  8
0
 62
    15
 10
2.789600
 20
1.212640
 11
2.790040
 21
1.954480
 12
2.803680
 22
1.232880
 13
2.804560
 23
1.974280
  0
POLYLINE
  8
0
  6
CONTINUOUS
 66
     1
 40
0.000000
 41
0.000000
  0
VERTEX
  8
0
  6
CONTINUOUS
 10
2.789600
 20
1.212640
  0
VERTEX
  8
0
  6
CONTINUOUS
 10
2.790040
 20
1.954480
  0
VERTEX
  8
0
  6
CONTINUOUS
 10
2.804560
 20
1.974280
  0
VERTEX
  8
0
  6
CONTINUOUS
 10
2.803680
 20
1.232880
  0
VERTEX
  8
0
  6
CONTINUOUS
 10
2.789600
 20
1.212640
  0
SEQEND
  8
0
  0
SOLID
  8
0
 62
    15
 10
2.803680
 20
1.232880
 11
2.804560
 21
1.974280
 12
2.819520
 22
1.250480
 13
2.820400
 23
1.991880
  0
POLYLINE
  8
0
  6
CONTINUOUS
 66
     1
 40
0.000000
 41
0.000000
  0
VERTEX
  8
0
  6
CONTINUOUS
 10
2.803680
 20
1.232880
  0
VERTEX
  8
0
  6
CONTINUOUS
 10
2.804560
 20
1.974280
  0
VERTEX
  8
0
  6
CONTINUOUS
 10
2.820400
 20
1.991880
  0
VERTEX
  8
0
  6
CONTINUOUS
 10
2.819520
 20
1.250480
  0
VERTEX
  8
0
  6
CONTINUOUS
 10
2.803680
 20
1.232880
  0
SEQEND
  8
0
  0
SOLID
  8
0
 62
    15
 10
2.819520
 20
1.250480
 11
2.820400
 21
1.991880
 12
2.837120
 22
1.265880
 13
2.837560
 23
2.007280
  0
POLYLINE
  8
0
  6
CONTINUOUS
 66
     1
 40
0.000000
 41
0.000000
  0
VERTEX
  8
0
  6
CONTINUOUS
 10
2.819520
 20
1.250480
  0
VERTEX
  8
0
  6
CONTINUOUS
 10
2.820400
 20
1.991880
  0
VERTEX
  8
0
  6
CONTINUOUS
 10
2.837560
 20
2.007280
  0
VERTEX
  8
0
  6
CONTINUOUS
 10
2.837120
 20
1.265880
  0
VERTEX
  8
0
  6
CONTINUOUS
 10
2.819520
 20
1.250480
  0
SEQEND
  8
0
  0
SOLID
  8
0
 62
    15
 10
2.837120
 20
1.265880
 11
2.837560
 21
2.007280
 12
2.874960
 22
1.290520
 13
2.875400
 23
2.031920
  0
POLYLINE
  8
0
  6
CONTINUOUS
 66
     1
 40
0.000000
 41
0.000000
  0
VERTEX
  8
0
  6
CONTINUOUS
 10
2.837120
 20
1.265880
  0
VERTEX
  8
0
  6
CONTINUOUS
 10
2.837560
 20
2.007280
  0
VERTEX
  8
0
  6
CONTINUOUS
 10
2.875400
 20
2.031920
  0
VERTEX
  8
0
  6
CONTINUOUS
 10
2.874960
 20
1.290520
  0
VERTEX
  8
0
  6
CONTINUOUS
 10
2.837120
 20
1.265880
  0
SEQEND
  8
0
  0
SOLID
  8
0
 62
    15
 10
2.874960
 20
1.290520
 11
2.875400
 21
2.031920
 12
2.916760
 22
1.307240
 13
2.917200
 23
2.049080
  0
POLYLINE
  8
0
  6
CONTINUOUS
 66
     1
 40
0.000000
 41
0.000000
  0
VERTEX
  8
0
  6
CONTINUOUS
 10
2.874960
 20
1.290520
  0
VERTEX
  8
0
  6
CONTINUOUS
 10
2.875400
 20
2.031920
  0
VERTEX
  8
0
  6
CONTINUOUS
 10
2.917200
 20
2.049080
  0
VERTEX
  8
0
  6
CONTINUOUS
 10
2.916760
 20
1.307240
  0
VERTEX
  8
0
  6
CONTINUOUS
 10
2.874960
 20
1.290520
  0
SEQEND
  8
0
  0
SOLID
  8
0
 62
    15
 10
2.916760
 20
1.307240
 11
2.917200
 21
2.049080
 12
2.962080
 22
1.317360
 13
2.962520
 23
2.059200
  0
POLYLINE
  8
0
  6
CONTINUOUS
 66
     1
 40
0.000000
 41
0.000000
  0
VERTEX
  8
0
  6
CONTINUOUS
 10
2.916760
 20
1.307240
  0
VERTEX
  8
0
  6
CONTINUOUS
 10
2.917200
 20
2.049080
  0
VERTEX
  8
0
  6
CONTINUOUS
 10
2.962520
 20
2.059200
  0
VERTEX
  8
0
  6
CONTINUOUS
 10
2.962080
 20
1.317360
  0
VERTEX
  8
0
  6
CONTINUOUS
 10
2.916760
 20
1.307240
  0
SEQEND
  8
0
  0
SOLID
  8
0
 62
    15
 10
2.962080
 20
1.317360
 11
2.962520
 21
2.059200
 12
3.010040
 22
1.320880
 13
3.010480
 23
2.062280
  0
POLYLINE
  8
0
  6
CONTINUOUS
 66
     1
 40
0.000000
 41
0.000000
  0
VERTEX
  8
0
  6
CONTINUOUS
 10
2.962080
 20
1.317360
  0
VERTEX
  8
0
  6
CONTINUOUS
 10
2.962520
 20
2.059200
  0
VERTEX
  8
0
  6
CONTINUOUS
 10
3.010480
 20
2.062280
  0
VERTEX
  8
0
  6
CONTINUOUS
 10
3.010040
 20
1.320880
  0
VERTEX
  8
0
  6
CONTINUOUS
 10
2.962080
 20
1.317360
  0
SEQEND
  8
0
  0
SOLID
  8
0
 62
    15
 10
3.010040
 20
1.320880
 11
3.010480
 21
2.062280
 12
3.059760
 22
1.318680
 13
3.060200
 23
2.060080
  0
POLYLINE
  8
0
  6
CONTINUOUS
 66
     1
 40
0.000000
 41
0.000000
  0
VERTEX
  8
0
  6
CONTINUOUS
 10
3.010040
 20
1.320880
  0
VERTEX
  8
0
  6
CONTINUOUS
 10
3.010480
 20
2.062280
  0
VERTEX
  8
0
  6
CONTINUOUS
 10
3.060200
 20
2.060080
  0
VERTEX
  8
0
  6
CONTINUOUS
 10
3.059760
 20
1.318680
  0
VERTEX
  8
0
  6
CONTINUOUS
 10
3.010040
 20
1.320880
  0
SEQEND
  8
0
  0
SOLID
  8
0
 62
    15
 10
3.059760
 20
1.318680
 11
3.060200
 21
2.060080
 12
3.110360
 22
1.311200
 13
3.110800
 23
2.052600
  0
POLYLINE
  8
0
  6
CONTINUOUS
 66
     1
 40
0.000000
 41
0.000000
  0
VERTEX
  8
0
  6
CONTINUOUS
 10
3.059760
 20
1.318680
  0
VERTEX
  8
0
  6
CONTINUOUS
 10
3.060200
 20
2.060080
  0
VERTEX
  8
0
  6
CONTINUOUS
 10
3.110800
 20
2.052600
  0
VERTEX
  8
0
  6
CONTINUOUS
 10
3.110360
 20
1.311200
  0
VERTEX
  8
0
  6
CONTINUOUS
 10
3.059760
 20
1.318680
  0
SEQEND
  8
0
  0
SOLID
  8
0
 62
    15
 10
3.110360
 20
1.311200
 11
3.110800
 21
2.052600
 12
3.160960
 22
1.298880
 13
3.161400
 23
2.040720
  0
POLYLINE
  8
0
  6
CONTINUOUS
 66
     1
 40
0.000000
 41
0.000000
  0
VERTEX
  8
0
  6
CONTINUOUS
 10
3.110360
 20
1.311200
  0
VERTEX
  8
0
  6
CONTINUOUS
 10
3.110800
 20
2.052600
  0
VERTEX
  8
0
  6
CONTINUOUS
 10
3.161400
 20
2.040720
  0
VERTEX
  8
0
  6
CONTINUOUS
 10
3.160960
 20
1.298880
  0
VERTEX
  8
0
  6
CONTINUOUS
 10
3.110360
 20
1.311200
  0
SEQEND
  8
0
  0
SOLID
  8
0
 62
    15
 10
3.160960
 20
1.298880
 11
3.161400
 21
2.040720
 12
3.211120
 22
1.283040
 13
3.211560
 23
2.024440
  0
POLYLINE
  8
0
  6
CONTINUOUS
 66
     1
 40
0.000000
 41
0.000000
  0
VERTEX
  8
0
  6
CONTINUOUS
 10
3.160960
 20
1.298880
  0
VERTEX
  8
0
  6
CONTINUOUS
 10
3.161400
 20
2.040720
  0
VERTEX
  8
0
  6
CONTINUOUS
 10
3.211560
 20
2.024440
  0
VERTEX
  8
0
  6
CONTINUOUS
 10
3.211120
 20
1.283040
  0
VERTEX
  8
0
  6
CONTINUOUS
 10
3.160960
 20
1.298880
  0
SEQEND
  8
0
  0
SOLID
  8
0
 62
    15
 10
3.211120
 20
1.283040
 11
3.211560
 21
2.024440
 12
3.259520
 22
1.263680
 13
3.259960
 23
2.005520
  0
POLYLINE
  8
0
  6
CONTINUOUS
 66
     1
 40
0.000000
 41
0.000000
  0
VERTEX
  8
0
  6
CONTINUOUS
 10
3.211120
 20
1.283040
  0
VERTEX
  8
0
  6
CONTINUOUS
 10
3.211560
 20
2.024440
  0
VERTEX
  8
0
  6
CONTINUOUS
 10
3.259960
 20
2.005520
  0
VERTEX
  8
0
  6
CONTINUOUS
 10
3.259520
 20
1.263680
  0
VERTEX
  8
0
  6
CONTINUOUS
 10
3.211120
 20
1.283040
  0
SEQEND
  8
0
  0
SOLID
  8
0
 62
    15
 10
3.259520
 20
1.263680
 11
3.259960
 21
2.005520
 12
3.306160
 22
1.242120
 13
3.306600
 23
1.983520
  0
POLYLINE
  8
0
  6
CONTINUOUS
 66
     1
 40
0.000000
 41
0.000000
  0
VERTEX
  8
0
  6
CONTINUOUS
 10
3.259520
 20
1.263680
  0
VERTEX
  8
0
  6
CONTINUOUS
 10
3.259960
 20
2.005520
  0
VERTEX
  8
0
  6
CONTINUOUS
 10
3.306600
 20
1.983520
  0
VERTEX
  8
0
  6
CONTINUOUS
 10
3.306160
 20
1.242120
  0
VERTEX
  8
0
  6
CONTINUOUS
 10
3.259520
 20
1.263680
  0
SEQEND
  8
0
  0
SOLID
  8
0
 62
    15
 10
3.306160
 20
1.242120
 11
3.306600
 21
1.983520
 12
3.349280
 22
1.218360
 13
3.350160
 23
1.959760
  0
POLYLINE
  8
0
  6
CONTINUOUS
 66
     1
 40
0.000000
 41
0.000000
  0
VERTEX
  8
0
  6
CONTINUOUS
 10
3.306160
 20
1.242120
  0
VERTEX
  8
0
  6
CONTINUOUS
 10
3.306600
 20
1.983520
  0
VERTEX
  8
0
  6
CONTINUOUS
 10
3.350160
 20
1.959760
  0
VERTEX
  8
0
  6
CONTINUOUS
 10
3.349280
 20
1.218360
  0
VERTEX
  8
0
  6
CONTINUOUS
 10
3.306160
 20
1.242120
  0
SEQEND
  8
0
  0
SOLID
  8
0
 62
    15
 10
4.060320
 20
0.873400
 11
4.061200
 21
1.614800
 12
4.060320
 22
0.773520
 13
4.061200
 23
1.514920
  0
POLYLINE
  8
0
  6
CONTINUOUS
 66
     1
 40
0.000000
 41
0.000000
  0
VERTEX
  8
0
  6
CONTINUOUS
 10
4.060320
 20
0.873400
  0
VERTEX
  8
0
  6
CONTINUOUS
 10
4.061200
 20
1.614800
  0
VERTEX
  8
0
  6
CONTINUOUS
 10
4.061200
 20
1.514920
  0
VERTEX
  8
0
  6
CONTINUOUS
 10
4.060320
 20
0.773520
  0
VERTEX
  8
0
  6
CONTINUOUS
 10
4.060320
 20
0.873400
  0
SEQEND
  8
0
  0
SOLID
  8
0
 62
    15
 10
3.389320
 20
1.193280
 11
3.389760
 21
1.934680
 12
3.424080
 22
1.167320
 13
3.424520
 23
1.908720
  0
POLYLINE
  8
0
  6
CONTINUOUS
 66
     1
 40
0.000000
 41
0.000000
  0
VERTEX
  8
0
  6
CONTINUOUS
 10
3.389320
 20
1.193280
  0
VERTEX
  8
0
  6
CONTINUOUS
 10
3.389760
 20
1.934680
  0
VERTEX
  8
0
  6
CONTINUOUS
 10
3.424520
 20
1.908720
  0
VERTEX
  8
0
  6
CONTINUOUS
 10
3.424080
 20
1.167320
  0
VERTEX
  8
0
  6
CONTINUOUS
 10
3.389320
 20
1.193280
  0
SEQEND
  8
0
  0
SOLID
  8
0
 62
    15
 10
3.424080
 20
1.167320
 11
3.424520
 21
1.908720
 12
3.454000
 22
1.141360
 13
3.454440
 23
1.882760
  0
POLYLINE
  8
0
  6
CONTINUOUS
 66
     1
 40
0.000000
 41
0.000000
  0
VERTEX
  8
0
  6
CONTINUOUS
 10
3.424080
 20
1.167320
  0
VERTEX
  8
0
  6
CONTINUOUS
 10
3.424520
 20
1.908720
  0
VERTEX
  8
0
  6
CONTINUOUS
 10
3.454440
 20
1.882760
  0
VERTEX
  8
0
  6
CONTINUOUS
 10
3.454000
 20
1.141360
  0
VERTEX
  8
0
  6
CONTINUOUS
 10
3.424080
 20
1.167320
  0
SEQEND
  8
0
  0
SOLID
  8
0
 62
    15
 10
3.454000
 20
1.141360
 11
3.454440
 21
1.882760
 12
3.491840
 22
1.115840
 13
3.492720
 23
1.857240
  0
POLYLINE
  8
0
  6
CONTINUOUS
 66
     1
 40
0.000000
 41
0.000000
  0
VERTEX
  8
0
  6
CONTINUOUS
 10
3.454000
 20
1.141360
  0
VERTEX
  8
0
  6
CONTINUOUS
 10
3.454440
 20
1.882760
  0
VERTEX
  8
0
  6
CONTINUOUS
 10
3.492720
 20
1.857240
  0
VERTEX
  8
0
  6
CONTINUOUS
 10
3.491840
 20
1.115840
  0
VERTEX
  8
0
  6
CONTINUOUS
 10
3.454000
 20
1.141360
  0
SEQEND
  8
0
  0
SOLID
  8
0
 62
    15
 10
3.491840
 20
1.115840
 11
3.492720
 21
1.857240
 12
3.527040
 22
1.090760
 13
3.527480
 23
1.832600
  0
POLYLINE
  8
0
  6
CONTINUOUS
 66
     1
 40
0.000000
 41
0.000000
  0
VERTEX
  8
0
  6
CONTINUOUS
 10
3.491840
 20
1.115840
  0
VERTEX
  8
0
  6
CONTINUOUS
 10
3.492720
 20
1.857240
  0
VERTEX
  8
0
  6
CONTINUOUS
 10
3.527480
 20
1.832600
  0
VERTEX
  8
0
  6
CONTINUOUS
 10
3.527040
 20
1.090760
  0
VERTEX
  8
0
  6
CONTINUOUS
 10
3.491840
 20
1.115840
  0
SEQEND
  8
0
  0
SOLID
  8
0
 62
    15
 10
3.527040
 20
1.090760
 11
3.527480
 21
1.832600
 12
3.559160
 22
1.067000
 13
3.559600
 23
1.808840
  0
POLYLINE
  8
0
  6
CONTINUOUS
 66
     1
 40
0.000000
 41
0.000000
  0
VERTEX
  8
0
  6
CONTINUOUS
 10
3.527040
 20
1.090760
  0
VERTEX
  8
0
  6
CONTINUOUS
 10
3.527480
 20
1.832600
  0
VERTEX
  8
0
  6
CONTINUOUS
 10
3.559600
 20
1.808840
  0
VERTEX
  8
0
  6
CONTINUOUS
 10
3.559160
 20
1.067000
  0
VERTEX
  8
0
  6
CONTINUOUS
 10
3.527040
 20
1.090760
  0
SEQEND
  8
0
  0
SOLID
  8
0
 62
    15
 10
3.559160
 20
1.067000
 11
3.559600
 21
1.808840
 12
3.589520
 22
1.044120
 13
3.589960
 23
1.785960
  0
POLYLINE
  8
0
  6
CONTINUOUS
 66
     1
 40
0.000000
 41
0.000000
  0
VERTEX
  8
0
  6
CONTINUOUS
 10
3.559160
 20
1.067000
  0
VERTEX
  8
0
  6
CONTINUOUS
 10
3.559600
 20
1.808840
  0
VERTEX
  8
0
  6
CONTINUOUS
 10
3.589960
 20
1.785960
  0
VERTEX
  8
0
  6
CONTINUOUS
 10
3.589520
 20
1.044120
  0
VERTEX
  8
0
  6
CONTINUOUS
 10
3.559160
 20
1.067000
  0
SEQEND
  8
0
  0
SOLID
  8
0
 62
    15
 10
3.589520
 20
1.044120
 11
3.589960
 21
1.785960
 12
3.647600
 22
1.001880
 13
3.648040
 23
1.743720
  0
POLYLINE
  8
0
  6
CONTINUOUS
 66
     1
 40
0.000000
 41
0.000000
  0
VERTEX
  8
0
  6
CONTINUOUS
 10
3.589520
 20
1.044120
  0
VERTEX
  8
0
  6
CONTINUOUS
 10
3.589960
 20
1.785960
  0
VERTEX
  8
0
  6
CONTINUOUS
 10
3.648040
 20
1.743720
  0
VERTEX
  8
0
  6
CONTINUOUS
 10
3.647600
 20
1.001880
  0
VERTEX
  8
0
  6
CONTINUOUS
 10
3.589520
 20
1.044120
  0
SEQEND
  8
0
  0
SOLID
  8
0
 62
    15
 10
3.647600
 20
1.001880
 11
3.648040
 21
1.743720
 12
3.706120
 22
0.964480
 13
3.706560
 23
1.705880
  0
POLYLINE
  8
0
  6
CONTINUOUS
 66
     1
 40
0.000000
 41
0.000000
  0
VERTEX
  8
0
  6
CONTINUOUS
 10
3.647600
 20
1.001880
  0
VERTEX
  8
0
  6
CONTINUOUS
 10
3.648040
 20
1.743720
  0
VERTEX
  8
0
  6
CONTINUOUS
 10
3.706560
 20
1.705880
  0
VERTEX
  8
0
  6
CONTINUOUS
 10
3.706120
 20
0.964480
  0
VERTEX
  8
0
  6
CONTINUOUS
 10
3.647600
 20
1.001880
  0
SEQEND
  8
0
  0
SOLID
  8
0
 62
    15
 10
3.706120
 20
0.964480
 11
3.706560
 21
1.705880
 12
3.737360
 22
0.947320
 13
3.737800
 23
1.689160
  0
POLYLINE
  8
0
  6
CONTINUOUS
 66
     1
 40
0.000000
 41
0.000000
  0
VERTEX
  8
0
  6
CONTINUOUS
 10
3.706120
 20
0.964480
  0
VERTEX
  8
0
  6
CONTINUOUS
 10
3.706560
 20
1.705880
  0
VERTEX
  8
0
  6
CONTINUOUS
 10
3.737800
 20
1.689160
  0
VERTEX
  8
0
  6
CONTINUOUS
 10
3.737360
 20
0.947320
  0
VERTEX
  8
0
  6
CONTINUOUS
 10
3.706120
 20
0.964480
  0
SEQEND
  8
0
  0
SOLID
  8
0
 62
     7
 10
3.737360
 20
0.947320
 11
3.737800
 21
1.689160
 12
3.770800
 22
0.931920
 13
3.771240
 23
1.673760
  0
POLYLINE
  8
0
  6
CONTINUOUS
 66
     1
 40
0.000000
 41
0.000000
  0
VERTEX
  8
0
  6
CONTINUOUS
 10
3.737360
 20
0.947320
  0
VERTEX
  8
0
  6
CONTINUOUS
 10
3.737800
 20
1.689160
  0
VERTEX
  8
0
  6
CONTINUOUS
 10
3.771240
 20
1.673760
  0
VERTEX
  8
0
  6
CONTINUOUS
 10
3.770800
 20
0.931920
  0
VERTEX
  8
0
  6
CONTINUOUS
 10
3.737360
 20
0.947320
  0
SEQEND
  8
0
  0
SOLID
  8
0
 62
     7
 10
3.770800
 20
0.931920
 11
3.771240
 21
1.673760
 12
3.806880
 22
0.918280
 13
3.807320
 23
1.659680
  0
POLYLINE
  8
0
  6
CONTINUOUS
 66
     1
 40
0.000000
 41
0.000000
  0
VERTEX
  8
0
  6
CONTINUOUS
 10
3.770800
 20
0.931920
  0
VERTEX
  8
0
  6
CONTINUOUS
 10
3.771240
 20
1.673760
  0
VERTEX
  8
0
  6
CONTINUOUS
 10
3.807320
 20
1.659680
  0
VERTEX
  8
0
  6
CONTINUOUS
 10
3.806880
 20
0.918280
  0
VERTEX
  8
0
  6
CONTINUOUS
 10
3.770800
 20
0.931920
  0
SEQEND
  8
0
  0
SOLID
  8
0
 62
     7
 10
3.806880
 20
0.918280
 11
3.807320
 21
1.659680
 12
3.846480
 22
0.905960
 13
3.847360
 23
1.647360
  0
POLYLINE
  8
0
  6
CONTINUOUS
 66
     1
 40
0.000000
 41
0.000000
  0
VERTEX
  8
0
  6
CONTINUOUS
 10
3.806880
 20
0.918280
  0
VERTEX
  8
0
  6
CONTINUOUS
 10
3.807320
 20
1.659680
  0
VERTEX
  8
0
  6
CONTINUOUS
 10
3.847360
 20
1.647360
  0
VERTEX
  8
0
  6
CONTINUOUS
 10
3.846480
 20
0.905960
  0
VERTEX
  8
0
  6
CONTINUOUS
 10
3.806880
 20
0.918280
  0
SEQEND
  8
0
  0
SOLID
  8
0
 62
     7
 10
3.846480
 20
0.905960
 11
3.847360
 21
1.647360
 12
3.890920
 22
0.894960
 13
3.891360
 23
1.636800
  0
POLYLINE
  8
0
  6
CONTINUOUS
 66
     1
 40
0.000000
 41
0.000000
  0
VERTEX
  8
0
  6
CONTINUOUS
 10
3.846480
 20
0.905960
  0
VERTEX
  8
0
  6
CONTINUOUS
 10
3.847360
 20
1.647360
  0
VERTEX
  8
0
  6
CONTINUOUS
 10
3.891360
 20
1.636800
  0
VERTEX
  8
0
  6
CONTINUOUS
 10
3.890920
 20
0.894960
  0
VERTEX
  8
0
  6
CONTINUOUS
 10
3.846480
 20
0.905960
  0
SEQEND
  8
0
  0
SOLID
  8
0
 62
     7
 10
3.890920
 20
0.894960
 11
3.891360
 21
1.636800
 12
3.939760
 22
0.886160
 13
3.940200
 23
1.627560
  0
POLYLINE
  8
0
  6
CONTINUOUS
 66
     1
 40
0.000000
 41
0.000000
  0
VERTEX
  8
0
  6
CONTINUOUS
 10
3.890920
 20
0.894960
  0
VERTEX
  8
0
  6
CONTINUOUS
 10
3.891360
 20
1.636800
  0
VERTEX
  8
0
  6
CONTINUOUS
 10
3.940200
 20
1.627560
  0
VERTEX
  8
0
  6
CONTINUOUS
 10
3.939760
 20
0.886160
  0
VERTEX
  8
0
  6
CONTINUOUS
 10
3.890920
 20
0.894960
  0
SEQEND
  8
0
  0
SOLID
  8
0
 62
     7
 10
3.939760
 20
0.886160
 11
3.940200
 21
1.627560
 12
3.994320
 22
0.878680
 13
3.994760
 23
1.620520
  0
POLYLINE
  8
0
  6
CONTINUOUS
 66
     1
 40
0.000000
 41
0.000000
  0
VERTEX
  8
0
  6
CONTINUOUS
 10
3.939760
 20
0.886160
  0
VERTEX
  8
0
  6
CONTINUOUS
 10
3.940200
 20
1.627560
  0
VERTEX
  8
0
  6
CONTINUOUS
 10
3.994760
 20
1.620520
  0
VERTEX
  8
0
  6
CONTINUOUS
 10
3.994320
 20
0.878680
  0
VERTEX
  8
0
  6
CONTINUOUS
 10
3.939760
 20
0.886160
  0
SEQEND
  8
0
  0
SOLID
  8
0
 62
     7
 10
3.994320
 20
0.878680
 11
3.994760
 21
1.620520
 12
4.055040
 22
0.873400
 13
4.055480
 23
1.614800
  0
POLYLINE
  8
0
  6
CONTINUOUS
 66
     1
 40
0.000000
 41
0.000000
  0
VERTEX
  8
0
  6
CONTINUOUS
 10
3.994320
 20
0.878680
  0
VERTEX
  8
0
  6
CONTINUOUS
 10
3.994760
 20
1.620520
  0
VERTEX
  8
0
  6
CONTINUOUS
 10
4.055480
 20
1.614800
  0
VERTEX
  8
0
  6
CONTINUOUS
 10
4.055040
 20
0.873400
  0
VERTEX
  8
0
  6
CONTINUOUS
 10
3.994320
 20
0.878680
  0
SEQEND
  8
0
  0
SOLID
  8
0
 62
     7
 10
4.055040
 20
0.873400
 11
4.055480
 21
1.614800
 12
4.060320
 22
0.873400
 13
4.061200
 23
1.614800
  0
POLYLINE
  8
0
  6
CONTINUOUS
 66
     1
 40
0.000000
 41
0.000000
  0
VERTEX
  8
0
  6
CONTINUOUS
 10
4.055040
 20
0.873400
  0
VERTEX
  8
0
  6
CONTINUOUS
 10
4.055480
 20
1.614800
  0
VERTEX
  8
0
  6
CONTINUOUS
 10
4.061200
 20
1.614800
  0
VERTEX
  8
0
  6
CONTINUOUS
 10
4.060320
 20
0.873400
  0
VERTEX
  8
0
  6
CONTINUOUS
 10
4.055040
 20
0.873400
  0
SEQEND
  8
0
  0
POLYLINE
  8
0
  6
CONTINUOUS
 66
     1
 40
0.000000
 41
0.000000
  0
VERTEX
  8
0
  6
CONTINUOUS
 10
4.060320
 20
0.873400
  0
VERTEX
  8
0
  6
CONTINUOUS
 10
4.060320
 20
0.773520
  0
VERTEX
  8
0
  6
CONTINUOUS
 10
2.557720
 20
0.773520
  0
VERTEX
  8
0
  6
CONTINUOUS
 10
2.557720
 20
1.186680
  0
VERTEX
  8
0
  6
CONTINUOUS
 10
2.772440
 20
1.186680
  0
VERTEX
  8
0
  6
CONTINUOUS
 10
2.776400
 20
1.190640
  0
VERTEX
  8
0
  6
CONTINUOUS
 10
2.789600
 20
1.212640
  0
VERTEX
  8
0
  6
CONTINUOUS
 10
2.803680
 20
1.232880
  0
VERTEX
  8
0
  6
CONTINUOUS
 10
2.819520
 20
1.250480
  0
VERTEX
  8
0
  6
CONTINUOUS
 10
2.837120
 20
1.265880
  0
VERTEX
  8
0
  6
CONTINUOUS
 10
2.874960
 20
1.290520
  0
VERTEX
  8
0
  6
CONTINUOUS
 10
2.916760
 20
1.307240
  0
VERTEX
  8
0
  6
CONTINUOUS
 10
2.962080
 20
1.317360
  0
VERTEX
  8
0
  6
CONTINUOUS
 10
3.010040
 20
1.320880
  0
VERTEX
  8
0
  6
CONTINUOUS
 10
3.059760
 20
1.318680
  0
VERTEX
  8
0
  6
CONTINUOUS
 10
3.110360
 20
1.311200
  0
VERTEX
  8
0
  6
CONTINUOUS
 10
3.160960
 20
1.298880
  0
VERTEX
  8
0
  6
CONTINUOUS
 10
3.211120
 20
1.283040
  0
VERTEX
  8
0
  6
CONTINUOUS
 10
3.259520
 20
1.263680
  0
VERTEX
  8
0
  6
CONTINUOUS
 10
3.306160
 20
1.242120
  0
VERTEX
  8
0
  6
CONTINUOUS
 10
3.349280
 20
1.218360
  0
VERTEX
  8
0
  6
CONTINUOUS
 10
3.389320
 20
1.193280
  0
VERTEX
  8
0
  6
CONTINUOUS
 10
3.424080
 20
1.167320
  0
VERTEX
  8
0
  6
CONTINUOUS
 10
3.454000
 20
1.141360
  0
VERTEX
  8
0
  6
CONTINUOUS
 10
3.491840
 20
1.115840
  0
VERTEX
  8
0
  6
CONTINUOUS
 10
3.527040
 20
1.090760
  0
VERTEX
  8
0
  6
CONTINUOUS
 10
3.559160
 20
1.067000
  0
VERTEX
  8
0
  6
CONTINUOUS
 10
3.589520
 20
1.044120
  0
VERTEX
  8
0
  6
CONTINUOUS
 10
3.647600
 20
1.001880
  0
VERTEX
  8
0
  6
CONTINUOUS
 10
3.706120
 20
0.964480
  0
VERTEX
  8
0
  6
CONTINUOUS
 10
3.737360
 20
0.947320
  0
VERTEX
  8
0
  6
CONTINUOUS
 10
3.770800
 20
0.931920
  0
VERTEX
  8
0
  6
CONTINUOUS
 10
3.806880
 20
0.918280
  0
VERTEX
  8
0
  6
CONTINUOUS
 10
3.846480
 20
0.905960
  0
VERTEX
  8
0
  6
CONTINUOUS
 10
3.890920
 20
0.894960
  0
VERTEX
  8
0
  6
CONTINUOUS
 10
3.939760
 20
0.886160
  0
VERTEX
  8
0
  6
CONTINUOUS
 10
3.994320
 20
0.878680
  0
VERTEX
  8
0
  6
CONTINUOUS
 10
4.055040
 20
0.873400
  0
VERTEX
  8
0
  6
CONTINUOUS
 10
4.060320
 20
0.873400
  0
SEQEND
  8
0
  0
TEXT
  8
0
 10
3.013560
 20
0.576400
 40
0.137975
  1
BA  169
 41
1.000000
  7
SN0
 71
     0
 72
     5
 11
3.604204
 21
0.576400
  0
TEXT
  8
0
 10
2.811600
 20
0.385000
 40
0.137975
  1
1/2" x 1-7/16"
 41
1.000000
  7
SN0
 71
     0
 72
     5
 11
3.805095
 21
0.385000
  0
TEXT
  8
0
 10
7.715400
 20
2.044240
 40
0.137975
  1
panel
 41
1.000000
  7
SN0
 71
     0
 72
     5
 11
8.121868
 21
2.044240
  0
TEXT
  8
0
 10
7.779640
 20
1.852400
 40
0.137975
  1
169
 41
1.000000
  7
SN0
 71
     0
 72
     5
 11
8.057017
 21
1.852400
  0
ENDSEC
  0
EOF
