  0
SECTION
  2
HEADER
  9
$ACADVER
  1
AC1006
  9
$EXTMIN
 10
2.821720
 20
0.355960
  9
$EXTMAX
 10
8.140440
 20
7.320720
  9
$LTSCALE
 40
0.044000
  9
$PDMODE
 70
    35
  9
$PDSIZE
 40
0.035200
  0
ENDSEC
  0
SECTION
  2
TABLES
  0
TABLE
  2
LTYPE
 70
     9
  0
LTYPE
  2
CONTINUOUS
 70
    64
  3
Solid line
 72
    65
 73
     0
 40
0.000000
  0
LTYPE
  2
DASHED
 70
    64
  3
__ __ __ __ __ __ __ __ __ __ __ __ __ __ __
 72
    65
 73
     2
 40
0.000330
 49
0.000220
 49
-0.000110
  0
LTYPE
  2
HIDDEN
 70
    64
  3
 _ _ _ _ _ _ _ _ _ _ _ _ _ _ _ _ _ _ _ _ _ _
 72
    65
 73
     2
 40
0.000165
 49
0.000110
 49
-0.000055
  0
LTYPE
  2
CENTER
 70
    64
  3
____ _ ____ _ ____ _ ____ _ ____ _ ____ _ ____
 72
    65
 73
     4
 40
0.000880
 49
0.000550
 49
-0.000110
 49
0.000110
 49
-0.000110
  0
LTYPE
  2
PHANTOM
 70
    64
  3
_____ _ _ _____ _ _ _____ _ _ _____ _ _ ____
 72
    65
 73
     6
 40
0.001100
 49
0.000550
 49
-0.000110
 49
0.000110
 49
-0.000110
 49
0.000110
 49
-0.000110
  0
LTYPE
  2
DOT
 70
    64
  3
...............................................
 72
    65
 73
     2
 40
0.000110
 49
0.000000
 49
-0.000110
  0
LTYPE
  2
DASHDOT
 70
    64
  3
__ . __ . __ . __ . __ . __ . __ . __ . __ . __
 72
    65
 73
     4
 40
0.000440
 49
0.000220
 49
-0.000110
 49
0.000000
 49
-0.000110
  0
LTYPE
  2
BORDER
 70
    64
  3
__ __ . __ __ . __ __ . __ __ . __ __ . __ __
 72
    65
 73
     6
 40
0.000770
 49
0.000220
 49
-0.000110
 49
0.000220
 49
-0.000110
 49
0.000000
 49
-0.000110
  0
LTYPE
  2
DIVIDE
 70
    64
  3
__ . . __ . . __ . . __ . . __ . . __ . . __
 72
    65
 73
     6
 40
0.000550
 49
0.000220
 49
-0.000110
 49
0.000000
 49
-0.000110
 49
0.000000
 49
-0.000110
  0
LTYPE
  2
DOTDOT
 70
    64
  3
 . .  . .  . .  . .  . .  . . 
 72
    65
 73
     5
 40
0.000242
 49
-0.000110
 49
0.000000
 49
-0.000110
 49
0.000000
 49
-0.000110
  0
ENDTAB
  0
TABLE
  2
STYLE
 70
     2
  0
STYLE
 70
     0
  2
SN0
 40
0.000000
 41
0.000440
 50
0.000000
 71
     0
 42
0.000000
  3
ROMAND
  0
STYLE
 70
    68
  2
SV0
 40
0.000000
 41
0.000440
 50
0.000000
 71
     0
 42
0.000000
  3
ROMAND
  0
ENDTAB
  0
TABLE
  2
LAYER
 70
     3
  0
LAYER
  2
FOREGROUND
 70
    64
 62
     7
  6
CONTINUOUS
  0
LAYER
  2
BACKGROUND
 70
    65
 62
    -7
  6
CONTINUOUS
  0
LAYER
  2
0
 70
    64
 62
     7
  6
CONTINUOUS
  0
ENDTAB
  0
ENDSEC
  0
SECTION
  2
ENTITIES
  0
POLYLINE
  8
FOREGROUND
  6
CONTINUOUS
 66
     1
 40
0.000000
 41
0.000000
  0
VERTEX
  8
FOREGROUND
  6
CONTINUOUS
 10
0.000000
 20
7.676680
  0
VERTEX
  8
FOREGROUND
  6
CONTINUOUS
 10
8.499920
 20
7.676680
  0
VERTEX
  8
FOREGROUND
  6
CONTINUOUS
 10
8.499920
 20
-3.323320
  0
VERTEX
  8
FOREGROUND
  6
CONTINUOUS
 10
0.000000
 20
-3.323320
  0
VERTEX
  8
FOREGROUND
  6
CONTINUOUS
 10
0.000000
 20
7.676680
  0
SEQEND
  8
0
  0
POLYLINE
  8
FOREGROUND
  6
CONTINUOUS
 66
     1
 40
0.000000
 41
0.000000
  0
VERTEX
  8
FOREGROUND
  6
CONTINUOUS
 10
0.000000
 20
7.676680
  0
VERTEX
  8
FOREGROUND
  6
CONTINUOUS
 10
8.499920
 20
7.676680
  0
VERTEX
  8
FOREGROUND
  6
CONTINUOUS
 10
8.499920
 20
-3.323320
  0
VERTEX
  8
FOREGROUND
  6
CONTINUOUS
 10
0.000000
 20
-3.323320
  0
VERTEX
  8
FOREGROUND
  6
CONTINUOUS
 10
0.000000
 20
7.676680
  0
SEQEND
  8
0
  0
POLYLINE
  8
0
  6
CONTINUOUS
 66
     1
 40
0.014080
 41
0.014080
  0
VERTEX
  8
0
  6
CONTINUOUS
 10
3.132360
 20
5.431800
  0
VERTEX
  8
0
  6
CONTINUOUS
 10
2.828320
 20
5.207840
  0
VERTEX
  8
0
  6
CONTINUOUS
 10
3.137640
 20
4.733520
  0
VERTEX
  8
0
  6
CONTINUOUS
 10
3.140280
 20
4.734840
  0
VERTEX
  8
0
  6
CONTINUOUS
 10
5.661480
 20
4.734840
  0
VERTEX
  8
0
  6
CONTINUOUS
 10
5.662800
 20
4.733080
  0
VERTEX
  8
0
  6
CONTINUOUS
 10
6.345680
 20
5.182760
  0
VERTEX
  8
0
  6
CONTINUOUS
 10
6.178920
 20
5.433120
  0
VERTEX
  8
0
  6
CONTINUOUS
 10
5.936040
 20
5.255800
  0
VERTEX
  8
0
  6
CONTINUOUS
 10
5.858600
 20
5.311240
  0
VERTEX
  8
0
  6
CONTINUOUS
 10
5.761800
 20
5.371520
  0
VERTEX
  8
0
  6
CONTINUOUS
 10
5.670280
 20
5.418160
  0
VERTEX
  8
0
  6
CONTINUOUS
 10
5.604280
 20
5.445440
  0
VERTEX
  8
0
  6
CONTINUOUS
 10
5.540920
 20
5.466120
  0
VERTEX
  8
0
  6
CONTINUOUS
 10
5.479760
 20
5.481080
  0
VERTEX
  8
0
  6
CONTINUOUS
 10
5.440160
 20
5.487680
  0
VERTEX
  8
0
  6
CONTINUOUS
 10
5.401440
 20
5.492080
  0
VERTEX
  8
0
  6
CONTINUOUS
 10
5.363160
 20
5.494720
  0
VERTEX
  8
0
  6
CONTINUOUS
 10
5.325760
 20
5.494720
  0
VERTEX
  8
0
  6
CONTINUOUS
 10
5.289240
 20
5.492960
  0
VERTEX
  8
0
  6
CONTINUOUS
 10
5.217520
 20
5.484600
  0
VERTEX
  8
0
  6
CONTINUOUS
 10
5.182320
 20
5.478000
  0
VERTEX
  8
0
  6
CONTINUOUS
 10
5.113240
 20
5.460400
  0
VERTEX
  8
0
  6
CONTINUOUS
 10
5.045480
 20
5.438400
  0
VERTEX
  8
0
  6
CONTINUOUS
 10
4.978600
 20
5.412880
  0
VERTEX
  8
0
  6
CONTINUOUS
 10
4.673240
 20
5.281320
  0
VERTEX
  8
0
  6
CONTINUOUS
 10
4.527600
 20
5.221920
  0
VERTEX
  8
0
  6
CONTINUOUS
 10
4.450600
 20
5.193320
  0
VERTEX
  8
0
  6
CONTINUOUS
 10
4.370520
 20
5.167360
  0
VERTEX
  8
0
  6
CONTINUOUS
 10
4.286920
 20
5.144920
  0
VERTEX
  8
0
  6
CONTINUOUS
 10
4.243800
 20
5.135240
  0
VERTEX
  8
0
  6
CONTINUOUS
 10
4.154920
 20
5.120720
  0
VERTEX
  8
0
  6
CONTINUOUS
 10
4.109160
 20
5.115880
  0
VERTEX
  8
0
  6
CONTINUOUS
 10
4.062080
 20
5.112800
  0
VERTEX
  8
0
  6
CONTINUOUS
 10
3.989480
 20
5.111480
  0
VERTEX
  8
0
  6
CONTINUOUS
 10
3.914680
 20
5.115440
  0
VERTEX
  8
0
  6
CONTINUOUS
 10
3.836800
 20
5.124680
  0
VERTEX
  8
0
  6
CONTINUOUS
 10
3.756280
 20
5.140080
  0
VERTEX
  8
0
  6
CONTINUOUS
 10
3.672680
 20
5.161640
  0
VERTEX
  8
0
  6
CONTINUOUS
 10
3.615480
 20
5.179680
  0
VERTEX
  8
0
  6
CONTINUOUS
 10
3.527040
 20
5.213120
  0
VERTEX
  8
0
  6
CONTINUOUS
 10
3.435080
 20
5.254480
  0
VERTEX
  8
0
  6
CONTINUOUS
 10
3.340040
 20
5.303760
  0
VERTEX
  8
0
  6
CONTINUOUS
 10
3.241040
 20
5.361840
  0
VERTEX
  8
0
  6
CONTINUOUS
 10
3.138960
 20
5.429160
  0
VERTEX
  8
0
  6
CONTINUOUS
 10
3.132360
 20
5.431800
  0
SEQEND
  8
0
  0
SOLID
  8
0
 62
    15
 10
4.258760
 20
2.029280
 11
4.862440
 21
1.688720
 12
4.242040
 22
1.956240
 13
4.845720
 23
1.615680
  0
POLYLINE
  8
0
  6
CONTINUOUS
 66
     1
 40
0.000000
 41
0.000000
  0
VERTEX
  8
0
  6
CONTINUOUS
 10
4.258760
 20
2.029280
  0
VERTEX
  8
0
  6
CONTINUOUS
 10
4.862440
 20
1.688720
  0
VERTEX
  8
0
  6
CONTINUOUS
 10
4.845720
 20
1.615680
  0
VERTEX
  8
0
  6
CONTINUOUS
 10
4.242040
 20
1.956240
  0
VERTEX
  8
0
  6
CONTINUOUS
 10
4.258760
 20
2.029280
  0
SEQEND
  8
0
  0
SOLID
  8
0
 62
    15
 10
5.292760
 20
3.602280
 11
5.896440
 21
3.261720
 12
5.295400
 22
3.224760
 13
5.899080
 23
2.884200
  0
POLYLINE
  8
0
  6
CONTINUOUS
 66
     1
 40
0.000000
 41
0.000000
  0
VERTEX
  8
0
  6
CONTINUOUS
 10
5.292760
 20
3.602280
  0
VERTEX
  8
0
  6
CONTINUOUS
 10
5.896440
 20
3.261720
  0
VERTEX
  8
0
  6
CONTINUOUS
 10
5.899080
 20
2.884200
  0
VERTEX
  8
0
  6
CONTINUOUS
 10
5.295400
 20
3.224760
  0
VERTEX
  8
0
  6
CONTINUOUS
 10
5.292760
 20
3.602280
  0
SEQEND
  8
0
  0
SOLID
  8
0
 62
    15
 10
5.295400
 20
3.224760
 11
5.899080
 21
2.884200
 12
5.289240
 22
3.220360
 13
5.892920
 23
2.879800
  0
POLYLINE
  8
0
  6
CONTINUOUS
 66
     1
 40
0.000000
 41
0.000000
  0
VERTEX
  8
0
  6
CONTINUOUS
 10
5.295400
 20
3.224760
  0
VERTEX
  8
0
  6
CONTINUOUS
 10
5.899080
 20
2.884200
  0
VERTEX
  8
0
  6
CONTINUOUS
 10
5.892920
 20
2.879800
  0
VERTEX
  8
0
  6
CONTINUOUS
 10
5.289240
 20
3.220360
  0
VERTEX
  8
0
  6
CONTINUOUS
 10
5.295400
 20
3.224760
  0
SEQEND
  8
0
  0
SOLID
  8
0
 62
    15
 10
5.289240
 20
3.220360
 11
5.892920
 21
2.879800
 12
5.138320
 22
3.162280
 13
5.742000
 23
2.821720
  0
POLYLINE
  8
0
  6
CONTINUOUS
 66
     1
 40
0.000000
 41
0.000000
  0
VERTEX
  8
0
  6
CONTINUOUS
 10
5.289240
 20
3.220360
  0
VERTEX
  8
0
  6
CONTINUOUS
 10
5.892920
 20
2.879800
  0
VERTEX
  8
0
  6
CONTINUOUS
 10
5.742000
 20
2.821720
  0
VERTEX
  8
0
  6
CONTINUOUS
 10
5.138320
 20
3.162280
  0
VERTEX
  8
0
  6
CONTINUOUS
 10
5.289240
 20
3.220360
  0
SEQEND
  8
0
  0
SOLID
  8
0
 62
    15
 10
5.138320
 20
3.162280
 11
5.742000
 21
2.821720
 12
5.004560
 22
3.099800
 13
5.608240
 23
2.759240
  0
POLYLINE
  8
0
  6
CONTINUOUS
 66
     1
 40
0.000000
 41
0.000000
  0
VERTEX
  8
0
  6
CONTINUOUS
 10
5.138320
 20
3.162280
  0
VERTEX
  8
0
  6
CONTINUOUS
 10
5.742000
 20
2.821720
  0
VERTEX
  8
0
  6
CONTINUOUS
 10
5.608240
 20
2.759240
  0
VERTEX
  8
0
  6
CONTINUOUS
 10
5.004560
 20
3.099800
  0
VERTEX
  8
0
  6
CONTINUOUS
 10
5.138320
 20
3.162280
  0
SEQEND
  8
0
  0
SOLID
  8
0
 62
    15
 10
5.004560
 20
3.099800
 11
5.608240
 21
2.759240
 12
4.886200
 22
3.033800
 13
5.489880
 23
2.692800
  0
POLYLINE
  8
0
  6
CONTINUOUS
 66
     1
 40
0.000000
 41
0.000000
  0
VERTEX
  8
0
  6
CONTINUOUS
 10
5.004560
 20
3.099800
  0
VERTEX
  8
0
  6
CONTINUOUS
 10
5.608240
 20
2.759240
  0
VERTEX
  8
0
  6
CONTINUOUS
 10
5.489880
 20
2.692800
  0
VERTEX
  8
0
  6
CONTINUOUS
 10
4.886200
 20
3.033800
  0
VERTEX
  8
0
  6
CONTINUOUS
 10
5.004560
 20
3.099800
  0
SEQEND
  8
0
  0
SOLID
  8
0
 62
    15
 10
4.886200
 20
3.033800
 11
5.489880
 21
2.692800
 12
4.782800
 22
2.963840
 13
5.386480
 23
2.623280
  0
POLYLINE
  8
0
  6
CONTINUOUS
 66
     1
 40
0.000000
 41
0.000000
  0
VERTEX
  8
0
  6
CONTINUOUS
 10
4.886200
 20
3.033800
  0
VERTEX
  8
0
  6
CONTINUOUS
 10
5.489880
 20
2.692800
  0
VERTEX
  8
0
  6
CONTINUOUS
 10
5.386480
 20
2.623280
  0
VERTEX
  8
0
  6
CONTINUOUS
 10
4.782800
 20
2.963840
  0
VERTEX
  8
0
  6
CONTINUOUS
 10
4.886200
 20
3.033800
  0
SEQEND
  8
0
  0
SOLID
  8
0
 62
    15
 10
4.782800
 20
2.963840
 11
5.386480
 21
2.623280
 12
4.692160
 22
2.891240
 13
5.295840
 23
2.550240
  0
POLYLINE
  8
0
  6
CONTINUOUS
 66
     1
 40
0.000000
 41
0.000000
  0
VERTEX
  8
0
  6
CONTINUOUS
 10
4.782800
 20
2.963840
  0
VERTEX
  8
0
  6
CONTINUOUS
 10
5.386480
 20
2.623280
  0
VERTEX
  8
0
  6
CONTINUOUS
 10
5.295840
 20
2.550240
  0
VERTEX
  8
0
  6
CONTINUOUS
 10
4.692160
 20
2.891240
  0
VERTEX
  8
0
  6
CONTINUOUS
 10
4.782800
 20
2.963840
  0
SEQEND
  8
0
  0
SOLID
  8
0
 62
    15
 10
4.692160
 20
2.891240
 11
5.295840
 21
2.550240
 12
4.614280
 22
2.816000
 13
5.217960
 23
2.475000
  0
POLYLINE
  8
0
  6
CONTINUOUS
 66
     1
 40
0.000000
 41
0.000000
  0
VERTEX
  8
0
  6
CONTINUOUS
 10
4.692160
 20
2.891240
  0
VERTEX
  8
0
  6
CONTINUOUS
 10
5.295840
 20
2.550240
  0
VERTEX
  8
0
  6
CONTINUOUS
 10
5.217960
 20
2.475000
  0
VERTEX
  8
0
  6
CONTINUOUS
 10
4.614280
 20
2.816000
  0
VERTEX
  8
0
  6
CONTINUOUS
 10
4.692160
 20
2.891240
  0
SEQEND
  8
0
  0
SOLID
  8
0
 62
    15
 10
4.614280
 20
2.816000
 11
5.217960
 21
2.475000
 12
4.547400
 22
2.738560
 13
5.151080
 23
2.398000
  0
POLYLINE
  8
0
  6
CONTINUOUS
 66
     1
 40
0.000000
 41
0.000000
  0
VERTEX
  8
0
  6
CONTINUOUS
 10
4.614280
 20
2.816000
  0
VERTEX
  8
0
  6
CONTINUOUS
 10
5.217960
 20
2.475000
  0
VERTEX
  8
0
  6
CONTINUOUS
 10
5.151080
 20
2.398000
  0
VERTEX
  8
0
  6
CONTINUOUS
 10
4.547400
 20
2.738560
  0
VERTEX
  8
0
  6
CONTINUOUS
 10
4.614280
 20
2.816000
  0
SEQEND
  8
0
  0
SOLID
  8
0
 62
    15
 10
4.547400
 20
2.738560
 11
5.151080
 21
2.398000
 12
4.490200
 22
2.659800
 13
5.093880
 23
2.319240
  0
POLYLINE
  8
0
  6
CONTINUOUS
 66
     1
 40
0.000000
 41
0.000000
  0
VERTEX
  8
0
  6
CONTINUOUS
 10
4.547400
 20
2.738560
  0
VERTEX
  8
0
  6
CONTINUOUS
 10
5.151080
 20
2.398000
  0
VERTEX
  8
0
  6
CONTINUOUS
 10
5.093880
 20
2.319240
  0
VERTEX
  8
0
  6
CONTINUOUS
 10
4.490200
 20
2.659800
  0
VERTEX
  8
0
  6
CONTINUOUS
 10
4.547400
 20
2.738560
  0
SEQEND
  8
0
  0
SOLID
  8
0
 62
    15
 10
4.490200
 20
2.659800
 11
5.093880
 21
2.319240
 12
4.401760
 22
2.499200
 13
5.005440
 23
2.158640
  0
POLYLINE
  8
0
  6
CONTINUOUS
 66
     1
 40
0.000000
 41
0.000000
  0
VERTEX
  8
0
  6
CONTINUOUS
 10
4.490200
 20
2.659800
  0
VERTEX
  8
0
  6
CONTINUOUS
 10
5.093880
 20
2.319240
  0
VERTEX
  8
0
  6
CONTINUOUS
 10
5.005440
 20
2.158640
  0
VERTEX
  8
0
  6
CONTINUOUS
 10
4.401760
 20
2.499200
  0
VERTEX
  8
0
  6
CONTINUOUS
 10
4.490200
 20
2.659800
  0
SEQEND
  8
0
  0
SOLID
  8
0
 62
    15
 10
4.401760
 20
2.499200
 11
5.005440
 21
2.158640
 12
4.339720
 22
2.338160
 13
4.943400
 23
1.997600
  0
POLYLINE
  8
0
  6
CONTINUOUS
 66
     1
 40
0.000000
 41
0.000000
  0
VERTEX
  8
0
  6
CONTINUOUS
 10
4.401760
 20
2.499200
  0
VERTEX
  8
0
  6
CONTINUOUS
 10
5.005440
 20
2.158640
  0
VERTEX
  8
0
  6
CONTINUOUS
 10
4.943400
 20
1.997600
  0
VERTEX
  8
0
  6
CONTINUOUS
 10
4.339720
 20
2.338160
  0
VERTEX
  8
0
  6
CONTINUOUS
 10
4.401760
 20
2.499200
  0
SEQEND
  8
0
  0
SOLID
  8
0
 62
    15
 10
4.339720
 20
2.338160
 11
4.943400
 21
1.997600
 12
4.295280
 22
2.180200
 13
4.898960
 23
1.839640
  0
POLYLINE
  8
0
  6
CONTINUOUS
 66
     1
 40
0.000000
 41
0.000000
  0
VERTEX
  8
0
  6
CONTINUOUS
 10
4.339720
 20
2.338160
  0
VERTEX
  8
0
  6
CONTINUOUS
 10
4.943400
 20
1.997600
  0
VERTEX
  8
0
  6
CONTINUOUS
 10
4.898960
 20
1.839640
  0
VERTEX
  8
0
  6
CONTINUOUS
 10
4.295280
 20
2.180200
  0
VERTEX
  8
0
  6
CONTINUOUS
 10
4.339720
 20
2.338160
  0
SEQEND
  8
0
  0
SOLID
  8
0
 62
    15
 10
4.295280
 20
2.180200
 11
4.898960
 21
1.839640
 12
4.276360
 22
2.103640
 13
4.880040
 23
1.763080
  0
POLYLINE
  8
0
  6
CONTINUOUS
 66
     1
 40
0.000000
 41
0.000000
  0
VERTEX
  8
0
  6
CONTINUOUS
 10
4.295280
 20
2.180200
  0
VERTEX
  8
0
  6
CONTINUOUS
 10
4.898960
 20
1.839640
  0
VERTEX
  8
0
  6
CONTINUOUS
 10
4.880040
 20
1.763080
  0
VERTEX
  8
0
  6
CONTINUOUS
 10
4.276360
 20
2.103640
  0
VERTEX
  8
0
  6
CONTINUOUS
 10
4.295280
 20
2.180200
  0
SEQEND
  8
0
  0
SOLID
  8
0
 62
    15
 10
4.276360
 20
2.103640
 11
4.880040
 21
1.763080
 12
4.258760
 22
2.029280
 13
4.862440
 23
1.688720
  0
POLYLINE
  8
0
  6
CONTINUOUS
 66
     1
 40
0.000000
 41
0.000000
  0
VERTEX
  8
0
  6
CONTINUOUS
 10
4.276360
 20
2.103640
  0
VERTEX
  8
0
  6
CONTINUOUS
 10
4.880040
 20
1.763080
  0
VERTEX
  8
0
  6
CONTINUOUS
 10
4.862440
 20
1.688720
  0
VERTEX
  8
0
  6
CONTINUOUS
 10
4.258760
 20
2.029280
  0
VERTEX
  8
0
  6
CONTINUOUS
 10
4.276360
 20
2.103640
  0
SEQEND
  8
0
  0
SOLID
  8
0
 62
    15
 10
5.292760
 20
3.603160
 11
5.896440
 21
3.262600
 12
5.292760
 22
3.602280
 13
5.896440
 23
3.261720
  0
POLYLINE
  8
0
  6
CONTINUOUS
 66
     1
 40
0.000000
 41
0.000000
  0
VERTEX
  8
0
  6
CONTINUOUS
 10
5.292760
 20
3.603160
  0
VERTEX
  8
0
  6
CONTINUOUS
 10
5.896440
 20
3.262600
  0
VERTEX
  8
0
  6
CONTINUOUS
 10
5.896440
 20
3.261720
  0
VERTEX
  8
0
  6
CONTINUOUS
 10
5.292760
 20
3.602280
  0
VERTEX
  8
0
  6
CONTINUOUS
 10
5.292760
 20
3.603160
  0
SEQEND
  8
0
  0
SOLID
  8
0
 62
    15
 10
4.242040
 20
1.956240
 11
4.845720
 21
1.615680
 12
4.234560
 22
1.920160
 13
4.838240
 23
1.579160
  0
POLYLINE
  8
0
  6
CONTINUOUS
 66
     1
 40
0.000000
 41
0.000000
  0
VERTEX
  8
0
  6
CONTINUOUS
 10
4.242040
 20
1.956240
  0
VERTEX
  8
0
  6
CONTINUOUS
 10
4.845720
 20
1.615680
  0
VERTEX
  8
0
  6
CONTINUOUS
 10
4.838240
 20
1.579160
  0
VERTEX
  8
0
  6
CONTINUOUS
 10
4.234560
 20
1.920160
  0
VERTEX
  8
0
  6
CONTINUOUS
 10
4.242040
 20
1.956240
  0
SEQEND
  8
0
  0
SOLID
  8
0
 62
    15
 10
4.234560
 20
1.920160
 11
4.838240
 21
1.579160
 12
4.226640
 22
1.884080
 13
4.830320
 23
1.543080
  0
POLYLINE
  8
0
  6
CONTINUOUS
 66
     1
 40
0.000000
 41
0.000000
  0
VERTEX
  8
0
  6
CONTINUOUS
 10
4.234560
 20
1.920160
  0
VERTEX
  8
0
  6
CONTINUOUS
 10
4.838240
 20
1.579160
  0
VERTEX
  8
0
  6
CONTINUOUS
 10
4.830320
 20
1.543080
  0
VERTEX
  8
0
  6
CONTINUOUS
 10
4.226640
 20
1.884080
  0
VERTEX
  8
0
  6
CONTINUOUS
 10
4.234560
 20
1.920160
  0
SEQEND
  8
0
  0
SOLID
  8
0
 62
    15
 10
4.226640
 20
1.884080
 11
4.830320
 21
1.543080
 12
4.194520
 22
1.741960
 13
4.798200
 23
1.400960
  0
POLYLINE
  8
0
  6
CONTINUOUS
 66
     1
 40
0.000000
 41
0.000000
  0
VERTEX
  8
0
  6
CONTINUOUS
 10
4.226640
 20
1.884080
  0
VERTEX
  8
0
  6
CONTINUOUS
 10
4.830320
 20
1.543080
  0
VERTEX
  8
0
  6
CONTINUOUS
 10
4.798200
 20
1.400960
  0
VERTEX
  8
0
  6
CONTINUOUS
 10
4.194520
 20
1.741960
  0
VERTEX
  8
0
  6
CONTINUOUS
 10
4.226640
 20
1.884080
  0
SEQEND
  8
0
  0
SOLID
  8
0
 62
    15
 10
4.194520
 20
1.741960
 11
4.798200
 21
1.400960
 12
4.153600
 22
1.604680
 13
4.757280
 23
1.264120
  0
POLYLINE
  8
0
  6
CONTINUOUS
 66
     1
 40
0.000000
 41
0.000000
  0
VERTEX
  8
0
  6
CONTINUOUS
 10
4.194520
 20
1.741960
  0
VERTEX
  8
0
  6
CONTINUOUS
 10
4.798200
 20
1.400960
  0
VERTEX
  8
0
  6
CONTINUOUS
 10
4.757280
 20
1.264120
  0
VERTEX
  8
0
  6
CONTINUOUS
 10
4.153600
 20
1.604680
  0
VERTEX
  8
0
  6
CONTINUOUS
 10
4.194520
 20
1.741960
  0
SEQEND
  8
0
  0
SOLID
  8
0
 62
    15
 10
4.153600
 20
1.604680
 11
4.757280
 21
1.264120
 12
4.095520
 22
1.474440
 13
4.698760
 23
1.133880
  0
POLYLINE
  8
0
  6
CONTINUOUS
 66
     1
 40
0.000000
 41
0.000000
  0
VERTEX
  8
0
  6
CONTINUOUS
 10
4.153600
 20
1.604680
  0
VERTEX
  8
0
  6
CONTINUOUS
 10
4.757280
 20
1.264120
  0
VERTEX
  8
0
  6
CONTINUOUS
 10
4.698760
 20
1.133880
  0
VERTEX
  8
0
  6
CONTINUOUS
 10
4.095520
 20
1.474440
  0
VERTEX
  8
0
  6
CONTINUOUS
 10
4.153600
 20
1.604680
  0
SEQEND
  8
0
  0
SOLID
  8
0
 62
    15
 10
4.095520
 20
1.474440
 11
4.698760
 21
1.133880
 12
4.010160
 22
1.353000
 13
4.613840
 23
1.012440
  0
POLYLINE
  8
0
  6
CONTINUOUS
 66
     1
 40
0.000000
 41
0.000000
  0
VERTEX
  8
0
  6
CONTINUOUS
 10
4.095520
 20
1.474440
  0
VERTEX
  8
0
  6
CONTINUOUS
 10
4.698760
 20
1.133880
  0
VERTEX
  8
0
  6
CONTINUOUS
 10
4.613840
 20
1.012440
  0
VERTEX
  8
0
  6
CONTINUOUS
 10
4.010160
 20
1.353000
  0
VERTEX
  8
0
  6
CONTINUOUS
 10
4.095520
 20
1.474440
  0
SEQEND
  8
0
  0
SOLID
  8
0
 62
    15
 10
4.010160
 20
1.353000
 11
4.613840
 21
1.012440
 12
3.954720
 22
1.296240
 13
4.558400
 23
0.955680
  0
POLYLINE
  8
0
  6
CONTINUOUS
 66
     1
 40
0.000000
 41
0.000000
  0
VERTEX
  8
0
  6
CONTINUOUS
 10
4.010160
 20
1.353000
  0
VERTEX
  8
0
  6
CONTINUOUS
 10
4.613840
 20
1.012440
  0
VERTEX
  8
0
  6
CONTINUOUS
 10
4.558400
 20
0.955680
  0
VERTEX
  8
0
  6
CONTINUOUS
 10
3.954720
 20
1.296240
  0
VERTEX
  8
0
  6
CONTINUOUS
 10
4.010160
 20
1.353000
  0
SEQEND
  8
0
  0
SOLID
  8
0
 62
    15
 10
3.954720
 20
1.296240
 11
4.558400
 21
0.955680
 12
3.889600
 22
1.242120
 13
4.493280
 23
0.901560
  0
POLYLINE
  8
0
  6
CONTINUOUS
 66
     1
 40
0.000000
 41
0.000000
  0
VERTEX
  8
0
  6
CONTINUOUS
 10
3.954720
 20
1.296240
  0
VERTEX
  8
0
  6
CONTINUOUS
 10
4.558400
 20
0.955680
  0
VERTEX
  8
0
  6
CONTINUOUS
 10
4.493280
 20
0.901560
  0
VERTEX
  8
0
  6
CONTINUOUS
 10
3.889600
 20
1.242120
  0
VERTEX
  8
0
  6
CONTINUOUS
 10
3.954720
 20
1.296240
  0
SEQEND
  8
0
  0
SOLID
  8
0
 62
    15
 10
3.889600
 20
1.242120
 11
4.493280
 21
0.901560
 12
3.813480
 22
1.191520
 13
4.417160
 23
0.850520
  0
POLYLINE
  8
0
  6
CONTINUOUS
 66
     1
 40
0.000000
 41
0.000000
  0
VERTEX
  8
0
  6
CONTINUOUS
 10
3.889600
 20
1.242120
  0
VERTEX
  8
0
  6
CONTINUOUS
 10
4.493280
 20
0.901560
  0
VERTEX
  8
0
  6
CONTINUOUS
 10
4.417160
 20
0.850520
  0
VERTEX
  8
0
  6
CONTINUOUS
 10
3.813480
 20
1.191520
  0
VERTEX
  8
0
  6
CONTINUOUS
 10
3.889600
 20
1.242120
  0
SEQEND
  8
0
  0
SOLID
  8
0
 62
    15
 10
3.813480
 20
1.191520
 11
4.417160
 21
0.850520
 12
3.724600
 22
1.143560
 13
4.328280
 23
0.803000
  0
POLYLINE
  8
0
  6
CONTINUOUS
 66
     1
 40
0.000000
 41
0.000000
  0
VERTEX
  8
0
  6
CONTINUOUS
 10
3.813480
 20
1.191520
  0
VERTEX
  8
0
  6
CONTINUOUS
 10
4.417160
 20
0.850520
  0
VERTEX
  8
0
  6
CONTINUOUS
 10
4.328280
 20
0.803000
  0
VERTEX
  8
0
  6
CONTINUOUS
 10
3.724600
 20
1.143560
  0
VERTEX
  8
0
  6
CONTINUOUS
 10
3.813480
 20
1.191520
  0
SEQEND
  8
0
  0
SOLID
  8
0
 62
    15
 10
3.724600
 20
1.143560
 11
4.328280
 21
0.803000
 12
3.622960
 22
1.099560
 13
4.226640
 23
0.759000
  0
POLYLINE
  8
0
  6
CONTINUOUS
 66
     1
 40
0.000000
 41
0.000000
  0
VERTEX
  8
0
  6
CONTINUOUS
 10
3.724600
 20
1.143560
  0
VERTEX
  8
0
  6
CONTINUOUS
 10
4.328280
 20
0.803000
  0
VERTEX
  8
0
  6
CONTINUOUS
 10
4.226640
 20
0.759000
  0
VERTEX
  8
0
  6
CONTINUOUS
 10
3.622960
 20
1.099560
  0
VERTEX
  8
0
  6
CONTINUOUS
 10
3.724600
 20
1.143560
  0
SEQEND
  8
0
  0
SOLID
  8
0
 62
    15
 10
3.622960
 20
1.099560
 11
4.226640
 21
0.759000
 12
3.506360
 22
1.059520
 13
4.110040
 23
0.718960
  0
POLYLINE
  8
0
  6
CONTINUOUS
 66
     1
 40
0.000000
 41
0.000000
  0
VERTEX
  8
0
  6
CONTINUOUS
 10
3.622960
 20
1.099560
  0
VERTEX
  8
0
  6
CONTINUOUS
 10
4.226640
 20
0.759000
  0
VERTEX
  8
0
  6
CONTINUOUS
 10
4.110040
 20
0.718960
  0
VERTEX
  8
0
  6
CONTINUOUS
 10
3.506360
 20
1.059520
  0
VERTEX
  8
0
  6
CONTINUOUS
 10
3.622960
 20
1.099560
  0
SEQEND
  8
0
  0
SOLID
  8
0
 62
    15
 10
3.506360
 20
1.059520
 11
4.110040
 21
0.718960
 12
3.504600
 22
1.059520
 13
4.108280
 23
0.718520
  0
POLYLINE
  8
0
  6
CONTINUOUS
 66
     1
 40
0.000000
 41
0.000000
  0
VERTEX
  8
0
  6
CONTINUOUS
 10
3.506360
 20
1.059520
  0
VERTEX
  8
0
  6
CONTINUOUS
 10
4.110040
 20
0.718960
  0
VERTEX
  8
0
  6
CONTINUOUS
 10
4.108280
 20
0.718520
  0
VERTEX
  8
0
  6
CONTINUOUS
 10
3.504600
 20
1.059520
  0
VERTEX
  8
0
  6
CONTINUOUS
 10
3.506360
 20
1.059520
  0
SEQEND
  8
0
  0
SOLID
  8
0
 62
    15
 10
3.504600
 20
1.059520
 11
4.108280
 21
0.718520
 12
3.505480
 22
0.759000
 13
4.109160
 23
0.418000
  0
POLYLINE
  8
0
  6
CONTINUOUS
 66
     1
 40
0.000000
 41
0.000000
  0
VERTEX
  8
0
  6
CONTINUOUS
 10
3.504600
 20
1.059520
  0
VERTEX
  8
0
  6
CONTINUOUS
 10
4.108280
 20
0.718520
  0
VERTEX
  8
0
  6
CONTINUOUS
 10
4.109160
 20
0.418000
  0
VERTEX
  8
0
  6
CONTINUOUS
 10
3.505480
 20
0.759000
  0
VERTEX
  8
0
  6
CONTINUOUS
 10
3.504600
 20
1.059520
  0
SEQEND
  8
0
  0
SOLID
  8
0
 62
    15
 10
3.505480
 20
0.759000
 11
4.109160
 21
0.418000
 12
3.504600
 22
0.750200
 13
4.108280
 23
0.409200
  0
POLYLINE
  8
0
  6
CONTINUOUS
 66
     1
 40
0.000000
 41
0.000000
  0
VERTEX
  8
0
  6
CONTINUOUS
 10
3.505480
 20
0.759000
  0
VERTEX
  8
0
  6
CONTINUOUS
 10
4.109160
 20
0.418000
  0
VERTEX
  8
0
  6
CONTINUOUS
 10
4.108280
 20
0.409200
  0
VERTEX
  8
0
  6
CONTINUOUS
 10
3.504600
 20
0.750200
  0
VERTEX
  8
0
  6
CONTINUOUS
 10
3.505480
 20
0.759000
  0
SEQEND
  8
0
  0
SOLID
  8
0
 62
    15
 10
3.504600
 20
0.750200
 11
4.108280
 21
0.409200
 12
3.204520
 22
0.750200
 13
3.808200
 23
0.409200
  0
POLYLINE
  8
0
  6
CONTINUOUS
 66
     1
 40
0.000000
 41
0.000000
  0
VERTEX
  8
0
  6
CONTINUOUS
 10
3.504600
 20
0.750200
  0
VERTEX
  8
0
  6
CONTINUOUS
 10
4.108280
 20
0.409200
  0
VERTEX
  8
0
  6
CONTINUOUS
 10
3.808200
 20
0.409200
  0
VERTEX
  8
0
  6
CONTINUOUS
 10
3.204520
 20
0.750200
  0
VERTEX
  8
0
  6
CONTINUOUS
 10
3.504600
 20
0.750200
  0
SEQEND
  8
0
  0
POLYLINE
  8
0
  6
CONTINUOUS
 66
     1
 40
0.000000
 41
0.000000
  0
VERTEX
  8
0
  6
CONTINUOUS
 10
4.696560
 20
3.595240
  0
VERTEX
  8
0
  6
CONTINUOUS
 10
5.292760
 20
3.603160
  0
VERTEX
  8
0
  6
CONTINUOUS
 10
5.292760
 20
3.602280
  0
VERTEX
  8
0
  6
CONTINUOUS
 10
5.295400
 20
3.224760
  0
VERTEX
  8
0
  6
CONTINUOUS
 10
5.289240
 20
3.220360
  0
VERTEX
  8
0
  6
CONTINUOUS
 10
5.138320
 20
3.162280
  0
VERTEX
  8
0
  6
CONTINUOUS
 10
5.004560
 20
3.099800
  0
VERTEX
  8
0
  6
CONTINUOUS
 10
4.886200
 20
3.033800
  0
VERTEX
  8
0
  6
CONTINUOUS
 10
4.782800
 20
2.963840
  0
VERTEX
  8
0
  6
CONTINUOUS
 10
4.692160
 20
2.891240
  0
VERTEX
  8
0
  6
CONTINUOUS
 10
4.614280
 20
2.816000
  0
VERTEX
  8
0
  6
CONTINUOUS
 10
4.547400
 20
2.738560
  0
VERTEX
  8
0
  6
CONTINUOUS
 10
4.490200
 20
2.659800
  0
VERTEX
  8
0
  6
CONTINUOUS
 10
4.401760
 20
2.499200
  0
VERTEX
  8
0
  6
CONTINUOUS
 10
4.339720
 20
2.338160
  0
VERTEX
  8
0
  6
CONTINUOUS
 10
4.295280
 20
2.180200
  0
VERTEX
  8
0
  6
CONTINUOUS
 10
4.276360
 20
2.103640
  0
VERTEX
  8
0
  6
CONTINUOUS
 10
4.258760
 20
2.029280
  0
VERTEX
  8
0
  6
CONTINUOUS
 10
4.242040
 20
1.956240
  0
VERTEX
  8
0
  6
CONTINUOUS
 10
4.234560
 20
1.920160
  0
VERTEX
  8
0
  6
CONTINUOUS
 10
4.226640
 20
1.884080
  0
VERTEX
  8
0
  6
CONTINUOUS
 10
4.194520
 20
1.741960
  0
VERTEX
  8
0
  6
CONTINUOUS
 10
4.153600
 20
1.604680
  0
VERTEX
  8
0
  6
CONTINUOUS
 10
4.095520
 20
1.474440
  0
VERTEX
  8
0
  6
CONTINUOUS
 10
4.010160
 20
1.353000
  0
VERTEX
  8
0
  6
CONTINUOUS
 10
3.954720
 20
1.296240
  0
VERTEX
  8
0
  6
CONTINUOUS
 10
3.889600
 20
1.242120
  0
VERTEX
  8
0
  6
CONTINUOUS
 10
3.813480
 20
1.191520
  0
VERTEX
  8
0
  6
CONTINUOUS
 10
3.724600
 20
1.143560
  0
VERTEX
  8
0
  6
CONTINUOUS
 10
3.622960
 20
1.099560
  0
VERTEX
  8
0
  6
CONTINUOUS
 10
3.506360
 20
1.059520
  0
VERTEX
  8
0
  6
CONTINUOUS
 10
3.504600
 20
1.059520
  0
VERTEX
  8
0
  6
CONTINUOUS
 10
3.505480
 20
0.759000
  0
VERTEX
  8
0
  6
CONTINUOUS
 10
3.504600
 20
0.750200
  0
VERTEX
  8
0
  6
CONTINUOUS
 10
3.204520
 20
0.750200
  0
VERTEX
  8
0
  6
CONTINUOUS
 10
3.243240
 20
1.588840
  0
VERTEX
  8
0
  6
CONTINUOUS
 10
4.687320
 20
3.595240
  0
VERTEX
  8
0
  6
CONTINUOUS
 10
4.696560
 20
3.595240
  0
SEQEND
  8
0
  0
TEXT
  8
0
 10
4.622640
 20
0.590920
 40
0.138226
  1
BA  168
 41
1.000000
  7
SN0
 71
     0
 72
     5
 11
5.213252
 21
0.590920
  0
TEXT
  8
0
 10
4.466880
 20
0.399080
 40
0.138226
  1
3/4" x 3-1/2"
 41
1.000000
  7
SN0
 71
     0
 72
     5
 11
5.368120
 21
0.399080
  0
TEXT
  8
0
 10
7.696480
 20
7.168480
 40
0.138226
  1
crown
 41
1.000000
  7
SN0
 71
     0
 72
     5
 11
8.139090
 21
7.168480
  0
TEXT
  8
0
 10
7.779640
 20
6.976640
 40
0.138226
  1
168
 41
1.000000
  7
SN0
 71
     0
 72
     5
 11
8.056837
 21
6.976640
  0
ENDSEC
  0
EOF
