  0
SECTION
  2
HEADER
  9
$ACADVER
  1
AC1006
  9
$EXTMIN
 10
1.284360
 20
0.444400
  9
$EXTMAX
 10
8.114040
 20
8.461200
  9
$LTSCALE
 40
0.044000
  9
$PDMODE
 70
    35
  9
$PDSIZE
 40
0.035200
  0
ENDSEC
  0
SECTION
  2
TABLES
  0
TABLE
  2
LTYPE
 70
     9
  0
LTYPE
  2
CONTINUOUS
 70
    64
  3
Solid line
 72
    65
 73
     0
 40
0.000000
  0
LTYPE
  2
DASHED
 70
    64
  3
__ __ __ __ __ __ __ __ __ __ __ __ __ __ __
 72
    65
 73
     2
 40
0.000330
 49
0.000220
 49
-0.000110
  0
LTYPE
  2
HIDDEN
 70
    64
  3
 _ _ _ _ _ _ _ _ _ _ _ _ _ _ _ _ _ _ _ _ _ _
 72
    65
 73
     2
 40
0.000165
 49
0.000110
 49
-0.000055
  0
LTYPE
  2
CENTER
 70
    64
  3
____ _ ____ _ ____ _ ____ _ ____ _ ____ _ ____
 72
    65
 73
     4
 40
0.000880
 49
0.000550
 49
-0.000110
 49
0.000110
 49
-0.000110
  0
LTYPE
  2
PHANTOM
 70
    64
  3
_____ _ _ _____ _ _ _____ _ _ _____ _ _ ____
 72
    65
 73
     6
 40
0.001100
 49
0.000550
 49
-0.000110
 49
0.000110
 49
-0.000110
 49
0.000110
 49
-0.000110
  0
LTYPE
  2
DOT
 70
    64
  3
...............................................
 72
    65
 73
     2
 40
0.000110
 49
0.000000
 49
-0.000110
  0
LTYPE
  2
DASHDOT
 70
    64
  3
__ . __ . __ . __ . __ . __ . __ . __ . __ . __
 72
    65
 73
     4
 40
0.000440
 49
0.000220
 49
-0.000110
 49
0.000000
 49
-0.000110
  0
LTYPE
  2
BORDER
 70
    64
  3
__ __ . __ __ . __ __ . __ __ . __ __ . __ __
 72
    65
 73
     6
 40
0.000770
 49
0.000220
 49
-0.000110
 49
0.000220
 49
-0.000110
 49
0.000000
 49
-0.000110
  0
LTYPE
  2
DIVIDE
 70
    64
  3
__ . . __ . . __ . . __ . . __ . . __ . . __
 72
    65
 73
     6
 40
0.000550
 49
0.000220
 49
-0.000110
 49
0.000000
 49
-0.000110
 49
0.000000
 49
-0.000110
  0
LTYPE
  2
DOTDOT
 70
    64
  3
 . .  . .  . .  . .  . .  . . 
 72
    65
 73
     5
 40
0.000242
 49
-0.000110
 49
0.000000
 49
-0.000110
 49
0.000000
 49
-0.000110
  0
ENDTAB
  0
TABLE
  2
STYLE
 70
     2
  0
STYLE
 70
     0
  2
SN0
 40
0.000000
 41
0.000440
 50
0.000000
 71
     0
 42
0.000000
  3
ROMAND
  0
STYLE
 70
    68
  2
SV0
 40
0.000000
 41
0.000440
 50
0.000000
 71
     0
 42
0.000000
  3
ROMAND
  0
ENDTAB
  0
TABLE
  2
LAYER
 70
     3
  0
LAYER
  2
FOREGROUND
 70
    64
 62
     7
  6
CONTINUOUS
  0
LAYER
  2
BACKGROUND
 70
    65
 62
    -7
  6
CONTINUOUS
  0
LAYER
  2
0
 70
    64
 62
     7
  6
CONTINUOUS
  0
ENDTAB
  0
ENDSEC
  0
SECTION
  2
ENTITIES
  0
POLYLINE
  8
FOREGROUND
  6
CONTINUOUS
 66
     1
 40
0.000000
 41
0.000000
  0
VERTEX
  8
FOREGROUND
  6
CONTINUOUS
 10
0.000000
 20
8.905600
  0
VERTEX
  8
FOREGROUND
  6
CONTINUOUS
 10
8.499920
 20
8.905600
  0
VERTEX
  8
FOREGROUND
  6
CONTINUOUS
 10
8.499920
 20
-2.094400
  0
VERTEX
  8
FOREGROUND
  6
CONTINUOUS
 10
0.000000
 20
-2.094400
  0
VERTEX
  8
FOREGROUND
  6
CONTINUOUS
 10
0.000000
 20
8.905600
  0
SEQEND
  8
0
  0
POLYLINE
  8
FOREGROUND
  6
CONTINUOUS
 66
     1
 40
0.000000
 41
0.000000
  0
VERTEX
  8
FOREGROUND
  6
CONTINUOUS
 10
0.000000
 20
8.905600
  0
VERTEX
  8
FOREGROUND
  6
CONTINUOUS
 10
8.499920
 20
8.905600
  0
VERTEX
  8
FOREGROUND
  6
CONTINUOUS
 10
8.499920
 20
-2.094400
  0
VERTEX
  8
FOREGROUND
  6
CONTINUOUS
 10
0.000000
 20
-2.094400
  0
VERTEX
  8
FOREGROUND
  6
CONTINUOUS
 10
0.000000
 20
8.905600
  0
SEQEND
  8
0
  0
POLYLINE
  8
0
  6
CONTINUOUS
 66
     1
 40
0.014080
 41
0.014080
  0
VERTEX
  8
0
  6
CONTINUOUS
 10
7.251200
 20
7.141640
  0
VERTEX
  8
0
  6
CONTINUOUS
 10
6.684480
 20
6.525200
  0
VERTEX
  8
0
  6
CONTINUOUS
 10
1.654840
 20
6.525200
  0
VERTEX
  8
0
  6
CONTINUOUS
 10
1.301520
 20
6.878520
  0
VERTEX
  8
0
  6
CONTINUOUS
 10
1.305920
 20
6.880720
  0
VERTEX
  8
0
  6
CONTINUOUS
 10
1.298000
 20
6.882480
  0
VERTEX
  8
0
  6
CONTINUOUS
 10
1.910040
 20
7.509920
  0
VERTEX
  8
0
  6
CONTINUOUS
 10
1.918400
 20
7.511240
  0
VERTEX
  8
0
  6
CONTINUOUS
 10
1.980440
 20
7.455360
  0
VERTEX
  8
0
  6
CONTINUOUS
 10
2.073280
 20
7.380120
  0
VERTEX
  8
0
  6
CONTINUOUS
 10
2.165680
 20
7.314560
  0
VERTEX
  8
0
  6
CONTINUOUS
 10
2.226840
 20
7.275840
  0
VERTEX
  8
0
  6
CONTINUOUS
 10
2.318360
 20
7.225240
  0
VERTEX
  8
0
  6
CONTINUOUS
 10
2.409880
 20
7.182560
  0
VERTEX
  8
0
  6
CONTINUOUS
 10
2.500520
 20
7.147800
  0
VERTEX
  8
0
  6
CONTINUOUS
 10
2.591160
 20
7.120520
  0
VERTEX
  8
0
  6
CONTINUOUS
 10
2.651440
 20
7.106000
  0
VERTEX
  8
0
  6
CONTINUOUS
 10
2.741200
 20
7.089280
  0
VERTEX
  8
0
  6
CONTINUOUS
 10
2.830960
 20
7.079160
  0
VERTEX
  8
0
  6
CONTINUOUS
 10
2.890800
 20
7.075200
  0
VERTEX
  8
0
  6
CONTINUOUS
 10
2.950640
 20
7.073440
  0
VERTEX
  8
0
  6
CONTINUOUS
 10
3.010040
 20
7.073880
  0
VERTEX
  8
0
  6
CONTINUOUS
 10
3.069440
 20
7.076520
  0
VERTEX
  8
0
  6
CONTINUOUS
 10
3.128840
 20
7.080920
  0
VERTEX
  8
0
  6
CONTINUOUS
 10
3.188240
 20
7.087080
  0
VERTEX
  8
0
  6
CONTINUOUS
 10
3.307040
 20
7.103800
  0
VERTEX
  8
0
  6
CONTINUOUS
 10
3.425840
 20
7.125800
  0
VERTEX
  8
0
  6
CONTINUOUS
 10
3.603600
 20
7.165840
  0
VERTEX
  8
0
  6
CONTINUOUS
 10
3.722400
 20
7.195320
  0
VERTEX
  8
0
  6
CONTINUOUS
 10
3.960000
 20
7.256920
  0
VERTEX
  8
0
  6
CONTINUOUS
 10
4.139520
 20
7.299600
  0
VERTEX
  8
0
  6
CONTINUOUS
 10
4.259200
 20
7.325120
  0
VERTEX
  8
0
  6
CONTINUOUS
 10
4.379760
 20
7.345800
  0
VERTEX
  8
0
  6
CONTINUOUS
 10
4.440480
 20
7.354600
  0
VERTEX
  8
0
  6
CONTINUOUS
 10
4.500760
 20
7.361640
  0
VERTEX
  8
0
  6
CONTINUOUS
 10
4.622640
 20
7.370880
  0
VERTEX
  8
0
  6
CONTINUOUS
 10
4.683800
 20
7.372640
  0
VERTEX
  8
0
  6
CONTINUOUS
 10
4.744960
 20
7.372200
  0
VERTEX
  8
0
  6
CONTINUOUS
 10
4.806560
 20
7.369560
  0
VERTEX
  8
0
  6
CONTINUOUS
 10
4.898960
 20
7.361640
  0
VERTEX
  8
0
  6
CONTINUOUS
 10
4.992240
 20
7.347560
  0
VERTEX
  8
0
  6
CONTINUOUS
 10
5.085960
 20
7.327320
  0
VERTEX
  8
0
  6
CONTINUOUS
 10
5.148880
 20
7.310160
  0
VERTEX
  8
0
  6
CONTINUOUS
 10
5.243480
 20
7.278040
  0
VERTEX
  8
0
  6
CONTINUOUS
 10
5.306840
 20
7.252960
  0
VERTEX
  8
0
  6
CONTINUOUS
 10
5.402320
 20
7.208080
  0
VERTEX
  8
0
  6
CONTINUOUS
 10
5.466560
 20
7.173760
  0
VERTEX
  8
0
  6
CONTINUOUS
 10
5.563360
 20
7.114800
  0
VERTEX
  8
0
  6
CONTINUOUS
 10
5.660600
 20
7.046600
  0
VERTEX
  8
0
  6
CONTINUOUS
 10
5.758720
 20
6.968720
  0
VERTEX
  8
0
  6
CONTINUOUS
 10
5.824720
 20
6.911080
  0
VERTEX
  8
0
  6
CONTINUOUS
 10
5.830000
 20
6.911520
  0
VERTEX
  8
0
  6
CONTINUOUS
 10
6.339520
 20
7.400360
  0
VERTEX
  8
0
  6
CONTINUOUS
 10
6.488680
 20
7.245920
  0
VERTEX
  8
0
  6
CONTINUOUS
 10
6.495280
 20
7.245480
  0
VERTEX
  8
0
  6
CONTINUOUS
 10
6.545000
 20
7.287720
  0
VERTEX
  8
0
  6
CONTINUOUS
 10
6.594720
 20
7.322040
  0
VERTEX
  8
0
  6
CONTINUOUS
 10
6.627720
 20
7.340960
  0
VERTEX
  8
0
  6
CONTINUOUS
 10
6.677440
 20
7.363400
  0
VERTEX
  8
0
  6
CONTINUOUS
 10
6.710000
 20
7.374840
  0
VERTEX
  8
0
  6
CONTINUOUS
 10
6.758840
 20
7.386720
  0
VERTEX
  8
0
  6
CONTINUOUS
 10
6.790520
 20
7.391560
  0
VERTEX
  8
0
  6
CONTINUOUS
 10
6.822200
 20
7.393760
  0
VERTEX
  8
0
  6
CONTINUOUS
 10
6.853440
 20
7.393760
  0
VERTEX
  8
0
  6
CONTINUOUS
 10
6.883800
 20
7.392000
  0
VERTEX
  8
0
  6
CONTINUOUS
 10
6.913280
 20
7.388040
  0
VERTEX
  8
0
  6
CONTINUOUS
 10
6.942320
 20
7.382320
  0
VERTEX
  8
0
  6
CONTINUOUS
 10
6.997760
 20
7.366040
  0
VERTEX
  8
0
  6
CONTINUOUS
 10
7.024160
 20
7.355920
  0
VERTEX
  8
0
  6
CONTINUOUS
 10
7.073440
 20
7.332160
  0
VERTEX
  8
0
  6
CONTINUOUS
 10
7.117880
 20
7.304880
  0
VERTEX
  8
0
  6
CONTINUOUS
 10
7.157040
 20
7.274960
  0
VERTEX
  8
0
  6
CONTINUOUS
 10
7.190480
 20
7.243720
  0
VERTEX
  8
0
  6
CONTINUOUS
 10
7.217320
 20
7.212480
  0
VERTEX
  8
0
  6
CONTINUOUS
 10
7.236680
 20
7.182120
  0
VERTEX
  8
0
  6
CONTINUOUS
 10
7.243720
 20
7.168040
  0
VERTEX
  8
0
  6
CONTINUOUS
 10
7.248560
 20
7.154400
  0
VERTEX
  8
0
  6
CONTINUOUS
 10
7.251200
 20
7.141640
  0
SEQEND
  8
0
  0
SOLID
  8
0
 62
    15
 10
3.546840
 20
2.279200
 11
4.182200
 21
1.909160
 12
3.308800
 22
2.163040
 13
3.944160
 23
1.792560
  0
POLYLINE
  8
0
  6
CONTINUOUS
 66
     1
 40
0.000000
 41
0.000000
  0
VERTEX
  8
0
  6
CONTINUOUS
 10
3.546840
 20
2.279200
  0
VERTEX
  8
0
  6
CONTINUOUS
 10
4.182200
 20
1.909160
  0
VERTEX
  8
0
  6
CONTINUOUS
 10
3.944160
 20
1.792560
  0
VERTEX
  8
0
  6
CONTINUOUS
 10
3.308800
 20
2.163040
  0
VERTEX
  8
0
  6
CONTINUOUS
 10
3.546840
 20
2.279200
  0
SEQEND
  8
0
  0
SOLID
  8
0
 62
    15
 10
5.924600
 20
5.218840
 11
6.559960
 21
4.848800
 12
5.922840
 22
5.214440
 13
6.558200
 23
4.844400
  0
POLYLINE
  8
0
  6
CONTINUOUS
 66
     1
 40
0.000000
 41
0.000000
  0
VERTEX
  8
0
  6
CONTINUOUS
 10
5.924600
 20
5.218840
  0
VERTEX
  8
0
  6
CONTINUOUS
 10
6.559960
 20
4.848800
  0
VERTEX
  8
0
  6
CONTINUOUS
 10
6.558200
 20
4.844400
  0
VERTEX
  8
0
  6
CONTINUOUS
 10
5.922840
 20
5.214440
  0
VERTEX
  8
0
  6
CONTINUOUS
 10
5.924600
 20
5.218840
  0
SEQEND
  8
0
  0
SOLID
  8
0
 62
    15
 10
5.926800
 20
4.341920
 11
6.562600
 21
3.971880
 12
5.921960
 22
4.335320
 13
6.557320
 23
3.965280
  0
POLYLINE
  8
0
  6
CONTINUOUS
 66
     1
 40
0.000000
 41
0.000000
  0
VERTEX
  8
0
  6
CONTINUOUS
 10
5.926800
 20
4.341920
  0
VERTEX
  8
0
  6
CONTINUOUS
 10
6.562600
 20
3.971880
  0
VERTEX
  8
0
  6
CONTINUOUS
 10
6.557320
 20
3.965280
  0
VERTEX
  8
0
  6
CONTINUOUS
 10
5.921960
 20
4.335320
  0
VERTEX
  8
0
  6
CONTINUOUS
 10
5.926800
 20
4.341920
  0
SEQEND
  8
0
  0
SOLID
  8
0
 62
    15
 10
5.921960
 20
4.335320
 11
6.557320
 21
3.965280
 12
5.607360
 22
4.304520
 13
6.242720
 23
3.934480
  0
POLYLINE
  8
0
  6
CONTINUOUS
 66
     1
 40
0.000000
 41
0.000000
  0
VERTEX
  8
0
  6
CONTINUOUS
 10
5.921960
 20
4.335320
  0
VERTEX
  8
0
  6
CONTINUOUS
 10
6.557320
 20
3.965280
  0
VERTEX
  8
0
  6
CONTINUOUS
 10
6.242720
 20
3.934480
  0
VERTEX
  8
0
  6
CONTINUOUS
 10
5.607360
 20
4.304520
  0
VERTEX
  8
0
  6
CONTINUOUS
 10
5.921960
 20
4.335320
  0
SEQEND
  8
0
  0
SOLID
  8
0
 62
    15
 10
5.607360
 20
4.304520
 11
6.242720
 21
3.934480
 12
5.340280
 22
4.229280
 13
5.975640
 23
3.859240
  0
POLYLINE
  8
0
  6
CONTINUOUS
 66
     1
 40
0.000000
 41
0.000000
  0
VERTEX
  8
0
  6
CONTINUOUS
 10
5.607360
 20
4.304520
  0
VERTEX
  8
0
  6
CONTINUOUS
 10
6.242720
 20
3.934480
  0
VERTEX
  8
0
  6
CONTINUOUS
 10
5.975640
 20
3.859240
  0
VERTEX
  8
0
  6
CONTINUOUS
 10
5.340280
 20
4.229280
  0
VERTEX
  8
0
  6
CONTINUOUS
 10
5.607360
 20
4.304520
  0
SEQEND
  8
0
  0
SOLID
  8
0
 62
    15
 10
5.340280
 20
4.229280
 11
5.975640
 21
3.859240
 12
5.113240
 22
4.116200
 13
5.748600
 23
3.746160
  0
POLYLINE
  8
0
  6
CONTINUOUS
 66
     1
 40
0.000000
 41
0.000000
  0
VERTEX
  8
0
  6
CONTINUOUS
 10
5.340280
 20
4.229280
  0
VERTEX
  8
0
  6
CONTINUOUS
 10
5.975640
 20
3.859240
  0
VERTEX
  8
0
  6
CONTINUOUS
 10
5.748600
 20
3.746160
  0
VERTEX
  8
0
  6
CONTINUOUS
 10
5.113240
 20
4.116200
  0
VERTEX
  8
0
  6
CONTINUOUS
 10
5.340280
 20
4.229280
  0
SEQEND
  8
0
  0
SOLID
  8
0
 62
    15
 10
5.113240
 20
4.116200
 11
5.748600
 21
3.746160
 12
4.920080
 22
3.971880
 13
5.555440
 23
3.601840
  0
POLYLINE
  8
0
  6
CONTINUOUS
 66
     1
 40
0.000000
 41
0.000000
  0
VERTEX
  8
0
  6
CONTINUOUS
 10
5.113240
 20
4.116200
  0
VERTEX
  8
0
  6
CONTINUOUS
 10
5.748600
 20
3.746160
  0
VERTEX
  8
0
  6
CONTINUOUS
 10
5.555440
 20
3.601840
  0
VERTEX
  8
0
  6
CONTINUOUS
 10
4.920080
 20
3.971880
  0
VERTEX
  8
0
  6
CONTINUOUS
 10
5.113240
 20
4.116200
  0
SEQEND
  8
0
  0
SOLID
  8
0
 62
    15
 10
4.920080
 20
3.971880
 11
5.555440
 21
3.601840
 12
4.753320
 22
3.801600
 13
5.388680
 23
3.431560
  0
POLYLINE
  8
0
  6
CONTINUOUS
 66
     1
 40
0.000000
 41
0.000000
  0
VERTEX
  8
0
  6
CONTINUOUS
 10
4.920080
 20
3.971880
  0
VERTEX
  8
0
  6
CONTINUOUS
 10
5.555440
 20
3.601840
  0
VERTEX
  8
0
  6
CONTINUOUS
 10
5.388680
 20
3.431560
  0
VERTEX
  8
0
  6
CONTINUOUS
 10
4.753320
 20
3.801600
  0
VERTEX
  8
0
  6
CONTINUOUS
 10
4.920080
 20
3.971880
  0
SEQEND
  8
0
  0
SOLID
  8
0
 62
    15
 10
4.753320
 20
3.801600
 11
5.388680
 21
3.431560
 12
4.605920
 22
3.612400
 13
5.241280
 23
3.242360
  0
POLYLINE
  8
0
  6
CONTINUOUS
 66
     1
 40
0.000000
 41
0.000000
  0
VERTEX
  8
0
  6
CONTINUOUS
 10
4.753320
 20
3.801600
  0
VERTEX
  8
0
  6
CONTINUOUS
 10
5.388680
 20
3.431560
  0
VERTEX
  8
0
  6
CONTINUOUS
 10
5.241280
 20
3.242360
  0
VERTEX
  8
0
  6
CONTINUOUS
 10
4.605920
 20
3.612400
  0
VERTEX
  8
0
  6
CONTINUOUS
 10
4.753320
 20
3.801600
  0
SEQEND
  8
0
  0
SOLID
  8
0
 62
    15
 10
4.605920
 20
3.612400
 11
5.241280
 21
3.242360
 12
4.342800
 22
3.201880
 13
4.978160
 23
2.831840
  0
POLYLINE
  8
0
  6
CONTINUOUS
 66
     1
 40
0.000000
 41
0.000000
  0
VERTEX
  8
0
  6
CONTINUOUS
 10
4.605920
 20
3.612400
  0
VERTEX
  8
0
  6
CONTINUOUS
 10
5.241280
 20
3.242360
  0
VERTEX
  8
0
  6
CONTINUOUS
 10
4.978160
 20
2.831840
  0
VERTEX
  8
0
  6
CONTINUOUS
 10
4.342800
 20
3.201880
  0
VERTEX
  8
0
  6
CONTINUOUS
 10
4.605920
 20
3.612400
  0
SEQEND
  8
0
  0
SOLID
  8
0
 62
    15
 10
4.342800
 20
3.201880
 11
4.978160
 21
2.831840
 12
4.075720
 22
2.790040
 13
4.711080
 23
2.420000
  0
POLYLINE
  8
0
  6
CONTINUOUS
 66
     1
 40
0.000000
 41
0.000000
  0
VERTEX
  8
0
  6
CONTINUOUS
 10
4.342800
 20
3.201880
  0
VERTEX
  8
0
  6
CONTINUOUS
 10
4.978160
 20
2.831840
  0
VERTEX
  8
0
  6
CONTINUOUS
 10
4.711080
 20
2.420000
  0
VERTEX
  8
0
  6
CONTINUOUS
 10
4.075720
 20
2.790040
  0
VERTEX
  8
0
  6
CONTINUOUS
 10
4.342800
 20
3.201880
  0
SEQEND
  8
0
  0
SOLID
  8
0
 62
    15
 10
4.075720
 20
2.790040
 11
4.711080
 21
2.420000
 12
3.923480
 22
2.599520
 13
4.558840
 23
2.229040
  0
POLYLINE
  8
0
  6
CONTINUOUS
 66
     1
 40
0.000000
 41
0.000000
  0
VERTEX
  8
0
  6
CONTINUOUS
 10
4.075720
 20
2.790040
  0
VERTEX
  8
0
  6
CONTINUOUS
 10
4.711080
 20
2.420000
  0
VERTEX
  8
0
  6
CONTINUOUS
 10
4.558840
 20
2.229040
  0
VERTEX
  8
0
  6
CONTINUOUS
 10
3.923480
 20
2.599520
  0
VERTEX
  8
0
  6
CONTINUOUS
 10
4.075720
 20
2.790040
  0
SEQEND
  8
0
  0
SOLID
  8
0
 62
    15
 10
3.923480
 20
2.599520
 11
4.558840
 21
2.229040
 12
3.749240
 22
2.427040
 13
4.384600
 23
2.057000
  0
POLYLINE
  8
0
  6
CONTINUOUS
 66
     1
 40
0.000000
 41
0.000000
  0
VERTEX
  8
0
  6
CONTINUOUS
 10
3.923480
 20
2.599520
  0
VERTEX
  8
0
  6
CONTINUOUS
 10
4.558840
 20
2.229040
  0
VERTEX
  8
0
  6
CONTINUOUS
 10
4.384600
 20
2.057000
  0
VERTEX
  8
0
  6
CONTINUOUS
 10
3.749240
 20
2.427040
  0
VERTEX
  8
0
  6
CONTINUOUS
 10
3.923480
 20
2.599520
  0
SEQEND
  8
0
  0
SOLID
  8
0
 62
    15
 10
3.749240
 20
2.427040
 11
4.384600
 21
2.057000
 12
3.546840
 22
2.279200
 13
4.182200
 23
1.909160
  0
POLYLINE
  8
0
  6
CONTINUOUS
 66
     1
 40
0.000000
 41
0.000000
  0
VERTEX
  8
0
  6
CONTINUOUS
 10
3.749240
 20
2.427040
  0
VERTEX
  8
0
  6
CONTINUOUS
 10
4.384600
 20
2.057000
  0
VERTEX
  8
0
  6
CONTINUOUS
 10
4.182200
 20
1.909160
  0
VERTEX
  8
0
  6
CONTINUOUS
 10
3.546840
 20
2.279200
  0
VERTEX
  8
0
  6
CONTINUOUS
 10
3.749240
 20
2.427040
  0
SEQEND
  8
0
  0
SOLID
  8
0
 62
    15
 10
5.929880
 20
5.218400
 11
6.565240
 21
4.848360
 12
5.926800
 22
4.341920
 13
6.562600
 23
3.971880
  0
POLYLINE
  8
0
  6
CONTINUOUS
 66
     1
 40
0.000000
 41
0.000000
  0
VERTEX
  8
0
  6
CONTINUOUS
 10
5.929880
 20
5.218400
  0
VERTEX
  8
0
  6
CONTINUOUS
 10
6.565240
 20
4.848360
  0
VERTEX
  8
0
  6
CONTINUOUS
 10
6.562600
 20
3.971880
  0
VERTEX
  8
0
  6
CONTINUOUS
 10
5.926800
 20
4.341920
  0
VERTEX
  8
0
  6
CONTINUOUS
 10
5.929880
 20
5.218400
  0
SEQEND
  8
0
  0
SOLID
  8
0
 62
    15
 10
3.308800
 20
2.163040
 11
3.944160
 21
1.792560
 12
3.028520
 22
2.083400
 13
3.663880
 23
1.713360
  0
POLYLINE
  8
0
  6
CONTINUOUS
 66
     1
 40
0.000000
 41
0.000000
  0
VERTEX
  8
0
  6
CONTINUOUS
 10
3.308800
 20
2.163040
  0
VERTEX
  8
0
  6
CONTINUOUS
 10
3.944160
 20
1.792560
  0
VERTEX
  8
0
  6
CONTINUOUS
 10
3.663880
 20
1.713360
  0
VERTEX
  8
0
  6
CONTINUOUS
 10
3.028520
 20
2.083400
  0
VERTEX
  8
0
  6
CONTINUOUS
 10
3.308800
 20
2.163040
  0
SEQEND
  8
0
  0
SOLID
  8
0
 62
    15
 10
3.028520
 20
2.083400
 11
3.663880
 21
1.713360
 12
2.698960
 22
2.047760
 13
3.334320
 23
1.677720
  0
POLYLINE
  8
0
  6
CONTINUOUS
 66
     1
 40
0.000000
 41
0.000000
  0
VERTEX
  8
0
  6
CONTINUOUS
 10
3.028520
 20
2.083400
  0
VERTEX
  8
0
  6
CONTINUOUS
 10
3.663880
 20
1.713360
  0
VERTEX
  8
0
  6
CONTINUOUS
 10
3.334320
 20
1.677720
  0
VERTEX
  8
0
  6
CONTINUOUS
 10
2.698960
 20
2.047760
  0
VERTEX
  8
0
  6
CONTINUOUS
 10
3.028520
 20
2.083400
  0
SEQEND
  8
0
  0
SOLID
  8
0
 62
    15
 10
2.698960
 20
2.047760
 11
3.334320
 21
1.677720
 12
2.695440
 22
2.043800
 13
3.330800
 23
1.673760
  0
POLYLINE
  8
0
  6
CONTINUOUS
 66
     1
 40
0.000000
 41
0.000000
  0
VERTEX
  8
0
  6
CONTINUOUS
 10
2.698960
 20
2.047760
  0
VERTEX
  8
0
  6
CONTINUOUS
 10
3.334320
 20
1.677720
  0
VERTEX
  8
0
  6
CONTINUOUS
 10
3.330800
 20
1.673760
  0
VERTEX
  8
0
  6
CONTINUOUS
 10
2.695440
 20
2.043800
  0
VERTEX
  8
0
  6
CONTINUOUS
 10
2.698960
 20
2.047760
  0
SEQEND
  8
0
  0
SOLID
  8
0
 62
    15
 10
2.695440
 20
2.043800
 11
3.330800
 21
1.673760
 12
2.669920
 22
1.338040
 13
3.305280
 23
0.968000
  0
POLYLINE
  8
0
  6
CONTINUOUS
 66
     1
 40
0.000000
 41
0.000000
  0
VERTEX
  8
0
  6
CONTINUOUS
 10
2.695440
 20
2.043800
  0
VERTEX
  8
0
  6
CONTINUOUS
 10
3.330800
 20
1.673760
  0
VERTEX
  8
0
  6
CONTINUOUS
 10
3.305280
 20
0.968000
  0
VERTEX
  8
0
  6
CONTINUOUS
 10
2.669920
 20
1.338040
  0
VERTEX
  8
0
  6
CONTINUOUS
 10
2.695440
 20
2.043800
  0
SEQEND
  8
0
  0
SOLID
  8
0
 62
    15
 10
2.669920
 20
1.338040
 11
3.305280
 21
0.968000
 12
2.455200
 22
1.345080
 13
3.090560
 23
0.975040
  0
POLYLINE
  8
0
  6
CONTINUOUS
 66
     1
 40
0.000000
 41
0.000000
  0
VERTEX
  8
0
  6
CONTINUOUS
 10
2.669920
 20
1.338040
  0
VERTEX
  8
0
  6
CONTINUOUS
 10
3.305280
 20
0.968000
  0
VERTEX
  8
0
  6
CONTINUOUS
 10
3.090560
 20
0.975040
  0
VERTEX
  8
0
  6
CONTINUOUS
 10
2.455200
 20
1.345080
  0
VERTEX
  8
0
  6
CONTINUOUS
 10
2.669920
 20
1.338040
  0
SEQEND
  8
0
  0
SOLID
  8
0
 62
    15
 10
2.455200
 20
1.345080
 11
3.090560
 21
0.975040
 12
2.449920
 22
1.340680
 13
3.085280
 23
0.970640
  0
POLYLINE
  8
0
  6
CONTINUOUS
 66
     1
 40
0.000000
 41
0.000000
  0
VERTEX
  8
0
  6
CONTINUOUS
 10
2.455200
 20
1.345080
  0
VERTEX
  8
0
  6
CONTINUOUS
 10
3.090560
 20
0.975040
  0
VERTEX
  8
0
  6
CONTINUOUS
 10
3.085280
 20
0.970640
  0
VERTEX
  8
0
  6
CONTINUOUS
 10
2.449920
 20
1.340680
  0
VERTEX
  8
0
  6
CONTINUOUS
 10
2.455200
 20
1.345080
  0
SEQEND
  8
0
  0
SOLID
  8
0
 62
    15
 10
2.449920
 20
1.340680
 11
3.085280
 21
0.970640
 12
2.421320
 22
1.180080
 13
3.056680
 23
0.810040
  0
POLYLINE
  8
0
  6
CONTINUOUS
 66
     1
 40
0.000000
 41
0.000000
  0
VERTEX
  8
0
  6
CONTINUOUS
 10
2.449920
 20
1.340680
  0
VERTEX
  8
0
  6
CONTINUOUS
 10
3.085280
 20
0.970640
  0
VERTEX
  8
0
  6
CONTINUOUS
 10
3.056680
 20
0.810040
  0
VERTEX
  8
0
  6
CONTINUOUS
 10
2.421320
 20
1.180080
  0
VERTEX
  8
0
  6
CONTINUOUS
 10
2.449920
 20
1.340680
  0
SEQEND
  8
0
  0
SOLID
  8
0
 62
    15
 10
2.421320
 20
1.180080
 11
3.056680
 21
0.810040
 12
2.359280
 22
1.056440
 13
2.994640
 23
0.685960
  0
POLYLINE
  8
0
  6
CONTINUOUS
 66
     1
 40
0.000000
 41
0.000000
  0
VERTEX
  8
0
  6
CONTINUOUS
 10
2.421320
 20
1.180080
  0
VERTEX
  8
0
  6
CONTINUOUS
 10
3.056680
 20
0.810040
  0
VERTEX
  8
0
  6
CONTINUOUS
 10
2.994640
 20
0.685960
  0
VERTEX
  8
0
  6
CONTINUOUS
 10
2.359280
 20
1.056440
  0
VERTEX
  8
0
  6
CONTINUOUS
 10
2.421320
 20
1.180080
  0
SEQEND
  8
0
  0
SOLID
  8
0
 62
    15
 10
2.359280
 20
1.056440
 11
2.994640
 21
0.685960
 12
2.273040
 22
0.965360
 13
2.908400
 23
0.595320
  0
POLYLINE
  8
0
  6
CONTINUOUS
 66
     1
 40
0.000000
 41
0.000000
  0
VERTEX
  8
0
  6
CONTINUOUS
 10
2.359280
 20
1.056440
  0
VERTEX
  8
0
  6
CONTINUOUS
 10
2.994640
 20
0.685960
  0
VERTEX
  8
0
  6
CONTINUOUS
 10
2.908400
 20
0.595320
  0
VERTEX
  8
0
  6
CONTINUOUS
 10
2.273040
 20
0.965360
  0
VERTEX
  8
0
  6
CONTINUOUS
 10
2.359280
 20
1.056440
  0
SEQEND
  8
0
  0
SOLID
  8
0
 62
    15
 10
2.273040
 20
0.965360
 11
2.908400
 21
0.595320
 12
2.173160
 22
0.904640
 13
2.808520
 23
0.534600
  0
POLYLINE
  8
0
  6
CONTINUOUS
 66
     1
 40
0.000000
 41
0.000000
  0
VERTEX
  8
0
  6
CONTINUOUS
 10
2.273040
 20
0.965360
  0
VERTEX
  8
0
  6
CONTINUOUS
 10
2.908400
 20
0.595320
  0
VERTEX
  8
0
  6
CONTINUOUS
 10
2.808520
 20
0.534600
  0
VERTEX
  8
0
  6
CONTINUOUS
 10
2.173160
 20
0.904640
  0
VERTEX
  8
0
  6
CONTINUOUS
 10
2.273040
 20
0.965360
  0
SEQEND
  8
0
  0
SOLID
  8
0
 62
    15
 10
2.173160
 20
0.904640
 11
2.808520
 21
0.534600
 12
2.069320
 22
0.869880
 13
2.705120
 23
0.499840
  0
POLYLINE
  8
0
  6
CONTINUOUS
 66
     1
 40
0.000000
 41
0.000000
  0
VERTEX
  8
0
  6
CONTINUOUS
 10
2.173160
 20
0.904640
  0
VERTEX
  8
0
  6
CONTINUOUS
 10
2.808520
 20
0.534600
  0
VERTEX
  8
0
  6
CONTINUOUS
 10
2.705120
 20
0.499840
  0
VERTEX
  8
0
  6
CONTINUOUS
 10
2.069320
 20
0.869880
  0
VERTEX
  8
0
  6
CONTINUOUS
 10
2.173160
 20
0.904640
  0
SEQEND
  8
0
  0
SOLID
  8
0
 62
    15
 10
1.972080
 20
0.858000
 11
2.607440
 21
0.487960
 12
1.890680
 22
0.865920
 13
2.526040
 23
0.495880
  0
POLYLINE
  8
0
  6
CONTINUOUS
 66
     1
 40
0.000000
 41
0.000000
  0
VERTEX
  8
0
  6
CONTINUOUS
 10
1.972080
 20
0.858000
  0
VERTEX
  8
0
  6
CONTINUOUS
 10
2.607440
 20
0.487960
  0
VERTEX
  8
0
  6
CONTINUOUS
 10
2.526040
 20
0.495880
  0
VERTEX
  8
0
  6
CONTINUOUS
 10
1.890680
 20
0.865920
  0
VERTEX
  8
0
  6
CONTINUOUS
 10
1.972080
 20
0.858000
  0
SEQEND
  8
0
  0
SOLID
  8
0
 62
    15
 10
2.069320
 20
0.869880
 11
2.705120
 21
0.499840
 12
1.972080
 22
0.858000
 13
2.607440
 23
0.487960
  0
POLYLINE
  8
0
  6
CONTINUOUS
 66
     1
 40
0.000000
 41
0.000000
  0
VERTEX
  8
0
  6
CONTINUOUS
 10
2.069320
 20
0.869880
  0
VERTEX
  8
0
  6
CONTINUOUS
 10
2.705120
 20
0.499840
  0
VERTEX
  8
0
  6
CONTINUOUS
 10
2.607440
 20
0.487960
  0
VERTEX
  8
0
  6
CONTINUOUS
 10
1.972080
 20
0.858000
  0
VERTEX
  8
0
  6
CONTINUOUS
 10
2.069320
 20
0.869880
  0
SEQEND
  8
0
  0
SOLID
  8
0
 62
    15
 10
1.890680
 20
0.865920
 11
2.526040
 21
0.495880
 12
1.835240
 22
0.889240
 13
2.470600
 23
0.519200
  0
POLYLINE
  8
0
  6
CONTINUOUS
 66
     1
 40
0.000000
 41
0.000000
  0
VERTEX
  8
0
  6
CONTINUOUS
 10
1.890680
 20
0.865920
  0
VERTEX
  8
0
  6
CONTINUOUS
 10
2.526040
 20
0.495880
  0
VERTEX
  8
0
  6
CONTINUOUS
 10
2.470600
 20
0.519200
  0
VERTEX
  8
0
  6
CONTINUOUS
 10
1.835240
 20
0.889240
  0
VERTEX
  8
0
  6
CONTINUOUS
 10
1.890680
 20
0.865920
  0
SEQEND
  8
0
  0
POLYLINE
  8
0
  6
CONTINUOUS
 66
     1
 40
0.000000
 41
0.000000
  0
VERTEX
  8
0
  6
CONTINUOUS
 10
1.835240
 20
0.889240
  0
VERTEX
  8
0
  6
CONTINUOUS
 10
1.813240
 20
1.726560
  0
VERTEX
  8
0
  6
CONTINUOUS
 10
5.425200
 20
5.226760
  0
VERTEX
  8
0
  6
CONTINUOUS
 10
5.924600
 20
5.218840
  0
VERTEX
  8
0
  6
CONTINUOUS
 10
5.922840
 20
5.214440
  0
VERTEX
  8
0
  6
CONTINUOUS
 10
5.929880
 20
5.218400
  0
VERTEX
  8
0
  6
CONTINUOUS
 10
5.926800
 20
4.341920
  0
VERTEX
  8
0
  6
CONTINUOUS
 10
5.921960
 20
4.335320
  0
VERTEX
  8
0
  6
CONTINUOUS
 10
5.607360
 20
4.304520
  0
VERTEX
  8
0
  6
CONTINUOUS
 10
5.340280
 20
4.229280
  0
VERTEX
  8
0
  6
CONTINUOUS
 10
5.113240
 20
4.116200
  0
VERTEX
  8
0
  6
CONTINUOUS
 10
4.920080
 20
3.971880
  0
VERTEX
  8
0
  6
CONTINUOUS
 10
4.753320
 20
3.801600
  0
VERTEX
  8
0
  6
CONTINUOUS
 10
4.605920
 20
3.612400
  0
VERTEX
  8
0
  6
CONTINUOUS
 10
4.342800
 20
3.201880
  0
VERTEX
  8
0
  6
CONTINUOUS
 10
4.075720
 20
2.790040
  0
VERTEX
  8
0
  6
CONTINUOUS
 10
3.923480
 20
2.599520
  0
VERTEX
  8
0
  6
CONTINUOUS
 10
3.749240
 20
2.427040
  0
VERTEX
  8
0
  6
CONTINUOUS
 10
3.546840
 20
2.279200
  0
VERTEX
  8
0
  6
CONTINUOUS
 10
3.308800
 20
2.163040
  0
VERTEX
  8
0
  6
CONTINUOUS
 10
3.028520
 20
2.083400
  0
VERTEX
  8
0
  6
CONTINUOUS
 10
2.698960
 20
2.047760
  0
VERTEX
  8
0
  6
CONTINUOUS
 10
2.695440
 20
2.043800
  0
VERTEX
  8
0
  6
CONTINUOUS
 10
2.669920
 20
1.338040
  0
VERTEX
  8
0
  6
CONTINUOUS
 10
2.455200
 20
1.345080
  0
VERTEX
  8
0
  6
CONTINUOUS
 10
2.449920
 20
1.340680
  0
VERTEX
  8
0
  6
CONTINUOUS
 10
2.421320
 20
1.180080
  0
VERTEX
  8
0
  6
CONTINUOUS
 10
2.359280
 20
1.056440
  0
VERTEX
  8
0
  6
CONTINUOUS
 10
2.273040
 20
0.965360
  0
VERTEX
  8
0
  6
CONTINUOUS
 10
2.173160
 20
0.904640
  0
VERTEX
  8
0
  6
CONTINUOUS
 10
2.069320
 20
0.869880
  0
VERTEX
  8
0
  6
CONTINUOUS
 10
1.972080
 20
0.858000
  0
VERTEX
  8
0
  6
CONTINUOUS
 10
1.890680
 20
0.865920
  0
VERTEX
  8
0
  6
CONTINUOUS
 10
1.835240
 20
0.889240
  0
SEQEND
  8
0
  0
TEXT
  8
0
 10
3.716680
 20
0.679800
 40
0.138161
  1
BA  167
 41
1.000000
  7
SN0
 71
     0
 72
     5
 11
4.306316
 21
0.679800
  0
TEXT
  8
0
 10
3.537600
 20
0.488400
 40
0.138161
  1
1" x 5-15/16"
 41
1.000000
  7
SN0
 71
     0
 72
     5
 11
4.483182
 21
0.488400
  0
TEXT
  8
0
 10
7.670960
 20
8.310720
 40
0.138161
  1
crown
 41
1.000000
  7
SN0
 71
     0
 72
     5
 11
8.113487
 21
8.310720
  0
TEXT
  8
0
 10
7.754120
 20
8.118880
 40
0.138161
  1
167
 41
1.000000
  7
SN0
 71
     0
 72
     5
 11
8.031100
 21
8.118880
  0
ENDSEC
  0
EOF
