  0
SECTION
  2
HEADER
  9
$ACADVER
  1
AC1006
  9
$EXTMIN
 10
1.213520
 20
0.454080
  9
$EXTMAX
 10
8.057280
 20
7.790640
  9
$LTSCALE
 40
0.044000
  9
$PDMODE
 70
    35
  9
$PDSIZE
 40
0.035200
  0
ENDSEC
  0
SECTION
  2
TABLES
  0
TABLE
  2
LTYPE
 70
     9
  0
LTYPE
  2
CONTINUOUS
 70
    64
  3
Solid line
 72
    65
 73
     0
 40
0.000000
  0
LTYPE
  2
DASHED
 70
    64
  3
__ __ __ __ __ __ __ __ __ __ __ __ __ __ __
 72
    65
 73
     2
 40
0.000330
 49
0.000220
 49
-0.000110
  0
LTYPE
  2
HIDDEN
 70
    64
  3
 _ _ _ _ _ _ _ _ _ _ _ _ _ _ _ _ _ _ _ _ _ _
 72
    65
 73
     2
 40
0.000165
 49
0.000110
 49
-0.000055
  0
LTYPE
  2
CENTER
 70
    64
  3
____ _ ____ _ ____ _ ____ _ ____ _ ____ _ ____
 72
    65
 73
     4
 40
0.000880
 49
0.000550
 49
-0.000110
 49
0.000110
 49
-0.000110
  0
LTYPE
  2
PHANTOM
 70
    64
  3
_____ _ _ _____ _ _ _____ _ _ _____ _ _ ____
 72
    65
 73
     6
 40
0.001100
 49
0.000550
 49
-0.000110
 49
0.000110
 49
-0.000110
 49
0.000110
 49
-0.000110
  0
LTYPE
  2
DOT
 70
    64
  3
...............................................
 72
    65
 73
     2
 40
0.000110
 49
0.000000
 49
-0.000110
  0
LTYPE
  2
DASHDOT
 70
    64
  3
__ . __ . __ . __ . __ . __ . __ . __ . __ . __
 72
    65
 73
     4
 40
0.000440
 49
0.000220
 49
-0.000110
 49
0.000000
 49
-0.000110
  0
LTYPE
  2
BORDER
 70
    64
  3
__ __ . __ __ . __ __ . __ __ . __ __ . __ __
 72
    65
 73
     6
 40
0.000770
 49
0.000220
 49
-0.000110
 49
0.000220
 49
-0.000110
 49
0.000000
 49
-0.000110
  0
LTYPE
  2
DIVIDE
 70
    64
  3
__ . . __ . . __ . . __ . . __ . . __ . . __
 72
    65
 73
     6
 40
0.000550
 49
0.000220
 49
-0.000110
 49
0.000000
 49
-0.000110
 49
0.000000
 49
-0.000110
  0
LTYPE
  2
DOTDOT
 70
    64
  3
 . .  . .  . .  . .  . .  . . 
 72
    65
 73
     5
 40
0.000242
 49
-0.000110
 49
0.000000
 49
-0.000110
 49
0.000000
 49
-0.000110
  0
ENDTAB
  0
TABLE
  2
STYLE
 70
     2
  0
STYLE
 70
     0
  2
SN0
 40
0.000000
 41
0.000440
 50
0.000000
 71
     0
 42
0.000000
  3
ROMAND
  0
STYLE
 70
    68
  2
SV0
 40
0.000000
 41
0.000440
 50
0.000000
 71
     0
 42
0.000000
  3
ROMAND
  0
ENDTAB
  0
TABLE
  2
LAYER
 70
     3
  0
LAYER
  2
FOREGROUND
 70
    64
 62
     7
  6
CONTINUOUS
  0
LAYER
  2
BACKGROUND
 70
    65
 62
    -7
  6
CONTINUOUS
  0
LAYER
  2
0
 70
    64
 62
     7
  6
CONTINUOUS
  0
ENDTAB
  0
ENDSEC
  0
SECTION
  2
ENTITIES
  0
POLYLINE
  8
FOREGROUND
  6
CONTINUOUS
 66
     1
 40
0.000000
 41
0.000000
  0
VERTEX
  8
FOREGROUND
  6
CONTINUOUS
 10
0.000000
 20
8.244720
  0
VERTEX
  8
FOREGROUND
  6
CONTINUOUS
 10
8.499920
 20
8.244720
  0
VERTEX
  8
FOREGROUND
  6
CONTINUOUS
 10
8.499920
 20
-2.755280
  0
VERTEX
  8
FOREGROUND
  6
CONTINUOUS
 10
0.000000
 20
-2.755280
  0
VERTEX
  8
FOREGROUND
  6
CONTINUOUS
 10
0.000000
 20
8.244720
  0
SEQEND
  8
0
  0
POLYLINE
  8
FOREGROUND
  6
CONTINUOUS
 66
     1
 40
0.000000
 41
0.000000
  0
VERTEX
  8
FOREGROUND
  6
CONTINUOUS
 10
0.000000
 20
8.244720
  0
VERTEX
  8
FOREGROUND
  6
CONTINUOUS
 10
8.499920
 20
8.244720
  0
VERTEX
  8
FOREGROUND
  6
CONTINUOUS
 10
8.499920
 20
-2.755280
  0
VERTEX
  8
FOREGROUND
  6
CONTINUOUS
 10
0.000000
 20
-2.755280
  0
VERTEX
  8
FOREGROUND
  6
CONTINUOUS
 10
0.000000
 20
8.244720
  0
SEQEND
  8
0
  0
POLYLINE
  8
0
  6
CONTINUOUS
 66
     1
 40
0.014080
 41
0.014080
  0
VERTEX
  8
0
  6
CONTINUOUS
 10
6.992480
 20
6.442040
  0
VERTEX
  8
0
  6
CONTINUOUS
 10
6.649720
 20
6.876320
  0
VERTEX
  8
0
  6
CONTINUOUS
 10
6.645760
 20
6.876320
  0
VERTEX
  8
0
  6
CONTINUOUS
 10
6.608800
 20
6.854320
  0
VERTEX
  8
0
  6
CONTINUOUS
 10
6.534880
 20
6.816040
  0
VERTEX
  8
0
  6
CONTINUOUS
 10
6.462280
 20
6.784360
  0
VERTEX
  8
0
  6
CONTINUOUS
 10
6.426200
 20
6.770720
  0
VERTEX
  8
0
  6
CONTINUOUS
 10
6.354480
 20
6.749600
  0
VERTEX
  8
0
  6
CONTINUOUS
 10
6.318840
 20
6.741240
  0
VERTEX
  8
0
  6
CONTINUOUS
 10
6.283640
 20
6.734640
  0
VERTEX
  8
0
  6
CONTINUOUS
 10
6.248440
 20
6.729800
  0
VERTEX
  8
0
  6
CONTINUOUS
 10
6.178920
 20
6.724960
  0
VERTEX
  8
0
  6
CONTINUOUS
 10
6.110720
 20
6.727160
  0
VERTEX
  8
0
  6
CONTINUOUS
 10
6.076840
 20
6.730240
  0
VERTEX
  8
0
  6
CONTINUOUS
 10
6.010400
 20
6.742120
  0
VERTEX
  8
0
  6
CONTINUOUS
 10
5.977400
 20
6.750480
  0
VERTEX
  8
0
  6
CONTINUOUS
 10
5.912720
 20
6.772040
  0
VERTEX
  8
0
  6
CONTINUOUS
 10
5.849360
 20
6.800200
  0
VERTEX
  8
0
  6
CONTINUOUS
 10
5.787760
 20
6.834520
  0
VERTEX
  8
0
  6
CONTINUOUS
 10
5.727040
 20
6.875000
  0
VERTEX
  8
0
  6
CONTINUOUS
 10
5.668520
 20
6.922080
  0
VERTEX
  8
0
  6
CONTINUOUS
 10
5.611320
 20
6.975320
  0
VERTEX
  8
0
  6
CONTINUOUS
 10
5.580520
 20
7.005680
  0
VERTEX
  8
0
  6
CONTINUOUS
 10
5.313880
 20
6.783040
  0
VERTEX
  8
0
  6
CONTINUOUS
 10
5.313880
 20
6.781720
  0
VERTEX
  8
0
  6
CONTINUOUS
 10
5.199920
 20
6.835840
  0
VERTEX
  8
0
  6
CONTINUOUS
 10
5.090360
 20
6.882040
  0
VERTEX
  8
0
  6
CONTINUOUS
 10
5.019960
 20
6.908880
  0
VERTEX
  8
0
  6
CONTINUOUS
 10
4.918320
 20
6.943200
  0
VERTEX
  8
0
  6
CONTINUOUS
 10
4.852320
 20
6.962120
  0
VERTEX
  8
0
  6
CONTINUOUS
 10
4.757280
 20
6.985000
  0
VERTEX
  8
0
  6
CONTINUOUS
 10
4.665760
 20
7.001720
  0
VERTEX
  8
0
  6
CONTINUOUS
 10
4.606360
 20
7.009640
  0
VERTEX
  8
0
  6
CONTINUOUS
 10
4.520560
 20
7.016680
  0
VERTEX
  8
0
  6
CONTINUOUS
 10
4.465120
 20
7.018880
  0
VERTEX
  8
0
  6
CONTINUOUS
 10
4.410560
 20
7.018440
  0
VERTEX
  8
0
  6
CONTINUOUS
 10
4.357760
 20
7.016240
  0
VERTEX
  8
0
  6
CONTINUOUS
 10
4.305840
 20
7.011840
  0
VERTEX
  8
0
  6
CONTINUOUS
 10
4.255240
 20
7.005680
  0
VERTEX
  8
0
  6
CONTINUOUS
 10
4.156680
 20
6.988520
  0
VERTEX
  8
0
  6
CONTINUOUS
 10
4.061640
 20
6.965200
  0
VERTEX
  8
0
  6
CONTINUOUS
 10
3.969680
 20
6.937040
  0
VERTEX
  8
0
  6
CONTINUOUS
 10
3.880360
 20
6.904480
  0
VERTEX
  8
0
  6
CONTINUOUS
 10
3.750120
 20
6.849920
  0
VERTEX
  8
0
  6
CONTINUOUS
 10
3.409120
 20
6.691520
  0
VERTEX
  8
0
  6
CONTINUOUS
 10
3.278880
 20
6.636080
  0
VERTEX
  8
0
  6
CONTINUOUS
 10
3.190000
 20
6.603080
  0
VERTEX
  8
0
  6
CONTINUOUS
 10
3.098480
 20
6.573600
  0
VERTEX
  8
0
  6
CONTINUOUS
 10
3.051840
 20
6.560840
  0
VERTEX
  8
0
  6
CONTINUOUS
 10
2.955480
 20
6.539280
  0
VERTEX
  8
0
  6
CONTINUOUS
 10
2.906200
 20
6.530920
  0
VERTEX
  8
0
  6
CONTINUOUS
 10
2.804120
 20
6.519040
  0
VERTEX
  8
0
  6
CONTINUOUS
 10
2.751320
 20
6.515960
  0
VERTEX
  8
0
  6
CONTINUOUS
 10
2.670360
 20
6.515520
  0
VERTEX
  8
0
  6
CONTINUOUS
 10
2.585880
 20
6.519480
  0
VERTEX
  8
0
  6
CONTINUOUS
 10
2.498320
 20
6.529160
  0
VERTEX
  8
0
  6
CONTINUOUS
 10
2.407240
 20
6.544120
  0
VERTEX
  8
0
  6
CONTINUOUS
 10
2.312640
 20
6.565680
  0
VERTEX
  8
0
  6
CONTINUOUS
 10
2.214520
 20
6.593400
  0
VERTEX
  8
0
  6
CONTINUOUS
 10
2.111560
 20
6.628160
  0
VERTEX
  8
0
  6
CONTINUOUS
 10
2.004640
 20
6.669960
  0
VERTEX
  8
0
  6
CONTINUOUS
 10
1.893320
 20
6.719240
  0
VERTEX
  8
0
  6
CONTINUOUS
 10
1.855040
 20
6.737720
  0
VERTEX
  8
0
  6
CONTINUOUS
 10
1.432640
 20
6.387480
  0
VERTEX
  8
0
  6
CONTINUOUS
 10
1.429120
 20
6.391440
  0
VERTEX
  8
0
  6
CONTINUOUS
 10
1.759120
 20
6.004680
  0
VERTEX
  8
0
  6
CONTINUOUS
 10
6.482960
 20
6.004680
  0
VERTEX
  8
0
  6
CONTINUOUS
 10
6.983680
 20
6.437200
  0
VERTEX
  8
0
  6
CONTINUOUS
 10
6.992480
 20
6.442040
  0
SEQEND
  8
0
  0
SOLID
  8
0
 62
    15
 10
2.849880
 20
2.059640
 11
3.481720
 21
1.683880
 12
2.563000
 22
1.917520
 13
3.194840
 23
1.541760
  0
POLYLINE
  8
0
  6
CONTINUOUS
 66
     1
 40
0.000000
 41
0.000000
  0
VERTEX
  8
0
  6
CONTINUOUS
 10
2.849880
 20
2.059640
  0
VERTEX
  8
0
  6
CONTINUOUS
 10
3.481720
 20
1.683880
  0
VERTEX
  8
0
  6
CONTINUOUS
 10
3.194840
 20
1.541760
  0
VERTEX
  8
0
  6
CONTINUOUS
 10
2.563000
 20
1.917520
  0
VERTEX
  8
0
  6
CONTINUOUS
 10
2.849880
 20
2.059640
  0
SEQEND
  8
0
  0
SOLID
  8
0
 62
    15
 10
4.766520
 20
4.585680
 11
5.397920
 21
4.210360
 12
4.766520
 22
4.583920
 13
5.397920
 23
4.208160
  0
POLYLINE
  8
0
  6
CONTINUOUS
 66
     1
 40
0.000000
 41
0.000000
  0
VERTEX
  8
0
  6
CONTINUOUS
 10
4.766520
 20
4.585680
  0
VERTEX
  8
0
  6
CONTINUOUS
 10
5.397920
 20
4.210360
  0
VERTEX
  8
0
  6
CONTINUOUS
 10
5.397920
 20
4.208160
  0
VERTEX
  8
0
  6
CONTINUOUS
 10
4.766520
 20
4.583920
  0
VERTEX
  8
0
  6
CONTINUOUS
 10
4.766520
 20
4.585680
  0
SEQEND
  8
0
  0
SOLID
  8
0
 62
    15
 10
4.766520
 20
4.583920
 11
5.397920
 21
4.208160
 12
4.484920
 22
4.440920
 13
5.116320
 23
4.065160
  0
POLYLINE
  8
0
  6
CONTINUOUS
 66
     1
 40
0.000000
 41
0.000000
  0
VERTEX
  8
0
  6
CONTINUOUS
 10
4.766520
 20
4.583920
  0
VERTEX
  8
0
  6
CONTINUOUS
 10
5.397920
 20
4.208160
  0
VERTEX
  8
0
  6
CONTINUOUS
 10
5.116320
 20
4.065160
  0
VERTEX
  8
0
  6
CONTINUOUS
 10
4.484920
 20
4.440920
  0
VERTEX
  8
0
  6
CONTINUOUS
 10
4.766520
 20
4.583920
  0
SEQEND
  8
0
  0
SOLID
  8
0
 62
    15
 10
4.484920
 20
4.440920
 11
5.116320
 21
4.065160
 12
4.261840
 22
4.287800
 13
4.893240
 23
3.912040
  0
POLYLINE
  8
0
  6
CONTINUOUS
 66
     1
 40
0.000000
 41
0.000000
  0
VERTEX
  8
0
  6
CONTINUOUS
 10
4.484920
 20
4.440920
  0
VERTEX
  8
0
  6
CONTINUOUS
 10
5.116320
 20
4.065160
  0
VERTEX
  8
0
  6
CONTINUOUS
 10
4.893240
 20
3.912040
  0
VERTEX
  8
0
  6
CONTINUOUS
 10
4.261840
 20
4.287800
  0
VERTEX
  8
0
  6
CONTINUOUS
 10
4.484920
 20
4.440920
  0
SEQEND
  8
0
  0
SOLID
  8
0
 62
    15
 10
4.261840
 20
4.287800
 11
4.893240
 21
3.912040
 12
4.088480
 22
4.126760
 13
4.719880
 23
3.751000
  0
POLYLINE
  8
0
  6
CONTINUOUS
 66
     1
 40
0.000000
 41
0.000000
  0
VERTEX
  8
0
  6
CONTINUOUS
 10
4.261840
 20
4.287800
  0
VERTEX
  8
0
  6
CONTINUOUS
 10
4.893240
 20
3.912040
  0
VERTEX
  8
0
  6
CONTINUOUS
 10
4.719880
 20
3.751000
  0
VERTEX
  8
0
  6
CONTINUOUS
 10
4.088480
 20
4.126760
  0
VERTEX
  8
0
  6
CONTINUOUS
 10
4.261840
 20
4.287800
  0
SEQEND
  8
0
  0
SOLID
  8
0
 62
    15
 10
4.088480
 20
4.126760
 11
4.719880
 21
3.751000
 12
3.956480
 22
3.959120
 13
4.587880
 23
3.583360
  0
POLYLINE
  8
0
  6
CONTINUOUS
 66
     1
 40
0.000000
 41
0.000000
  0
VERTEX
  8
0
  6
CONTINUOUS
 10
4.088480
 20
4.126760
  0
VERTEX
  8
0
  6
CONTINUOUS
 10
4.719880
 20
3.751000
  0
VERTEX
  8
0
  6
CONTINUOUS
 10
4.587880
 20
3.583360
  0
VERTEX
  8
0
  6
CONTINUOUS
 10
3.956480
 20
3.959120
  0
VERTEX
  8
0
  6
CONTINUOUS
 10
4.088480
 20
4.126760
  0
SEQEND
  8
0
  0
SOLID
  8
0
 62
    15
 10
3.956480
 20
3.959120
 11
4.587880
 21
3.583360
 12
3.857920
 22
3.785760
 13
4.489320
 23
3.410440
  0
POLYLINE
  8
0
  6
CONTINUOUS
 66
     1
 40
0.000000
 41
0.000000
  0
VERTEX
  8
0
  6
CONTINUOUS
 10
3.956480
 20
3.959120
  0
VERTEX
  8
0
  6
CONTINUOUS
 10
4.587880
 20
3.583360
  0
VERTEX
  8
0
  6
CONTINUOUS
 10
4.489320
 20
3.410440
  0
VERTEX
  8
0
  6
CONTINUOUS
 10
3.857920
 20
3.785760
  0
VERTEX
  8
0
  6
CONTINUOUS
 10
3.956480
 20
3.959120
  0
SEQEND
  8
0
  0
SOLID
  8
0
 62
    15
 10
3.857920
 20
3.785760
 11
4.489320
 21
3.410440
 12
3.783560
 22
3.608440
 13
4.415400
 23
3.233120
  0
POLYLINE
  8
0
  6
CONTINUOUS
 66
     1
 40
0.000000
 41
0.000000
  0
VERTEX
  8
0
  6
CONTINUOUS
 10
3.857920
 20
3.785760
  0
VERTEX
  8
0
  6
CONTINUOUS
 10
4.489320
 20
3.410440
  0
VERTEX
  8
0
  6
CONTINUOUS
 10
4.415400
 20
3.233120
  0
VERTEX
  8
0
  6
CONTINUOUS
 10
3.783560
 20
3.608440
  0
VERTEX
  8
0
  6
CONTINUOUS
 10
3.857920
 20
3.785760
  0
SEQEND
  8
0
  0
SOLID
  8
0
 62
    15
 10
3.783560
 20
3.608440
 11
4.415400
 21
3.233120
 12
3.676640
 22
3.247640
 13
4.308040
 23
2.871880
  0
POLYLINE
  8
0
  6
CONTINUOUS
 66
     1
 40
0.000000
 41
0.000000
  0
VERTEX
  8
0
  6
CONTINUOUS
 10
3.783560
 20
3.608440
  0
VERTEX
  8
0
  6
CONTINUOUS
 10
4.415400
 20
3.233120
  0
VERTEX
  8
0
  6
CONTINUOUS
 10
4.308040
 20
2.871880
  0
VERTEX
  8
0
  6
CONTINUOUS
 10
3.676640
 20
3.247640
  0
VERTEX
  8
0
  6
CONTINUOUS
 10
3.783560
 20
3.608440
  0
SEQEND
  8
0
  0
SOLID
  8
0
 62
    15
 10
3.676640
 20
3.247640
 11
4.308040
 21
2.871880
 12
3.567960
 22
2.886840
 13
4.199360
 23
2.511080
  0
POLYLINE
  8
0
  6
CONTINUOUS
 66
     1
 40
0.000000
 41
0.000000
  0
VERTEX
  8
0
  6
CONTINUOUS
 10
3.676640
 20
3.247640
  0
VERTEX
  8
0
  6
CONTINUOUS
 10
4.308040
 20
2.871880
  0
VERTEX
  8
0
  6
CONTINUOUS
 10
4.199360
 20
2.511080
  0
VERTEX
  8
0
  6
CONTINUOUS
 10
3.567960
 20
2.886840
  0
VERTEX
  8
0
  6
CONTINUOUS
 10
3.676640
 20
3.247640
  0
SEQEND
  8
0
  0
SOLID
  8
0
 62
    15
 10
3.567960
 20
2.886840
 11
4.199360
 21
2.511080
 12
3.491840
 22
2.710400
 13
4.123240
 23
2.334640
  0
POLYLINE
  8
0
  6
CONTINUOUS
 66
     1
 40
0.000000
 41
0.000000
  0
VERTEX
  8
0
  6
CONTINUOUS
 10
3.567960
 20
2.886840
  0
VERTEX
  8
0
  6
CONTINUOUS
 10
4.199360
 20
2.511080
  0
VERTEX
  8
0
  6
CONTINUOUS
 10
4.123240
 20
2.334640
  0
VERTEX
  8
0
  6
CONTINUOUS
 10
3.491840
 20
2.710400
  0
VERTEX
  8
0
  6
CONTINUOUS
 10
3.567960
 20
2.886840
  0
SEQEND
  8
0
  0
SOLID
  8
0
 62
    15
 10
3.491840
 20
2.710400
 11
4.123240
 21
2.334640
 12
3.390640
 22
2.537480
 13
4.022040
 23
2.162160
  0
POLYLINE
  8
0
  6
CONTINUOUS
 66
     1
 40
0.000000
 41
0.000000
  0
VERTEX
  8
0
  6
CONTINUOUS
 10
3.491840
 20
2.710400
  0
VERTEX
  8
0
  6
CONTINUOUS
 10
4.123240
 20
2.334640
  0
VERTEX
  8
0
  6
CONTINUOUS
 10
4.022040
 20
2.162160
  0
VERTEX
  8
0
  6
CONTINUOUS
 10
3.390640
 20
2.537480
  0
VERTEX
  8
0
  6
CONTINUOUS
 10
3.491840
 20
2.710400
  0
SEQEND
  8
0
  0
SOLID
  8
0
 62
    15
 10
3.390640
 20
2.537480
 11
4.022040
 21
2.162160
 12
3.255560
 22
2.370720
 13
3.886960
 23
1.994960
  0
POLYLINE
  8
0
  6
CONTINUOUS
 66
     1
 40
0.000000
 41
0.000000
  0
VERTEX
  8
0
  6
CONTINUOUS
 10
3.390640
 20
2.537480
  0
VERTEX
  8
0
  6
CONTINUOUS
 10
4.022040
 20
2.162160
  0
VERTEX
  8
0
  6
CONTINUOUS
 10
3.886960
 20
1.994960
  0
VERTEX
  8
0
  6
CONTINUOUS
 10
3.255560
 20
2.370720
  0
VERTEX
  8
0
  6
CONTINUOUS
 10
3.390640
 20
2.537480
  0
SEQEND
  8
0
  0
SOLID
  8
0
 62
    15
 10
3.255560
 20
2.370720
 11
3.886960
 21
1.994960
 12
3.078240
 22
2.211000
 13
3.709640
 23
1.835240
  0
POLYLINE
  8
0
  6
CONTINUOUS
 66
     1
 40
0.000000
 41
0.000000
  0
VERTEX
  8
0
  6
CONTINUOUS
 10
3.255560
 20
2.370720
  0
VERTEX
  8
0
  6
CONTINUOUS
 10
3.886960
 20
1.994960
  0
VERTEX
  8
0
  6
CONTINUOUS
 10
3.709640
 20
1.835240
  0
VERTEX
  8
0
  6
CONTINUOUS
 10
3.078240
 20
2.211000
  0
VERTEX
  8
0
  6
CONTINUOUS
 10
3.255560
 20
2.370720
  0
SEQEND
  8
0
  0
SOLID
  8
0
 62
    15
 10
3.078240
 20
2.211000
 11
3.709640
 21
1.835240
 12
2.849880
 22
2.059640
 13
3.481720
 23
1.683880
  0
POLYLINE
  8
0
  6
CONTINUOUS
 66
     1
 40
0.000000
 41
0.000000
  0
VERTEX
  8
0
  6
CONTINUOUS
 10
3.078240
 20
2.211000
  0
VERTEX
  8
0
  6
CONTINUOUS
 10
3.709640
 20
1.835240
  0
VERTEX
  8
0
  6
CONTINUOUS
 10
3.481720
 20
1.683880
  0
VERTEX
  8
0
  6
CONTINUOUS
 10
2.849880
 20
2.059640
  0
VERTEX
  8
0
  6
CONTINUOUS
 10
3.078240
 20
2.211000
  0
SEQEND
  8
0
  0
SOLID
  8
0
 62
    15
 10
4.773120
 20
5.132600
 11
5.404520
 21
4.757280
 12
4.766520
 22
4.585680
 13
5.397920
 23
4.210360
  0
POLYLINE
  8
0
  6
CONTINUOUS
 66
     1
 40
0.000000
 41
0.000000
  0
VERTEX
  8
0
  6
CONTINUOUS
 10
4.773120
 20
5.132600
  0
VERTEX
  8
0
  6
CONTINUOUS
 10
5.404520
 20
4.757280
  0
VERTEX
  8
0
  6
CONTINUOUS
 10
5.397920
 20
4.210360
  0
VERTEX
  8
0
  6
CONTINUOUS
 10
4.766520
 20
4.585680
  0
VERTEX
  8
0
  6
CONTINUOUS
 10
4.773120
 20
5.132600
  0
SEQEND
  8
0
  0
SOLID
  8
0
 62
    15
 10
2.563000
 20
1.917520
 11
3.194840
 21
1.541760
 12
2.564320
 22
1.916640
 13
3.195720
 23
1.540880
  0
POLYLINE
  8
0
  6
CONTINUOUS
 66
     1
 40
0.000000
 41
0.000000
  0
VERTEX
  8
0
  6
CONTINUOUS
 10
2.563000
 20
1.917520
  0
VERTEX
  8
0
  6
CONTINUOUS
 10
3.194840
 20
1.541760
  0
VERTEX
  8
0
  6
CONTINUOUS
 10
3.195720
 20
1.540880
  0
VERTEX
  8
0
  6
CONTINUOUS
 10
2.564320
 20
1.916640
  0
VERTEX
  8
0
  6
CONTINUOUS
 10
2.563000
 20
1.917520
  0
SEQEND
  8
0
  0
SOLID
  8
0
 62
    15
 10
2.564320
 20
1.916640
 11
3.195720
 21
1.540880
 12
2.561680
 22
1.569480
 13
3.193080
 23
1.193720
  0
POLYLINE
  8
0
  6
CONTINUOUS
 66
     1
 40
0.000000
 41
0.000000
  0
VERTEX
  8
0
  6
CONTINUOUS
 10
2.564320
 20
1.916640
  0
VERTEX
  8
0
  6
CONTINUOUS
 10
3.195720
 20
1.540880
  0
VERTEX
  8
0
  6
CONTINUOUS
 10
3.193080
 20
1.193720
  0
VERTEX
  8
0
  6
CONTINUOUS
 10
2.561680
 20
1.569480
  0
VERTEX
  8
0
  6
CONTINUOUS
 10
2.564320
 20
1.916640
  0
SEQEND
  8
0
  0
SOLID
  8
0
 62
    15
 10
2.561680
 20
1.569480
 11
3.193080
 21
1.193720
 12
2.558600
 22
1.568160
 13
3.190440
 23
1.192400
  0
POLYLINE
  8
0
  6
CONTINUOUS
 66
     1
 40
0.000000
 41
0.000000
  0
VERTEX
  8
0
  6
CONTINUOUS
 10
2.561680
 20
1.569480
  0
VERTEX
  8
0
  6
CONTINUOUS
 10
3.193080
 20
1.193720
  0
VERTEX
  8
0
  6
CONTINUOUS
 10
3.190440
 20
1.192400
  0
VERTEX
  8
0
  6
CONTINUOUS
 10
2.558600
 20
1.568160
  0
VERTEX
  8
0
  6
CONTINUOUS
 10
2.561680
 20
1.569480
  0
SEQEND
  8
0
  0
SOLID
  8
0
 62
    15
 10
2.558600
 20
1.568160
 11
3.190440
 21
1.192400
 12
2.403720
 22
1.550120
 13
3.035120
 23
1.174360
  0
POLYLINE
  8
0
  6
CONTINUOUS
 66
     1
 40
0.000000
 41
0.000000
  0
VERTEX
  8
0
  6
CONTINUOUS
 10
2.558600
 20
1.568160
  0
VERTEX
  8
0
  6
CONTINUOUS
 10
3.190440
 20
1.192400
  0
VERTEX
  8
0
  6
CONTINUOUS
 10
3.035120
 20
1.174360
  0
VERTEX
  8
0
  6
CONTINUOUS
 10
2.403720
 20
1.550120
  0
VERTEX
  8
0
  6
CONTINUOUS
 10
2.558600
 20
1.568160
  0
SEQEND
  8
0
  0
SOLID
  8
0
 62
    15
 10
2.403720
 20
1.550120
 11
3.035120
 21
1.174360
 12
2.263360
 22
1.510520
 13
2.894760
 23
1.134760
  0
POLYLINE
  8
0
  6
CONTINUOUS
 66
     1
 40
0.000000
 41
0.000000
  0
VERTEX
  8
0
  6
CONTINUOUS
 10
2.403720
 20
1.550120
  0
VERTEX
  8
0
  6
CONTINUOUS
 10
3.035120
 20
1.174360
  0
VERTEX
  8
0
  6
CONTINUOUS
 10
2.894760
 20
1.134760
  0
VERTEX
  8
0
  6
CONTINUOUS
 10
2.263360
 20
1.510520
  0
VERTEX
  8
0
  6
CONTINUOUS
 10
2.403720
 20
1.550120
  0
SEQEND
  8
0
  0
SOLID
  8
0
 62
    15
 10
2.263360
 20
1.510520
 11
2.894760
 21
1.134760
 12
2.138840
 22
1.450240
 13
2.770240
 23
1.074480
  0
POLYLINE
  8
0
  6
CONTINUOUS
 66
     1
 40
0.000000
 41
0.000000
  0
VERTEX
  8
0
  6
CONTINUOUS
 10
2.263360
 20
1.510520
  0
VERTEX
  8
0
  6
CONTINUOUS
 10
2.894760
 20
1.134760
  0
VERTEX
  8
0
  6
CONTINUOUS
 10
2.770240
 20
1.074480
  0
VERTEX
  8
0
  6
CONTINUOUS
 10
2.138840
 20
1.450240
  0
VERTEX
  8
0
  6
CONTINUOUS
 10
2.263360
 20
1.510520
  0
SEQEND
  8
0
  0
SOLID
  8
0
 62
    15
 10
2.138840
 20
1.450240
 11
2.770240
 21
1.074480
 12
2.030600
 22
1.368840
 13
2.662000
 23
0.993080
  0
POLYLINE
  8
0
  6
CONTINUOUS
 66
     1
 40
0.000000
 41
0.000000
  0
VERTEX
  8
0
  6
CONTINUOUS
 10
2.138840
 20
1.450240
  0
VERTEX
  8
0
  6
CONTINUOUS
 10
2.770240
 20
1.074480
  0
VERTEX
  8
0
  6
CONTINUOUS
 10
2.662000
 20
0.993080
  0
VERTEX
  8
0
  6
CONTINUOUS
 10
2.030600
 20
1.368840
  0
VERTEX
  8
0
  6
CONTINUOUS
 10
2.138840
 20
1.450240
  0
SEQEND
  8
0
  0
SOLID
  8
0
 62
    15
 10
2.030600
 20
1.368840
 11
2.662000
 21
0.993080
 12
1.939080
 22
1.267200
 13
2.570480
 23
0.891440
  0
POLYLINE
  8
0
  6
CONTINUOUS
 66
     1
 40
0.000000
 41
0.000000
  0
VERTEX
  8
0
  6
CONTINUOUS
 10
2.030600
 20
1.368840
  0
VERTEX
  8
0
  6
CONTINUOUS
 10
2.662000
 20
0.993080
  0
VERTEX
  8
0
  6
CONTINUOUS
 10
2.570480
 20
0.891440
  0
VERTEX
  8
0
  6
CONTINUOUS
 10
1.939080
 20
1.267200
  0
VERTEX
  8
0
  6
CONTINUOUS
 10
2.030600
 20
1.368840
  0
SEQEND
  8
0
  0
SOLID
  8
0
 62
    15
 10
1.939080
 20
1.267200
 11
2.570480
 21
0.891440
 12
1.865600
 22
1.144880
 13
2.497000
 23
0.769560
  0
POLYLINE
  8
0
  6
CONTINUOUS
 66
     1
 40
0.000000
 41
0.000000
  0
VERTEX
  8
0
  6
CONTINUOUS
 10
1.939080
 20
1.267200
  0
VERTEX
  8
0
  6
CONTINUOUS
 10
2.570480
 20
0.891440
  0
VERTEX
  8
0
  6
CONTINUOUS
 10
2.497000
 20
0.769560
  0
VERTEX
  8
0
  6
CONTINUOUS
 10
1.865600
 20
1.144880
  0
VERTEX
  8
0
  6
CONTINUOUS
 10
1.939080
 20
1.267200
  0
SEQEND
  8
0
  0
SOLID
  8
0
 62
    15
 10
1.865600
 20
1.144880
 11
2.497000
 21
0.769560
 12
1.810160
 22
1.002760
 13
2.441560
 23
0.627000
  0
POLYLINE
  8
0
  6
CONTINUOUS
 66
     1
 40
0.000000
 41
0.000000
  0
VERTEX
  8
0
  6
CONTINUOUS
 10
1.865600
 20
1.144880
  0
VERTEX
  8
0
  6
CONTINUOUS
 10
2.497000
 20
0.769560
  0
VERTEX
  8
0
  6
CONTINUOUS
 10
2.441560
 20
0.627000
  0
VERTEX
  8
0
  6
CONTINUOUS
 10
1.810160
 20
1.002760
  0
VERTEX
  8
0
  6
CONTINUOUS
 10
1.865600
 20
1.144880
  0
SEQEND
  8
0
  0
SOLID
  8
0
 62
    15
 10
1.810160
 20
1.002760
 11
2.441560
 21
0.627000
 12
1.773640
 22
0.840400
 13
2.405480
 23
0.465080
  0
POLYLINE
  8
0
  6
CONTINUOUS
 66
     1
 40
0.000000
 41
0.000000
  0
VERTEX
  8
0
  6
CONTINUOUS
 10
1.810160
 20
1.002760
  0
VERTEX
  8
0
  6
CONTINUOUS
 10
2.441560
 20
0.627000
  0
VERTEX
  8
0
  6
CONTINUOUS
 10
2.405480
 20
0.465080
  0
VERTEX
  8
0
  6
CONTINUOUS
 10
1.773640
 20
0.840400
  0
VERTEX
  8
0
  6
CONTINUOUS
 10
1.810160
 20
1.002760
  0
SEQEND
  8
0
  0
SOLID
  8
0
 62
    15
 10
1.773640
 20
0.840400
 11
2.405480
 21
0.465080
 12
1.771440
 22
0.837320
 13
2.402840
 23
0.462000
  0
POLYLINE
  8
0
  6
CONTINUOUS
 66
     1
 40
0.000000
 41
0.000000
  0
VERTEX
  8
0
  6
CONTINUOUS
 10
1.773640
 20
0.840400
  0
VERTEX
  8
0
  6
CONTINUOUS
 10
2.405480
 20
0.465080
  0
VERTEX
  8
0
  6
CONTINUOUS
 10
2.402840
 20
0.462000
  0
VERTEX
  8
0
  6
CONTINUOUS
 10
1.771440
 20
0.837320
  0
VERTEX
  8
0
  6
CONTINUOUS
 10
1.773640
 20
0.840400
  0
SEQEND
  8
0
  0
SOLID
  8
0
 62
    15
 10
1.220560
 20
0.856680
 11
1.852400
 21
0.480920
 12
1.218360
 22
0.857120
 13
1.849760
 23
0.481800
  0
POLYLINE
  8
0
  6
CONTINUOUS
 66
     1
 40
0.000000
 41
0.000000
  0
VERTEX
  8
0
  6
CONTINUOUS
 10
1.220560
 20
0.856680
  0
VERTEX
  8
0
  6
CONTINUOUS
 10
1.852400
 20
0.480920
  0
VERTEX
  8
0
  6
CONTINUOUS
 10
1.849760
 20
0.481800
  0
VERTEX
  8
0
  6
CONTINUOUS
 10
1.218360
 20
0.857120
  0
VERTEX
  8
0
  6
CONTINUOUS
 10
1.220560
 20
0.856680
  0
SEQEND
  8
0
  0
SOLID
  8
0
 62
    15
 10
1.771440
 20
0.837320
 11
2.402840
 21
0.462000
 12
1.220560
 22
0.856680
 13
1.852400
 23
0.480920
  0
POLYLINE
  8
0
  6
CONTINUOUS
 66
     1
 40
0.000000
 41
0.000000
  0
VERTEX
  8
0
  6
CONTINUOUS
 10
1.771440
 20
0.837320
  0
VERTEX
  8
0
  6
CONTINUOUS
 10
2.402840
 20
0.462000
  0
VERTEX
  8
0
  6
CONTINUOUS
 10
1.852400
 20
0.480920
  0
VERTEX
  8
0
  6
CONTINUOUS
 10
1.220560
 20
0.856680
  0
VERTEX
  8
0
  6
CONTINUOUS
 10
1.771440
 20
0.837320
  0
SEQEND
  8
0
  0
POLYLINE
  8
0
  6
CONTINUOUS
 66
     1
 40
0.000000
 41
0.000000
  0
VERTEX
  8
0
  6
CONTINUOUS
 10
4.773120
 20
5.132600
  0
VERTEX
  8
0
  6
CONTINUOUS
 10
4.766520
 20
4.585680
  0
VERTEX
  8
0
  6
CONTINUOUS
 10
4.766520
 20
4.583920
  0
VERTEX
  8
0
  6
CONTINUOUS
 10
4.484920
 20
4.440920
  0
VERTEX
  8
0
  6
CONTINUOUS
 10
4.261840
 20
4.287800
  0
VERTEX
  8
0
  6
CONTINUOUS
 10
4.088480
 20
4.126760
  0
VERTEX
  8
0
  6
CONTINUOUS
 10
3.956480
 20
3.959120
  0
VERTEX
  8
0
  6
CONTINUOUS
 10
3.857920
 20
3.785760
  0
VERTEX
  8
0
  6
CONTINUOUS
 10
3.783560
 20
3.608440
  0
VERTEX
  8
0
  6
CONTINUOUS
 10
3.676640
 20
3.247640
  0
VERTEX
  8
0
  6
CONTINUOUS
 10
3.567960
 20
2.886840
  0
VERTEX
  8
0
  6
CONTINUOUS
 10
3.491840
 20
2.710400
  0
VERTEX
  8
0
  6
CONTINUOUS
 10
3.390640
 20
2.537480
  0
VERTEX
  8
0
  6
CONTINUOUS
 10
3.255560
 20
2.370720
  0
VERTEX
  8
0
  6
CONTINUOUS
 10
3.078240
 20
2.211000
  0
VERTEX
  8
0
  6
CONTINUOUS
 10
2.849880
 20
2.059640
  0
VERTEX
  8
0
  6
CONTINUOUS
 10
2.563000
 20
1.917520
  0
VERTEX
  8
0
  6
CONTINUOUS
 10
2.564320
 20
1.916640
  0
VERTEX
  8
0
  6
CONTINUOUS
 10
2.561680
 20
1.569480
  0
VERTEX
  8
0
  6
CONTINUOUS
 10
2.558600
 20
1.568160
  0
VERTEX
  8
0
  6
CONTINUOUS
 10
2.403720
 20
1.550120
  0
VERTEX
  8
0
  6
CONTINUOUS
 10
2.263360
 20
1.510520
  0
VERTEX
  8
0
  6
CONTINUOUS
 10
2.138840
 20
1.450240
  0
VERTEX
  8
0
  6
CONTINUOUS
 10
2.030600
 20
1.368840
  0
VERTEX
  8
0
  6
CONTINUOUS
 10
1.939080
 20
1.267200
  0
VERTEX
  8
0
  6
CONTINUOUS
 10
1.865600
 20
1.144880
  0
VERTEX
  8
0
  6
CONTINUOUS
 10
1.810160
 20
1.002760
  0
VERTEX
  8
0
  6
CONTINUOUS
 10
1.773640
 20
0.840400
  0
VERTEX
  8
0
  6
CONTINUOUS
 10
1.771440
 20
0.837320
  0
VERTEX
  8
0
  6
CONTINUOUS
 10
1.220560
 20
0.856680
  0
VERTEX
  8
0
  6
CONTINUOUS
 10
1.218360
 20
0.857120
  0
VERTEX
  8
0
  6
CONTINUOUS
 10
1.220120
 20
0.867240
  0
VERTEX
  8
0
  6
CONTINUOUS
 10
1.214400
 20
1.529000
  0
VERTEX
  8
0
  6
CONTINUOUS
 10
4.269320
 20
5.131280
  0
VERTEX
  8
0
  6
CONTINUOUS
 10
4.767840
 20
5.133920
  0
VERTEX
  8
0
  6
CONTINUOUS
 10
4.773120
 20
5.132600
  0
SEQEND
  8
0
  0
TEXT
  8
0
 10
3.373040
 20
0.688600
 40
0.138207
  1
BA  166
 41
1.000000
  7
SN0
 71
     0
 72
     5
 11
3.962899
 21
0.688600
  0
TEXT
  8
0
 10
3.240160
 20
0.497200
 40
0.138207
  1
1" x 5-9/16"
 41
1.000000
  7
SN0
 71
     0
 72
     5
 11
4.093769
 21
0.497200
  0
TEXT
  8
0
 10
7.614200
 20
7.638840
 40
0.138207
  1
crown
 41
1.000000
  7
SN0
 71
     0
 72
     5
 11
8.056595
 21
7.638840
  0
TEXT
  8
0
 10
7.697360
 20
7.447440
 40
0.138207
  1
166
 41
1.000000
  7
SN0
 71
     0
 72
     5
 11
7.973948
 21
7.447440
  0
ENDSEC
  0
EOF
