  0
SECTION
  2
HEADER
  9
$ACADVER
  1
AC1006
  9
$EXTMIN
 10
3.320680
 20
0.723800
  9
$EXTMAX
 10
6.953760
 20
3.456200
  9
$LTSCALE
 40
0.044000
  9
$PDMODE
 70
    35
  9
$PDSIZE
 40
0.035200
  0
ENDSEC
  0
SECTION
  2
TABLES
  0
TABLE
  2
LTYPE
 70
     9
  0
LTYPE
  2
CONTINUOUS
 70
    64
  3
Solid line
 72
    65
 73
     0
 40
0.000000
  0
LTYPE
  2
DASHED
 70
    64
  3
__ __ __ __ __ __ __ __ __ __ __ __ __ __ __
 72
    65
 73
     2
 40
0.000330
 49
0.000220
 49
-0.000110
  0
LTYPE
  2
HIDDEN
 70
    64
  3
 _ _ _ _ _ _ _ _ _ _ _ _ _ _ _ _ _ _ _ _ _ _
 72
    65
 73
     2
 40
0.000165
 49
0.000110
 49
-0.000055
  0
LTYPE
  2
CENTER
 70
    64
  3
____ _ ____ _ ____ _ ____ _ ____ _ ____ _ ____
 72
    65
 73
     4
 40
0.000880
 49
0.000550
 49
-0.000110
 49
0.000110
 49
-0.000110
  0
LTYPE
  2
PHANTOM
 70
    64
  3
_____ _ _ _____ _ _ _____ _ _ _____ _ _ ____
 72
    65
 73
     6
 40
0.001100
 49
0.000550
 49
-0.000110
 49
0.000110
 49
-0.000110
 49
0.000110
 49
-0.000110
  0
LTYPE
  2
DOT
 70
    64
  3
...............................................
 72
    65
 73
     2
 40
0.000110
 49
0.000000
 49
-0.000110
  0
LTYPE
  2
DASHDOT
 70
    64
  3
__ . __ . __ . __ . __ . __ . __ . __ . __ . __
 72
    65
 73
     4
 40
0.000440
 49
0.000220
 49
-0.000110
 49
0.000000
 49
-0.000110
  0
LTYPE
  2
BORDER
 70
    64
  3
__ __ . __ __ . __ __ . __ __ . __ __ . __ __
 72
    65
 73
     6
 40
0.000770
 49
0.000220
 49
-0.000110
 49
0.000220
 49
-0.000110
 49
0.000000
 49
-0.000110
  0
LTYPE
  2
DIVIDE
 70
    64
  3
__ . . __ . . __ . . __ . . __ . . __ . . __
 72
    65
 73
     6
 40
0.000550
 49
0.000220
 49
-0.000110
 49
0.000000
 49
-0.000110
 49
0.000000
 49
-0.000110
  0
LTYPE
  2
DOTDOT
 70
    64
  3
 . .  . .  . .  . .  . .  . . 
 72
    65
 73
     5
 40
0.000242
 49
-0.000110
 49
0.000000
 49
-0.000110
 49
0.000000
 49
-0.000110
  0
ENDTAB
  0
TABLE
  2
STYLE
 70
     2
  0
STYLE
 70
     0
  2
SN0
 40
0.000000
 41
0.000440
 50
0.000000
 71
     0
 42
0.000000
  3
ROMAND
  0
STYLE
 70
    68
  2
SV0
 40
0.000000
 41
0.000440
 50
0.000000
 71
     0
 42
0.000000
  3
ROMAND
  0
ENDTAB
  0
TABLE
  2
LAYER
 70
     3
  0
LAYER
  2
FOREGROUND
 70
    64
 62
     7
  6
CONTINUOUS
  0
LAYER
  2
BACKGROUND
 70
    65
 62
    -7
  6
CONTINUOUS
  0
LAYER
  2
0
 70
    64
 62
     7
  6
CONTINUOUS
  0
ENDTAB
  0
ENDSEC
  0
SECTION
  2
ENTITIES
  0
POLYLINE
  8
FOREGROUND
  6
CONTINUOUS
 66
     1
 40
0.000000
 41
0.000000
  0
VERTEX
  8
FOREGROUND
  6
CONTINUOUS
 10
0.000000
 20
4.180000
  0
VERTEX
  8
FOREGROUND
  6
CONTINUOUS
 10
8.499920
 20
4.180000
  0
VERTEX
  8
FOREGROUND
  6
CONTINUOUS
 10
8.499920
 20
-6.820000
  0
VERTEX
  8
FOREGROUND
  6
CONTINUOUS
 10
0.000000
 20
-6.820000
  0
VERTEX
  8
FOREGROUND
  6
CONTINUOUS
 10
0.000000
 20
4.180000
  0
SEQEND
  8
0
  0
POLYLINE
  8
FOREGROUND
  6
CONTINUOUS
 66
     1
 40
0.000000
 41
0.000000
  0
VERTEX
  8
FOREGROUND
  6
CONTINUOUS
 10
0.000000
 20
4.180000
  0
VERTEX
  8
FOREGROUND
  6
CONTINUOUS
 10
8.499920
 20
4.180000
  0
VERTEX
  8
FOREGROUND
  6
CONTINUOUS
 10
8.499920
 20
-6.820000
  0
VERTEX
  8
FOREGROUND
  6
CONTINUOUS
 10
0.000000
 20
-6.820000
  0
VERTEX
  8
FOREGROUND
  6
CONTINUOUS
 10
0.000000
 20
4.180000
  0
SEQEND
  8
0
  0
POLYLINE
  8
0
  6
CONTINUOUS
 66
     1
 40
0.014080
 41
0.014080
  0
VERTEX
  8
0
  6
CONTINUOUS
 10
5.078920
 20
2.934800
  0
VERTEX
  8
0
  6
CONTINUOUS
 10
5.130400
 20
2.933480
  0
VERTEX
  8
0
  6
CONTINUOUS
 10
5.163400
 20
2.935680
  0
VERTEX
  8
0
  6
CONTINUOUS
 10
5.210040
 20
2.943600
  0
VERTEX
  8
0
  6
CONTINUOUS
 10
5.239080
 20
2.951080
  0
VERTEX
  8
0
  6
CONTINUOUS
 10
5.266800
 20
2.960760
  0
VERTEX
  8
0
  6
CONTINUOUS
 10
5.292760
 20
2.971760
  0
VERTEX
  8
0
  6
CONTINUOUS
 10
5.316960
 20
2.984520
  0
VERTEX
  8
0
  6
CONTINUOUS
 10
5.338960
 20
2.998600
  0
VERTEX
  8
0
  6
CONTINUOUS
 10
5.359200
 20
3.014000
  0
VERTEX
  8
0
  6
CONTINUOUS
 10
5.393080
 20
3.047880
  0
VERTEX
  8
0
  6
CONTINUOUS
 10
5.412440
 20
3.075600
  0
VERTEX
  8
0
  6
CONTINUOUS
 10
5.426520
 20
3.104200
  0
VERTEX
  8
0
  6
CONTINUOUS
 10
5.432240
 20
3.124000
  0
VERTEX
  8
0
  6
CONTINUOUS
 10
5.434880
 20
3.126640
  0
VERTEX
  8
0
  6
CONTINUOUS
 10
5.943960
 20
3.126640
  0
VERTEX
  8
0
  6
CONTINUOUS
 10
5.943960
 20
3.018840
  0
VERTEX
  8
0
  6
CONTINUOUS
 10
6.408160
 20
2.705560
  0
VERTEX
  8
0
  6
CONTINUOUS
 10
6.425320
 20
2.705560
  0
VERTEX
  8
0
  6
CONTINUOUS
 10
6.435880
 20
2.725360
  0
VERTEX
  8
0
  6
CONTINUOUS
 10
6.449960
 20
2.742960
  0
VERTEX
  8
0
  6
CONTINUOUS
 10
6.467120
 20
2.757920
  0
VERTEX
  8
0
  6
CONTINUOUS
 10
6.486480
 20
2.769800
  0
VERTEX
  8
0
  6
CONTINUOUS
 10
6.508040
 20
2.779040
  0
VERTEX
  8
0
  6
CONTINUOUS
 10
6.541480
 20
2.786520
  0
VERTEX
  8
0
  6
CONTINUOUS
 10
6.564800
 20
2.787400
  0
VERTEX
  8
0
  6
CONTINUOUS
 10
6.587240
 20
2.784760
  0
VERTEX
  8
0
  6
CONTINUOUS
 10
6.609240
 20
2.778600
  0
VERTEX
  8
0
  6
CONTINUOUS
 10
6.629920
 20
2.768480
  0
VERTEX
  8
0
  6
CONTINUOUS
 10
6.648400
 20
2.754840
  0
VERTEX
  8
0
  6
CONTINUOUS
 10
6.664680
 20
2.736360
  0
VERTEX
  8
0
  6
CONTINUOUS
 10
6.677440
 20
2.714360
  0
VERTEX
  8
0
  6
CONTINUOUS
 10
6.686680
 20
2.687520
  0
VERTEX
  8
0
  6
CONTINUOUS
 10
6.691520
 20
2.656280
  0
VERTEX
  8
0
  6
CONTINUOUS
 10
6.691960
 20
2.636040
  0
VERTEX
  8
0
  6
CONTINUOUS
 10
6.783920
 20
2.636040
  0
VERTEX
  8
0
  6
CONTINUOUS
 10
6.783920
 20
2.621960
  0
VERTEX
  8
0
  6
CONTINUOUS
 10
6.785680
 20
2.607440
  0
VERTEX
  8
0
  6
CONTINUOUS
 10
6.794920
 20
2.576640
  0
VERTEX
  8
0
  6
CONTINUOUS
 10
6.810320
 20
2.544960
  0
VERTEX
  8
0
  6
CONTINUOUS
 10
6.831000
 20
2.515040
  0
VERTEX
  8
0
  6
CONTINUOUS
 10
6.855640
 20
2.488640
  0
VERTEX
  8
0
  6
CONTINUOUS
 10
6.869280
 20
2.477200
  0
VERTEX
  8
0
  6
CONTINUOUS
 10
6.899200
 20
2.459160
  0
VERTEX
  8
0
  6
CONTINUOUS
 10
6.914600
 20
2.453440
  0
VERTEX
  8
0
  6
CONTINUOUS
 10
6.938800
 20
2.448600
  0
VERTEX
  8
0
  6
CONTINUOUS
 10
6.946720
 20
2.448160
  0
VERTEX
  8
0
  6
CONTINUOUS
 10
6.946720
 20
2.265560
  0
VERTEX
  8
0
  6
CONTINUOUS
 10
5.210920
 20
2.265560
  0
VERTEX
  8
0
  6
CONTINUOUS
 10
5.210920
 20
2.758800
  0
VERTEX
  8
0
  6
CONTINUOUS
 10
5.074520
 20
2.758800
  0
VERTEX
  8
0
  6
CONTINUOUS
 10
5.074520
 20
2.934800
  0
VERTEX
  8
0
  6
CONTINUOUS
 10
5.078920
 20
2.934800
  0
SEQEND
  8
0
  0
SOLID
  8
0
 62
    15
 10
3.830200
 20
2.756160
 11
4.480960
 21
3.128840
 12
3.842520
 22
2.712600
 13
4.493720
 23
3.084840
  0
POLYLINE
  8
0
  6
CONTINUOUS
 66
     1
 40
0.000000
 41
0.000000
  0
VERTEX
  8
0
  6
CONTINUOUS
 10
3.830200
 20
2.756160
  0
VERTEX
  8
0
  6
CONTINUOUS
 10
4.480960
 20
3.128840
  0
VERTEX
  8
0
  6
CONTINUOUS
 10
4.493720
 20
3.084840
  0
VERTEX
  8
0
  6
CONTINUOUS
 10
3.842520
 20
2.712600
  0
VERTEX
  8
0
  6
CONTINUOUS
 10
3.830200
 20
2.756160
  0
SEQEND
  8
0
  0
SOLID
  8
0
 62
    15
 10
3.504160
 20
3.083080
 11
4.155360
 21
3.455320
 12
3.509000
 22
3.050960
 13
4.160200
 23
3.423200
  0
POLYLINE
  8
0
  6
CONTINUOUS
 66
     1
 40
0.000000
 41
0.000000
  0
VERTEX
  8
0
  6
CONTINUOUS
 10
3.504160
 20
3.083080
  0
VERTEX
  8
0
  6
CONTINUOUS
 10
4.155360
 20
3.455320
  0
VERTEX
  8
0
  6
CONTINUOUS
 10
4.160200
 20
3.423200
  0
VERTEX
  8
0
  6
CONTINUOUS
 10
3.509000
 20
3.050960
  0
VERTEX
  8
0
  6
CONTINUOUS
 10
3.504160
 20
3.083080
  0
SEQEND
  8
0
  0
SOLID
  8
0
 62
    15
 10
3.509000
 20
3.050960
 11
4.160200
 21
3.423200
 12
3.523520
 22
3.020160
 13
4.174280
 23
3.392840
  0
POLYLINE
  8
0
  6
CONTINUOUS
 66
     1
 40
0.000000
 41
0.000000
  0
VERTEX
  8
0
  6
CONTINUOUS
 10
3.509000
 20
3.050960
  0
VERTEX
  8
0
  6
CONTINUOUS
 10
4.160200
 20
3.423200
  0
VERTEX
  8
0
  6
CONTINUOUS
 10
4.174280
 20
3.392840
  0
VERTEX
  8
0
  6
CONTINUOUS
 10
3.523520
 20
3.020160
  0
VERTEX
  8
0
  6
CONTINUOUS
 10
3.509000
 20
3.050960
  0
SEQEND
  8
0
  0
SOLID
  8
0
 62
    15
 10
3.523520
 20
3.020160
 11
4.174280
 21
3.392840
 12
3.544640
 22
2.992000
 13
4.195840
 23
3.364680
  0
POLYLINE
  8
0
  6
CONTINUOUS
 66
     1
 40
0.000000
 41
0.000000
  0
VERTEX
  8
0
  6
CONTINUOUS
 10
3.523520
 20
3.020160
  0
VERTEX
  8
0
  6
CONTINUOUS
 10
4.174280
 20
3.392840
  0
VERTEX
  8
0
  6
CONTINUOUS
 10
4.195840
 20
3.364680
  0
VERTEX
  8
0
  6
CONTINUOUS
 10
3.544640
 20
2.992000
  0
VERTEX
  8
0
  6
CONTINUOUS
 10
3.523520
 20
3.020160
  0
SEQEND
  8
0
  0
SOLID
  8
0
 62
    15
 10
3.544640
 20
2.992000
 11
4.195840
 21
3.364680
 12
3.571040
 22
2.966920
 13
4.222240
 23
3.339600
  0
POLYLINE
  8
0
  6
CONTINUOUS
 66
     1
 40
0.000000
 41
0.000000
  0
VERTEX
  8
0
  6
CONTINUOUS
 10
3.544640
 20
2.992000
  0
VERTEX
  8
0
  6
CONTINUOUS
 10
4.195840
 20
3.364680
  0
VERTEX
  8
0
  6
CONTINUOUS
 10
4.222240
 20
3.339600
  0
VERTEX
  8
0
  6
CONTINUOUS
 10
3.571040
 20
2.966920
  0
VERTEX
  8
0
  6
CONTINUOUS
 10
3.544640
 20
2.992000
  0
SEQEND
  8
0
  0
SOLID
  8
0
 62
    15
 10
3.571040
 20
2.966920
 11
4.222240
 21
3.339600
 12
3.600960
 22
2.946680
 13
4.252160
 23
3.318920
  0
POLYLINE
  8
0
  6
CONTINUOUS
 66
     1
 40
0.000000
 41
0.000000
  0
VERTEX
  8
0
  6
CONTINUOUS
 10
3.571040
 20
2.966920
  0
VERTEX
  8
0
  6
CONTINUOUS
 10
4.222240
 20
3.339600
  0
VERTEX
  8
0
  6
CONTINUOUS
 10
4.252160
 20
3.318920
  0
VERTEX
  8
0
  6
CONTINUOUS
 10
3.600960
 20
2.946680
  0
VERTEX
  8
0
  6
CONTINUOUS
 10
3.571040
 20
2.966920
  0
SEQEND
  8
0
  0
SOLID
  8
0
 62
    15
 10
3.600960
 20
2.946680
 11
4.252160
 21
3.318920
 12
3.632200
 22
2.931280
 13
4.283400
 23
3.303960
  0
POLYLINE
  8
0
  6
CONTINUOUS
 66
     1
 40
0.000000
 41
0.000000
  0
VERTEX
  8
0
  6
CONTINUOUS
 10
3.600960
 20
2.946680
  0
VERTEX
  8
0
  6
CONTINUOUS
 10
4.252160
 20
3.318920
  0
VERTEX
  8
0
  6
CONTINUOUS
 10
4.283400
 20
3.303960
  0
VERTEX
  8
0
  6
CONTINUOUS
 10
3.632200
 20
2.931280
  0
VERTEX
  8
0
  6
CONTINUOUS
 10
3.600960
 20
2.946680
  0
SEQEND
  8
0
  0
SOLID
  8
0
 62
    15
 10
3.632200
 20
2.931280
 11
4.283400
 21
3.303960
 12
3.663440
 22
2.922040
 13
4.314200
 23
3.294720
  0
POLYLINE
  8
0
  6
CONTINUOUS
 66
     1
 40
0.000000
 41
0.000000
  0
VERTEX
  8
0
  6
CONTINUOUS
 10
3.632200
 20
2.931280
  0
VERTEX
  8
0
  6
CONTINUOUS
 10
4.283400
 20
3.303960
  0
VERTEX
  8
0
  6
CONTINUOUS
 10
4.314200
 20
3.294720
  0
VERTEX
  8
0
  6
CONTINUOUS
 10
3.663440
 20
2.922040
  0
VERTEX
  8
0
  6
CONTINUOUS
 10
3.632200
 20
2.931280
  0
SEQEND
  8
0
  0
SOLID
  8
0
 62
    15
 10
3.663440
 20
2.922040
 11
4.314200
 21
3.294720
 12
3.692040
 22
2.920280
 13
4.343240
 23
3.292960
  0
POLYLINE
  8
0
  6
CONTINUOUS
 66
     1
 40
0.000000
 41
0.000000
  0
VERTEX
  8
0
  6
CONTINUOUS
 10
3.663440
 20
2.922040
  0
VERTEX
  8
0
  6
CONTINUOUS
 10
4.314200
 20
3.294720
  0
VERTEX
  8
0
  6
CONTINUOUS
 10
4.343240
 20
3.292960
  0
VERTEX
  8
0
  6
CONTINUOUS
 10
3.692040
 20
2.920280
  0
VERTEX
  8
0
  6
CONTINUOUS
 10
3.663440
 20
2.922040
  0
SEQEND
  8
0
  0
SOLID
  8
0
 62
    15
 10
3.692040
 20
2.920280
 11
4.343240
 21
3.292960
 12
3.692040
 22
2.828320
 13
4.343240
 23
3.201000
  0
POLYLINE
  8
0
  6
CONTINUOUS
 66
     1
 40
0.000000
 41
0.000000
  0
VERTEX
  8
0
  6
CONTINUOUS
 10
3.692040
 20
2.920280
  0
VERTEX
  8
0
  6
CONTINUOUS
 10
4.343240
 20
3.292960
  0
VERTEX
  8
0
  6
CONTINUOUS
 10
4.343240
 20
3.201000
  0
VERTEX
  8
0
  6
CONTINUOUS
 10
3.692040
 20
2.828320
  0
VERTEX
  8
0
  6
CONTINUOUS
 10
3.692040
 20
2.920280
  0
SEQEND
  8
0
  0
SOLID
  8
0
 62
    15
 10
3.692040
 20
2.828320
 11
4.343240
 21
3.201000
 12
3.694680
 22
2.828320
 13
4.345880
 23
3.201000
  0
POLYLINE
  8
0
  6
CONTINUOUS
 66
     1
 40
0.000000
 41
0.000000
  0
VERTEX
  8
0
  6
CONTINUOUS
 10
3.692040
 20
2.828320
  0
VERTEX
  8
0
  6
CONTINUOUS
 10
4.343240
 20
3.201000
  0
VERTEX
  8
0
  6
CONTINUOUS
 10
4.345880
 20
3.201000
  0
VERTEX
  8
0
  6
CONTINUOUS
 10
3.694680
 20
2.828320
  0
VERTEX
  8
0
  6
CONTINUOUS
 10
3.692040
 20
2.828320
  0
SEQEND
  8
0
  0
SOLID
  8
0
 62
    15
 10
3.694680
 20
2.828320
 11
4.345880
 21
3.201000
 12
3.728560
 22
2.825680
 13
4.379320
 23
3.198360
  0
POLYLINE
  8
0
  6
CONTINUOUS
 66
     1
 40
0.000000
 41
0.000000
  0
VERTEX
  8
0
  6
CONTINUOUS
 10
3.694680
 20
2.828320
  0
VERTEX
  8
0
  6
CONTINUOUS
 10
4.345880
 20
3.201000
  0
VERTEX
  8
0
  6
CONTINUOUS
 10
4.379320
 20
3.198360
  0
VERTEX
  8
0
  6
CONTINUOUS
 10
3.728560
 20
2.825680
  0
VERTEX
  8
0
  6
CONTINUOUS
 10
3.694680
 20
2.828320
  0
SEQEND
  8
0
  0
SOLID
  8
0
 62
    15
 10
3.728560
 20
2.825680
 11
4.379320
 21
3.198360
 12
3.757160
 22
2.818640
 13
4.408360
 23
3.191320
  0
POLYLINE
  8
0
  6
CONTINUOUS
 66
     1
 40
0.000000
 41
0.000000
  0
VERTEX
  8
0
  6
CONTINUOUS
 10
3.728560
 20
2.825680
  0
VERTEX
  8
0
  6
CONTINUOUS
 10
4.379320
 20
3.198360
  0
VERTEX
  8
0
  6
CONTINUOUS
 10
4.408360
 20
3.191320
  0
VERTEX
  8
0
  6
CONTINUOUS
 10
3.757160
 20
2.818640
  0
VERTEX
  8
0
  6
CONTINUOUS
 10
3.728560
 20
2.825680
  0
SEQEND
  8
0
  0
SOLID
  8
0
 62
    15
 10
3.757160
 20
2.818640
 11
4.408360
 21
3.191320
 12
3.781800
 22
2.807640
 13
4.433000
 23
3.180320
  0
POLYLINE
  8
0
  6
CONTINUOUS
 66
     1
 40
0.000000
 41
0.000000
  0
VERTEX
  8
0
  6
CONTINUOUS
 10
3.757160
 20
2.818640
  0
VERTEX
  8
0
  6
CONTINUOUS
 10
4.408360
 20
3.191320
  0
VERTEX
  8
0
  6
CONTINUOUS
 10
4.433000
 20
3.180320
  0
VERTEX
  8
0
  6
CONTINUOUS
 10
3.781800
 20
2.807640
  0
VERTEX
  8
0
  6
CONTINUOUS
 10
3.757160
 20
2.818640
  0
SEQEND
  8
0
  0
SOLID
  8
0
 62
    15
 10
3.781800
 20
2.807640
 11
4.433000
 21
3.180320
 12
3.802040
 22
2.793120
 13
4.453240
 23
3.165800
  0
POLYLINE
  8
0
  6
CONTINUOUS
 66
     1
 40
0.000000
 41
0.000000
  0
VERTEX
  8
0
  6
CONTINUOUS
 10
3.781800
 20
2.807640
  0
VERTEX
  8
0
  6
CONTINUOUS
 10
4.433000
 20
3.180320
  0
VERTEX
  8
0
  6
CONTINUOUS
 10
4.453240
 20
3.165800
  0
VERTEX
  8
0
  6
CONTINUOUS
 10
3.802040
 20
2.793120
  0
VERTEX
  8
0
  6
CONTINUOUS
 10
3.781800
 20
2.807640
  0
SEQEND
  8
0
  0
SOLID
  8
0
 62
    15
 10
3.802040
 20
2.793120
 11
4.453240
 21
3.165800
 12
3.817880
 22
2.775960
 13
4.469080
 23
3.148200
  0
POLYLINE
  8
0
  6
CONTINUOUS
 66
     1
 40
0.000000
 41
0.000000
  0
VERTEX
  8
0
  6
CONTINUOUS
 10
3.802040
 20
2.793120
  0
VERTEX
  8
0
  6
CONTINUOUS
 10
4.453240
 20
3.165800
  0
VERTEX
  8
0
  6
CONTINUOUS
 10
4.469080
 20
3.148200
  0
VERTEX
  8
0
  6
CONTINUOUS
 10
3.817880
 20
2.775960
  0
VERTEX
  8
0
  6
CONTINUOUS
 10
3.802040
 20
2.793120
  0
SEQEND
  8
0
  0
SOLID
  8
0
 62
    15
 10
3.817880
 20
2.775960
 11
4.469080
 21
3.148200
 12
3.830200
 22
2.756160
 13
4.480960
 23
3.128840
  0
POLYLINE
  8
0
  6
CONTINUOUS
 66
     1
 40
0.000000
 41
0.000000
  0
VERTEX
  8
0
  6
CONTINUOUS
 10
3.817880
 20
2.775960
  0
VERTEX
  8
0
  6
CONTINUOUS
 10
4.469080
 20
3.148200
  0
VERTEX
  8
0
  6
CONTINUOUS
 10
4.480960
 20
3.128840
  0
VERTEX
  8
0
  6
CONTINUOUS
 10
3.830200
 20
2.756160
  0
VERTEX
  8
0
  6
CONTINUOUS
 10
3.817880
 20
2.775960
  0
SEQEND
  8
0
  0
SOLID
  8
0
 62
    15
 10
3.321560
 20
3.083080
 11
3.972320
 21
3.455320
 12
3.504160
 22
3.083080
 13
4.155360
 23
3.455320
  0
POLYLINE
  8
0
  6
CONTINUOUS
 66
     1
 40
0.000000
 41
0.000000
  0
VERTEX
  8
0
  6
CONTINUOUS
 10
3.321560
 20
3.083080
  0
VERTEX
  8
0
  6
CONTINUOUS
 10
3.972320
 20
3.455320
  0
VERTEX
  8
0
  6
CONTINUOUS
 10
4.155360
 20
3.455320
  0
VERTEX
  8
0
  6
CONTINUOUS
 10
3.504160
 20
3.083080
  0
VERTEX
  8
0
  6
CONTINUOUS
 10
3.321560
 20
3.083080
  0
SEQEND
  8
0
  0
SOLID
  8
0
 62
    15
 10
3.842520
 20
2.712600
 11
4.493720
 21
3.084840
 12
3.840760
 22
2.666400
 13
4.491960
 23
3.039080
  0
POLYLINE
  8
0
  6
CONTINUOUS
 66
     1
 40
0.000000
 41
0.000000
  0
VERTEX
  8
0
  6
CONTINUOUS
 10
3.842520
 20
2.712600
  0
VERTEX
  8
0
  6
CONTINUOUS
 10
4.493720
 20
3.084840
  0
VERTEX
  8
0
  6
CONTINUOUS
 10
4.491960
 20
3.039080
  0
VERTEX
  8
0
  6
CONTINUOUS
 10
3.840760
 20
2.666400
  0
VERTEX
  8
0
  6
CONTINUOUS
 10
3.842520
 20
2.712600
  0
SEQEND
  8
0
  0
SOLID
  8
0
 62
    15
 10
3.840760
 20
2.666400
 11
4.491960
 21
3.039080
 12
3.825800
 22
2.622840
 13
4.477000
 23
2.995520
  0
POLYLINE
  8
0
  6
CONTINUOUS
 66
     1
 40
0.000000
 41
0.000000
  0
VERTEX
  8
0
  6
CONTINUOUS
 10
3.840760
 20
2.666400
  0
VERTEX
  8
0
  6
CONTINUOUS
 10
4.491960
 20
3.039080
  0
VERTEX
  8
0
  6
CONTINUOUS
 10
4.477000
 20
2.995520
  0
VERTEX
  8
0
  6
CONTINUOUS
 10
3.825800
 20
2.622840
  0
VERTEX
  8
0
  6
CONTINUOUS
 10
3.840760
 20
2.666400
  0
SEQEND
  8
0
  0
SOLID
  8
0
 62
    15
 10
3.825800
 20
2.622840
 11
4.477000
 21
2.995520
 12
3.798960
 22
2.586320
 13
4.450160
 23
2.959000
  0
POLYLINE
  8
0
  6
CONTINUOUS
 66
     1
 40
0.000000
 41
0.000000
  0
VERTEX
  8
0
  6
CONTINUOUS
 10
3.825800
 20
2.622840
  0
VERTEX
  8
0
  6
CONTINUOUS
 10
4.477000
 20
2.995520
  0
VERTEX
  8
0
  6
CONTINUOUS
 10
4.450160
 20
2.959000
  0
VERTEX
  8
0
  6
CONTINUOUS
 10
3.798960
 20
2.586320
  0
VERTEX
  8
0
  6
CONTINUOUS
 10
3.825800
 20
2.622840
  0
SEQEND
  8
0
  0
SOLID
  8
0
 62
    15
 10
3.761560
 20
2.561680
 11
4.412320
 21
2.933920
 12
3.761560
 22
2.544080
 13
4.412320
 23
2.916760
  0
POLYLINE
  8
0
  6
CONTINUOUS
 66
     1
 40
0.000000
 41
0.000000
  0
VERTEX
  8
0
  6
CONTINUOUS
 10
3.761560
 20
2.561680
  0
VERTEX
  8
0
  6
CONTINUOUS
 10
4.412320
 20
2.933920
  0
VERTEX
  8
0
  6
CONTINUOUS
 10
4.412320
 20
2.916760
  0
VERTEX
  8
0
  6
CONTINUOUS
 10
3.761560
 20
2.544080
  0
VERTEX
  8
0
  6
CONTINUOUS
 10
3.761560
 20
2.561680
  0
SEQEND
  8
0
  0
SOLID
  8
0
 62
    15
 10
3.798960
 20
2.586320
 11
4.450160
 21
2.959000
 12
3.781360
 22
2.572240
 13
4.432560
 23
2.944920
  0
POLYLINE
  8
0
  6
CONTINUOUS
 66
     1
 40
0.000000
 41
0.000000
  0
VERTEX
  8
0
  6
CONTINUOUS
 10
3.798960
 20
2.586320
  0
VERTEX
  8
0
  6
CONTINUOUS
 10
4.450160
 20
2.959000
  0
VERTEX
  8
0
  6
CONTINUOUS
 10
4.432560
 20
2.944920
  0
VERTEX
  8
0
  6
CONTINUOUS
 10
3.781360
 20
2.572240
  0
VERTEX
  8
0
  6
CONTINUOUS
 10
3.798960
 20
2.586320
  0
SEQEND
  8
0
  0
SOLID
  8
0
 62
    15
 10
3.761560
 20
2.544080
 11
4.412320
 21
2.916760
 12
4.074840
 22
2.080320
 13
4.726040
 23
2.453000
  0
POLYLINE
  8
0
  6
CONTINUOUS
 66
     1
 40
0.000000
 41
0.000000
  0
VERTEX
  8
0
  6
CONTINUOUS
 10
3.761560
 20
2.544080
  0
VERTEX
  8
0
  6
CONTINUOUS
 10
4.412320
 20
2.916760
  0
VERTEX
  8
0
  6
CONTINUOUS
 10
4.726040
 20
2.453000
  0
VERTEX
  8
0
  6
CONTINUOUS
 10
4.074840
 20
2.080320
  0
VERTEX
  8
0
  6
CONTINUOUS
 10
3.761560
 20
2.544080
  0
SEQEND
  8
0
  0
SOLID
  8
0
 62
    15
 10
4.074840
 20
2.080320
 11
4.726040
 21
2.453000
 12
4.182640
 22
2.080320
 13
4.833840
 23
2.453000
  0
POLYLINE
  8
0
  6
CONTINUOUS
 66
     1
 40
0.000000
 41
0.000000
  0
VERTEX
  8
0
  6
CONTINUOUS
 10
4.074840
 20
2.080320
  0
VERTEX
  8
0
  6
CONTINUOUS
 10
4.726040
 20
2.453000
  0
VERTEX
  8
0
  6
CONTINUOUS
 10
4.833840
 20
2.453000
  0
VERTEX
  8
0
  6
CONTINUOUS
 10
4.182640
 20
2.080320
  0
VERTEX
  8
0
  6
CONTINUOUS
 10
4.074840
 20
2.080320
  0
SEQEND
  8
0
  0
SOLID
  8
0
 62
    15
 10
4.141280
 20
1.553640
 11
4.792040
 21
1.926320
 12
4.103880
 22
1.529440
 13
4.755080
 23
1.901680
  0
POLYLINE
  8
0
  6
CONTINUOUS
 66
     1
 40
0.000000
 41
0.000000
  0
VERTEX
  8
0
  6
CONTINUOUS
 10
4.141280
 20
1.553640
  0
VERTEX
  8
0
  6
CONTINUOUS
 10
4.792040
 20
1.926320
  0
VERTEX
  8
0
  6
CONTINUOUS
 10
4.755080
 20
1.901680
  0
VERTEX
  8
0
  6
CONTINUOUS
 10
4.103880
 20
1.529440
  0
VERTEX
  8
0
  6
CONTINUOUS
 10
4.141280
 20
1.553640
  0
SEQEND
  8
0
  0
SOLID
  8
0
 62
    15
 10
4.103880
 20
1.529440
 11
4.755080
 21
1.901680
 12
4.070000
 22
1.495560
 13
4.721200
 23
1.868240
  0
POLYLINE
  8
0
  6
CONTINUOUS
 66
     1
 40
0.000000
 41
0.000000
  0
VERTEX
  8
0
  6
CONTINUOUS
 10
4.103880
 20
1.529440
  0
VERTEX
  8
0
  6
CONTINUOUS
 10
4.755080
 20
1.901680
  0
VERTEX
  8
0
  6
CONTINUOUS
 10
4.721200
 20
1.868240
  0
VERTEX
  8
0
  6
CONTINUOUS
 10
4.070000
 20
1.495560
  0
VERTEX
  8
0
  6
CONTINUOUS
 10
4.103880
 20
1.529440
  0
SEQEND
  8
0
  0
SOLID
  8
0
 62
    15
 10
4.182640
 20
2.080320
 11
4.833840
 21
2.453000
 12
4.182640
 22
1.570800
 13
4.833840
 23
1.943480
  0
POLYLINE
  8
0
  6
CONTINUOUS
 66
     1
 40
0.000000
 41
0.000000
  0
VERTEX
  8
0
  6
CONTINUOUS
 10
4.182640
 20
2.080320
  0
VERTEX
  8
0
  6
CONTINUOUS
 10
4.833840
 20
2.453000
  0
VERTEX
  8
0
  6
CONTINUOUS
 10
4.833840
 20
1.943480
  0
VERTEX
  8
0
  6
CONTINUOUS
 10
4.182640
 20
1.570800
  0
VERTEX
  8
0
  6
CONTINUOUS
 10
4.182640
 20
2.080320
  0
SEQEND
  8
0
  0
SOLID
  8
0
 62
    15
 10
4.182640
 20
1.570800
 11
4.833840
 21
1.943480
 12
4.180000
 22
1.568160
 13
4.831200
 23
1.940840
  0
POLYLINE
  8
0
  6
CONTINUOUS
 66
     1
 40
0.000000
 41
0.000000
  0
VERTEX
  8
0
  6
CONTINUOUS
 10
4.182640
 20
1.570800
  0
VERTEX
  8
0
  6
CONTINUOUS
 10
4.833840
 20
1.943480
  0
VERTEX
  8
0
  6
CONTINUOUS
 10
4.831200
 20
1.940840
  0
VERTEX
  8
0
  6
CONTINUOUS
 10
4.180000
 20
1.568160
  0
VERTEX
  8
0
  6
CONTINUOUS
 10
4.182640
 20
1.570800
  0
SEQEND
  8
0
  0
SOLID
  8
0
 62
    15
 10
4.070000
 20
1.495560
 11
4.721200
 21
1.868240
 12
4.040520
 22
1.452880
 13
4.691280
 23
1.825560
  0
POLYLINE
  8
0
  6
CONTINUOUS
 66
     1
 40
0.000000
 41
0.000000
  0
VERTEX
  8
0
  6
CONTINUOUS
 10
4.070000
 20
1.495560
  0
VERTEX
  8
0
  6
CONTINUOUS
 10
4.721200
 20
1.868240
  0
VERTEX
  8
0
  6
CONTINUOUS
 10
4.691280
 20
1.825560
  0
VERTEX
  8
0
  6
CONTINUOUS
 10
4.040520
 20
1.452880
  0
VERTEX
  8
0
  6
CONTINUOUS
 10
4.070000
 20
1.495560
  0
SEQEND
  8
0
  0
SOLID
  8
0
 62
    15
 10
4.040520
 20
1.452880
 11
4.691280
 21
1.825560
 12
4.016320
 22
1.403160
 13
4.667520
 23
1.775400
  0
POLYLINE
  8
0
  6
CONTINUOUS
 66
     1
 40
0.000000
 41
0.000000
  0
VERTEX
  8
0
  6
CONTINUOUS
 10
4.040520
 20
1.452880
  0
VERTEX
  8
0
  6
CONTINUOUS
 10
4.691280
 20
1.825560
  0
VERTEX
  8
0
  6
CONTINUOUS
 10
4.667520
 20
1.775400
  0
VERTEX
  8
0
  6
CONTINUOUS
 10
4.016320
 20
1.403160
  0
VERTEX
  8
0
  6
CONTINUOUS
 10
4.040520
 20
1.452880
  0
SEQEND
  8
0
  0
SOLID
  8
0
 62
    15
 10
4.016320
 20
1.403160
 11
4.667520
 21
1.775400
 12
3.999160
 22
1.345960
 13
4.650360
 23
1.718640
  0
POLYLINE
  8
0
  6
CONTINUOUS
 66
     1
 40
0.000000
 41
0.000000
  0
VERTEX
  8
0
  6
CONTINUOUS
 10
4.016320
 20
1.403160
  0
VERTEX
  8
0
  6
CONTINUOUS
 10
4.667520
 20
1.775400
  0
VERTEX
  8
0
  6
CONTINUOUS
 10
4.650360
 20
1.718640
  0
VERTEX
  8
0
  6
CONTINUOUS
 10
3.999160
 20
1.345960
  0
VERTEX
  8
0
  6
CONTINUOUS
 10
4.016320
 20
1.403160
  0
SEQEND
  8
0
  0
SOLID
  8
0
 62
    15
 10
3.999160
 20
1.345960
 11
4.650360
 21
1.718640
 12
3.990360
 22
1.283040
 13
4.641560
 23
1.655720
  0
POLYLINE
  8
0
  6
CONTINUOUS
 66
     1
 40
0.000000
 41
0.000000
  0
VERTEX
  8
0
  6
CONTINUOUS
 10
3.999160
 20
1.345960
  0
VERTEX
  8
0
  6
CONTINUOUS
 10
4.650360
 20
1.718640
  0
VERTEX
  8
0
  6
CONTINUOUS
 10
4.641560
 20
1.655720
  0
VERTEX
  8
0
  6
CONTINUOUS
 10
3.990360
 20
1.283040
  0
VERTEX
  8
0
  6
CONTINUOUS
 10
3.999160
 20
1.345960
  0
SEQEND
  8
0
  0
SOLID
  8
0
 62
    15
 10
3.990360
 20
1.283040
 11
4.641560
 21
1.655720
 12
3.990800
 22
1.214840
 13
4.642000
 23
1.587520
  0
POLYLINE
  8
0
  6
CONTINUOUS
 66
     1
 40
0.000000
 41
0.000000
  0
VERTEX
  8
0
  6
CONTINUOUS
 10
3.990360
 20
1.283040
  0
VERTEX
  8
0
  6
CONTINUOUS
 10
4.641560
 20
1.655720
  0
VERTEX
  8
0
  6
CONTINUOUS
 10
4.642000
 20
1.587520
  0
VERTEX
  8
0
  6
CONTINUOUS
 10
3.990800
 20
1.214840
  0
VERTEX
  8
0
  6
CONTINUOUS
 10
3.990360
 20
1.283040
  0
SEQEND
  8
0
  0
SOLID
  8
0
 62
    15
 10
3.990800
 20
1.214840
 11
4.642000
 21
1.587520
 12
3.990800
 22
1.210880
 13
4.642000
 23
1.583560
  0
POLYLINE
  8
0
  6
CONTINUOUS
 66
     1
 40
0.000000
 41
0.000000
  0
VERTEX
  8
0
  6
CONTINUOUS
 10
3.990800
 20
1.214840
  0
VERTEX
  8
0
  6
CONTINUOUS
 10
4.642000
 20
1.587520
  0
VERTEX
  8
0
  6
CONTINUOUS
 10
4.642000
 20
1.583560
  0
VERTEX
  8
0
  6
CONTINUOUS
 10
3.990800
 20
1.210880
  0
VERTEX
  8
0
  6
CONTINUOUS
 10
3.990800
 20
1.214840
  0
SEQEND
  8
0
  0
POLYLINE
  8
0
  6
CONTINUOUS
 66
     1
 40
0.000000
 41
0.000000
  0
VERTEX
  8
0
  6
CONTINUOUS
 10
3.990800
 20
1.210880
  0
VERTEX
  8
0
  6
CONTINUOUS
 10
3.814800
 20
1.210880
  0
VERTEX
  8
0
  6
CONTINUOUS
 10
3.814800
 20
1.346840
  0
VERTEX
  8
0
  6
CONTINUOUS
 10
3.321560
 20
1.346840
  0
VERTEX
  8
0
  6
CONTINUOUS
 10
3.321560
 20
3.083080
  0
VERTEX
  8
0
  6
CONTINUOUS
 10
3.504160
 20
3.083080
  0
VERTEX
  8
0
  6
CONTINUOUS
 10
3.509000
 20
3.050960
  0
VERTEX
  8
0
  6
CONTINUOUS
 10
3.523520
 20
3.020160
  0
VERTEX
  8
0
  6
CONTINUOUS
 10
3.544640
 20
2.992000
  0
VERTEX
  8
0
  6
CONTINUOUS
 10
3.571040
 20
2.966920
  0
VERTEX
  8
0
  6
CONTINUOUS
 10
3.600960
 20
2.946680
  0
VERTEX
  8
0
  6
CONTINUOUS
 10
3.632200
 20
2.931280
  0
VERTEX
  8
0
  6
CONTINUOUS
 10
3.663440
 20
2.922040
  0
VERTEX
  8
0
  6
CONTINUOUS
 10
3.692040
 20
2.920280
  0
VERTEX
  8
0
  6
CONTINUOUS
 10
3.692040
 20
2.828320
  0
VERTEX
  8
0
  6
CONTINUOUS
 10
3.694680
 20
2.828320
  0
VERTEX
  8
0
  6
CONTINUOUS
 10
3.728560
 20
2.825680
  0
VERTEX
  8
0
  6
CONTINUOUS
 10
3.757160
 20
2.818640
  0
VERTEX
  8
0
  6
CONTINUOUS
 10
3.781800
 20
2.807640
  0
VERTEX
  8
0
  6
CONTINUOUS
 10
3.802040
 20
2.793120
  0
VERTEX
  8
0
  6
CONTINUOUS
 10
3.817880
 20
2.775960
  0
VERTEX
  8
0
  6
CONTINUOUS
 10
3.830200
 20
2.756160
  0
VERTEX
  8
0
  6
CONTINUOUS
 10
3.842520
 20
2.712600
  0
VERTEX
  8
0
  6
CONTINUOUS
 10
3.840760
 20
2.666400
  0
VERTEX
  8
0
  6
CONTINUOUS
 10
3.825800
 20
2.622840
  0
VERTEX
  8
0
  6
CONTINUOUS
 10
3.798960
 20
2.586320
  0
VERTEX
  8
0
  6
CONTINUOUS
 10
3.781360
 20
2.572240
  0
VERTEX
  8
0
  6
CONTINUOUS
 10
3.761560
 20
2.561680
  0
VERTEX
  8
0
  6
CONTINUOUS
 10
3.761560
 20
2.544080
  0
VERTEX
  8
0
  6
CONTINUOUS
 10
4.074840
 20
2.080320
  0
VERTEX
  8
0
  6
CONTINUOUS
 10
4.182640
 20
2.080320
  0
VERTEX
  8
0
  6
CONTINUOUS
 10
4.182640
 20
1.570800
  0
VERTEX
  8
0
  6
CONTINUOUS
 10
4.180000
 20
1.568160
  0
VERTEX
  8
0
  6
CONTINUOUS
 10
4.141280
 20
1.553640
  0
VERTEX
  8
0
  6
CONTINUOUS
 10
4.103880
 20
1.529440
  0
VERTEX
  8
0
  6
CONTINUOUS
 10
4.070000
 20
1.495560
  0
VERTEX
  8
0
  6
CONTINUOUS
 10
4.040520
 20
1.452880
  0
VERTEX
  8
0
  6
CONTINUOUS
 10
4.016320
 20
1.403160
  0
VERTEX
  8
0
  6
CONTINUOUS
 10
3.999160
 20
1.345960
  0
VERTEX
  8
0
  6
CONTINUOUS
 10
3.990360
 20
1.283040
  0
VERTEX
  8
0
  6
CONTINUOUS
 10
3.990800
 20
1.214840
  0
VERTEX
  8
0
  6
CONTINUOUS
 10
3.990800
 20
1.210880
  0
SEQEND
  8
0
  0
TEXT
  8
0
 10
3.781800
 20
0.959640
 40
0.138047
  1
BA  162
 41
1.000000
  7
SN0
 71
     0
 72
     5
 11
4.371267
 21
0.959640
  0
TEXT
  8
0
 10
3.626040
 20
0.767800
 40
0.138047
  1
7/8" x 1-7/8"
 41
1.000000
  7
SN0
 71
     0
 72
     5
 11
4.525227
 21
0.767800
  0
ENDSEC
  0
EOF
