  0
SECTION
  2
HEADER
  9
$ACADVER
  1
AC1006
  9
$EXTMIN
 10
3.934920
 20
0.320320
  9
$EXTMAX
 10
8.138240
 20
1.749880
  9
$LTSCALE
 40
0.044000
  9
$PDMODE
 70
    35
  9
$PDSIZE
 40
0.035200
  0
ENDSEC
  0
SECTION
  2
TABLES
  0
TABLE
  2
LTYPE
 70
     9
  0
LTYPE
  2
CONTINUOUS
 70
    64
  3
Solid line
 72
    65
 73
     0
 40
0.000000
  0
LTYPE
  2
DASHED
 70
    64
  3
__ __ __ __ __ __ __ __ __ __ __ __ __ __ __
 72
    65
 73
     2
 40
0.000330
 49
0.000220
 49
-0.000110
  0
LTYPE
  2
HIDDEN
 70
    64
  3
 _ _ _ _ _ _ _ _ _ _ _ _ _ _ _ _ _ _ _ _ _ _
 72
    65
 73
     2
 40
0.000165
 49
0.000110
 49
-0.000055
  0
LTYPE
  2
CENTER
 70
    64
  3
____ _ ____ _ ____ _ ____ _ ____ _ ____ _ ____
 72
    65
 73
     4
 40
0.000880
 49
0.000550
 49
-0.000110
 49
0.000110
 49
-0.000110
  0
LTYPE
  2
PHANTOM
 70
    64
  3
_____ _ _ _____ _ _ _____ _ _ _____ _ _ ____
 72
    65
 73
     6
 40
0.001100
 49
0.000550
 49
-0.000110
 49
0.000110
 49
-0.000110
 49
0.000110
 49
-0.000110
  0
LTYPE
  2
DOT
 70
    64
  3
...............................................
 72
    65
 73
     2
 40
0.000110
 49
0.000000
 49
-0.000110
  0
LTYPE
  2
DASHDOT
 70
    64
  3
__ . __ . __ . __ . __ . __ . __ . __ . __ . __
 72
    65
 73
     4
 40
0.000440
 49
0.000220
 49
-0.000110
 49
0.000000
 49
-0.000110
  0
LTYPE
  2
BORDER
 70
    64
  3
__ __ . __ __ . __ __ . __ __ . __ __ . __ __
 72
    65
 73
     6
 40
0.000770
 49
0.000220
 49
-0.000110
 49
0.000220
 49
-0.000110
 49
0.000000
 49
-0.000110
  0
LTYPE
  2
DIVIDE
 70
    64
  3
__ . . __ . . __ . . __ . . __ . . __ . . __
 72
    65
 73
     6
 40
0.000550
 49
0.000220
 49
-0.000110
 49
0.000000
 49
-0.000110
 49
0.000000
 49
-0.000110
  0
LTYPE
  2
DOTDOT
 70
    64
  3
 . .  . .  . .  . .  . .  . . 
 72
    65
 73
     5
 40
0.000242
 49
-0.000110
 49
0.000000
 49
-0.000110
 49
0.000000
 49
-0.000110
  0
ENDTAB
  0
TABLE
  2
STYLE
 70
     2
  0
STYLE
 70
     0
  2
SN0
 40
0.000000
 41
0.000440
 50
0.000000
 71
     0
 42
0.000000
  3
ROMAND
  0
STYLE
 70
    68
  2
SV0
 40
0.000000
 41
0.000440
 50
0.000000
 71
     0
 42
0.000000
  3
ROMAND
  0
ENDTAB
  0
TABLE
  2
LAYER
 70
     3
  0
LAYER
  2
FOREGROUND
 70
    64
 62
     7
  6
CONTINUOUS
  0
LAYER
  2
BACKGROUND
 70
    65
 62
    -7
  6
CONTINUOUS
  0
LAYER
  2
0
 70
    64
 62
     7
  6
CONTINUOUS
  0
ENDTAB
  0
ENDSEC
  0
SECTION
  2
ENTITIES
  0
POLYLINE
  8
FOREGROUND
  6
CONTINUOUS
 66
     1
 40
0.000000
 41
0.000000
  0
VERTEX
  8
FOREGROUND
  6
CONTINUOUS
 10
0.000000
 20
2.070200
  0
VERTEX
  8
FOREGROUND
  6
CONTINUOUS
 10
8.499920
 20
2.070200
  0
VERTEX
  8
FOREGROUND
  6
CONTINUOUS
 10
8.499920
 20
-8.929800
  0
VERTEX
  8
FOREGROUND
  6
CONTINUOUS
 10
0.000000
 20
-8.929800
  0
VERTEX
  8
FOREGROUND
  6
CONTINUOUS
 10
0.000000
 20
2.070200
  0
SEQEND
  8
0
  0
POLYLINE
  8
FOREGROUND
  6
CONTINUOUS
 66
     1
 40
0.000000
 41
0.000000
  0
VERTEX
  8
FOREGROUND
  6
CONTINUOUS
 10
0.000000
 20
2.070200
  0
VERTEX
  8
FOREGROUND
  6
CONTINUOUS
 10
8.499920
 20
2.070200
  0
VERTEX
  8
FOREGROUND
  6
CONTINUOUS
 10
8.499920
 20
-8.929800
  0
VERTEX
  8
FOREGROUND
  6
CONTINUOUS
 10
0.000000
 20
-8.929800
  0
VERTEX
  8
FOREGROUND
  6
CONTINUOUS
 10
0.000000
 20
2.070200
  0
SEQEND
  8
0
  0
POLYLINE
  8
0
  6
CONTINUOUS
 66
     1
 40
0.014080
 41
0.014080
  0
VERTEX
  8
0
  6
CONTINUOUS
 10
5.883240
 20
1.496880
  0
VERTEX
  8
0
  6
CONTINUOUS
 10
5.908760
 20
1.496440
  0
VERTEX
  8
0
  6
CONTINUOUS
 10
5.934280
 20
1.494240
  0
VERTEX
  8
0
  6
CONTINUOUS
 10
5.959360
 20
1.491160
  0
VERTEX
  8
0
  6
CONTINUOUS
 10
5.984000
 20
1.486760
  0
VERTEX
  8
0
  6
CONTINUOUS
 10
6.007760
 20
1.481040
  0
VERTEX
  8
0
  6
CONTINUOUS
 10
6.031520
 20
1.474440
  0
VERTEX
  8
0
  6
CONTINUOUS
 10
6.054840
 20
1.466520
  0
VERTEX
  8
0
  6
CONTINUOUS
 10
6.077280
 20
1.457280
  0
VERTEX
  8
0
  6
CONTINUOUS
 10
6.099280
 20
1.447160
  0
VERTEX
  8
0
  6
CONTINUOUS
 10
6.120840
 20
1.436160
  0
VERTEX
  8
0
  6
CONTINUOUS
 10
6.141520
 20
1.424280
  0
VERTEX
  8
0
  6
CONTINUOUS
 10
6.161760
 20
1.411080
  0
VERTEX
  8
0
  6
CONTINUOUS
 10
6.181120
 20
1.397000
  0
VERTEX
  8
0
  6
CONTINUOUS
 10
6.200040
 20
1.382040
  0
VERTEX
  8
0
  6
CONTINUOUS
 10
6.218080
 20
1.366200
  0
VERTEX
  8
0
  6
CONTINUOUS
 10
6.235240
 20
1.349920
  0
VERTEX
  8
0
  6
CONTINUOUS
 10
6.251520
 20
1.332320
  0
VERTEX
  8
0
  6
CONTINUOUS
 10
6.267360
 20
1.314280
  0
VERTEX
  8
0
  6
CONTINUOUS
 10
6.281880
 20
1.295360
  0
VERTEX
  8
0
  6
CONTINUOUS
 10
6.295960
 20
1.275560
  0
VERTEX
  8
0
  6
CONTINUOUS
 10
6.308720
 20
1.255320
  0
VERTEX
  8
0
  6
CONTINUOUS
 10
6.320600
 20
1.234200
  0
VERTEX
  8
0
  6
CONTINUOUS
 10
6.331600
 20
1.212640
  0
VERTEX
  8
0
  6
CONTINUOUS
 10
6.341720
 20
1.190200
  0
VERTEX
  8
0
  6
CONTINUOUS
 10
6.350520
 20
1.167760
  0
VERTEX
  8
0
  6
CONTINUOUS
 10
6.358000
 20
1.144440
  0
VERTEX
  8
0
  6
CONTINUOUS
 10
6.365040
 20
1.120680
  0
VERTEX
  8
0
  6
CONTINUOUS
 10
6.370320
 20
1.096480
  0
VERTEX
  8
0
  6
CONTINUOUS
 10
6.374720
 20
1.071840
  0
VERTEX
  8
0
  6
CONTINUOUS
 10
6.377800
 20
1.046760
  0
VERTEX
  8
0
  6
CONTINUOUS
 10
6.380000
 20
1.021240
  0
VERTEX
  8
0
  6
CONTINUOUS
 10
6.380440
 20
0.995720
  0
VERTEX
  8
0
  6
CONTINUOUS
 10
6.380440
 20
0.994400
  0
VERTEX
  8
0
  6
CONTINUOUS
 10
5.880600
 20
0.994400
  0
VERTEX
  8
0
  6
CONTINUOUS
 10
5.880600
 20
1.496880
  0
VERTEX
  8
0
  6
CONTINUOUS
 10
5.883240
 20
1.496880
  0
SEQEND
  8
0
  0
SOLID
  8
0
 62
     7
 10
4.322560
 20
1.067880
 11
4.975080
 21
1.442760
 12
4.351160
 22
1.029160
 13
5.003680
 23
1.404040
  0
POLYLINE
  8
0
  6
CONTINUOUS
 66
     1
 40
0.000000
 41
0.000000
  0
VERTEX
  8
0
  6
CONTINUOUS
 10
4.322560
 20
1.067880
  0
VERTEX
  8
0
  6
CONTINUOUS
 10
4.975080
 20
1.442760
  0
VERTEX
  8
0
  6
CONTINUOUS
 10
5.003680
 20
1.404040
  0
VERTEX
  8
0
  6
CONTINUOUS
 10
4.351160
 20
1.029160
  0
VERTEX
  8
0
  6
CONTINUOUS
 10
4.322560
 20
1.067880
  0
SEQEND
  8
0
  0
SOLID
  8
0
 62
    15
 10
3.989480
 20
1.247840
 11
4.642000
 21
1.622720
 12
4.038760
 22
1.240360
 13
4.691280
 23
1.615240
  0
POLYLINE
  8
0
  6
CONTINUOUS
 66
     1
 40
0.000000
 41
0.000000
  0
VERTEX
  8
0
  6
CONTINUOUS
 10
3.989480
 20
1.247840
  0
VERTEX
  8
0
  6
CONTINUOUS
 10
4.642000
 20
1.622720
  0
VERTEX
  8
0
  6
CONTINUOUS
 10
4.691280
 20
1.615240
  0
VERTEX
  8
0
  6
CONTINUOUS
 10
4.038760
 20
1.240360
  0
VERTEX
  8
0
  6
CONTINUOUS
 10
3.989480
 20
1.247840
  0
SEQEND
  8
0
  0
SOLID
  8
0
 62
    15
 10
4.038760
 20
1.240360
 11
4.691280
 21
1.615240
 12
4.086720
 22
1.228040
 13
4.739240
 23
1.602920
  0
POLYLINE
  8
0
  6
CONTINUOUS
 66
     1
 40
0.000000
 41
0.000000
  0
VERTEX
  8
0
  6
CONTINUOUS
 10
4.038760
 20
1.240360
  0
VERTEX
  8
0
  6
CONTINUOUS
 10
4.691280
 20
1.615240
  0
VERTEX
  8
0
  6
CONTINUOUS
 10
4.739240
 20
1.602920
  0
VERTEX
  8
0
  6
CONTINUOUS
 10
4.086720
 20
1.228040
  0
VERTEX
  8
0
  6
CONTINUOUS
 10
4.038760
 20
1.240360
  0
SEQEND
  8
0
  0
SOLID
  8
0
 62
    15
 10
4.086720
 20
1.228040
 11
4.739240
 21
1.602920
 12
4.132480
 22
1.211320
 13
4.785000
 23
1.585760
  0
POLYLINE
  8
0
  6
CONTINUOUS
 66
     1
 40
0.000000
 41
0.000000
  0
VERTEX
  8
0
  6
CONTINUOUS
 10
4.086720
 20
1.228040
  0
VERTEX
  8
0
  6
CONTINUOUS
 10
4.739240
 20
1.602920
  0
VERTEX
  8
0
  6
CONTINUOUS
 10
4.785000
 20
1.585760
  0
VERTEX
  8
0
  6
CONTINUOUS
 10
4.132480
 20
1.211320
  0
VERTEX
  8
0
  6
CONTINUOUS
 10
4.086720
 20
1.228040
  0
SEQEND
  8
0
  0
SOLID
  8
0
 62
    15
 10
4.132480
 20
1.211320
 11
4.785000
 21
1.585760
 12
4.176040
 22
1.189760
 13
4.828560
 23
1.564640
  0
POLYLINE
  8
0
  6
CONTINUOUS
 66
     1
 40
0.000000
 41
0.000000
  0
VERTEX
  8
0
  6
CONTINUOUS
 10
4.132480
 20
1.211320
  0
VERTEX
  8
0
  6
CONTINUOUS
 10
4.785000
 20
1.585760
  0
VERTEX
  8
0
  6
CONTINUOUS
 10
4.828560
 20
1.564640
  0
VERTEX
  8
0
  6
CONTINUOUS
 10
4.176040
 20
1.189760
  0
VERTEX
  8
0
  6
CONTINUOUS
 10
4.132480
 20
1.211320
  0
SEQEND
  8
0
  0
SOLID
  8
0
 62
    15
 10
4.176040
 20
1.189760
 11
4.828560
 21
1.564640
 12
4.216960
 22
1.164680
 13
4.869480
 23
1.539560
  0
POLYLINE
  8
0
  6
CONTINUOUS
 66
     1
 40
0.000000
 41
0.000000
  0
VERTEX
  8
0
  6
CONTINUOUS
 10
4.176040
 20
1.189760
  0
VERTEX
  8
0
  6
CONTINUOUS
 10
4.828560
 20
1.564640
  0
VERTEX
  8
0
  6
CONTINUOUS
 10
4.869480
 20
1.539560
  0
VERTEX
  8
0
  6
CONTINUOUS
 10
4.216960
 20
1.164680
  0
VERTEX
  8
0
  6
CONTINUOUS
 10
4.176040
 20
1.189760
  0
SEQEND
  8
0
  0
SOLID
  8
0
 62
     7
 10
4.216960
 20
1.164680
 11
4.869480
 21
1.539560
 12
4.255240
 22
1.136080
 13
4.907760
 23
1.510520
  0
POLYLINE
  8
0
  6
CONTINUOUS
 66
     1
 40
0.000000
 41
0.000000
  0
VERTEX
  8
0
  6
CONTINUOUS
 10
4.216960
 20
1.164680
  0
VERTEX
  8
0
  6
CONTINUOUS
 10
4.869480
 20
1.539560
  0
VERTEX
  8
0
  6
CONTINUOUS
 10
4.907760
 20
1.510520
  0
VERTEX
  8
0
  6
CONTINUOUS
 10
4.255240
 20
1.136080
  0
VERTEX
  8
0
  6
CONTINUOUS
 10
4.216960
 20
1.164680
  0
SEQEND
  8
0
  0
SOLID
  8
0
 62
     7
 10
4.255240
 20
1.136080
 11
4.907760
 21
1.510520
 12
4.290440
 22
1.103520
 13
4.942960
 23
1.478400
  0
POLYLINE
  8
0
  6
CONTINUOUS
 66
     1
 40
0.000000
 41
0.000000
  0
VERTEX
  8
0
  6
CONTINUOUS
 10
4.255240
 20
1.136080
  0
VERTEX
  8
0
  6
CONTINUOUS
 10
4.907760
 20
1.510520
  0
VERTEX
  8
0
  6
CONTINUOUS
 10
4.942960
 20
1.478400
  0
VERTEX
  8
0
  6
CONTINUOUS
 10
4.290440
 20
1.103520
  0
VERTEX
  8
0
  6
CONTINUOUS
 10
4.255240
 20
1.136080
  0
SEQEND
  8
0
  0
SOLID
  8
0
 62
     7
 10
4.290440
 20
1.103520
 11
4.942960
 21
1.478400
 12
4.322560
 22
1.067880
 13
4.975080
 23
1.442760
  0
POLYLINE
  8
0
  6
CONTINUOUS
 66
     1
 40
0.000000
 41
0.000000
  0
VERTEX
  8
0
  6
CONTINUOUS
 10
4.290440
 20
1.103520
  0
VERTEX
  8
0
  6
CONTINUOUS
 10
4.942960
 20
1.478400
  0
VERTEX
  8
0
  6
CONTINUOUS
 10
4.975080
 20
1.442760
  0
VERTEX
  8
0
  6
CONTINUOUS
 10
4.322560
 20
1.067880
  0
VERTEX
  8
0
  6
CONTINUOUS
 10
4.290440
 20
1.103520
  0
SEQEND
  8
0
  0
SOLID
  8
0
 62
    15
 10
3.938440
 20
1.250480
 11
4.590960
 21
1.625360
 12
3.989480
 22
1.247840
 13
4.642000
 23
1.622720
  0
POLYLINE
  8
0
  6
CONTINUOUS
 66
     1
 40
0.000000
 41
0.000000
  0
VERTEX
  8
0
  6
CONTINUOUS
 10
3.938440
 20
1.250480
  0
VERTEX
  8
0
  6
CONTINUOUS
 10
4.590960
 20
1.625360
  0
VERTEX
  8
0
  6
CONTINUOUS
 10
4.642000
 20
1.622720
  0
VERTEX
  8
0
  6
CONTINUOUS
 10
3.989480
 20
1.247840
  0
VERTEX
  8
0
  6
CONTINUOUS
 10
3.938440
 20
1.250480
  0
SEQEND
  8
0
  0
SOLID
  8
0
 62
     7
 10
4.351160
 20
1.029160
 11
5.003680
 21
1.404040
 12
4.375800
 22
0.987800
 13
5.028320
 23
1.362680
  0
POLYLINE
  8
0
  6
CONTINUOUS
 66
     1
 40
0.000000
 41
0.000000
  0
VERTEX
  8
0
  6
CONTINUOUS
 10
4.351160
 20
1.029160
  0
VERTEX
  8
0
  6
CONTINUOUS
 10
5.003680
 20
1.404040
  0
VERTEX
  8
0
  6
CONTINUOUS
 10
5.028320
 20
1.362680
  0
VERTEX
  8
0
  6
CONTINUOUS
 10
4.375800
 20
0.987800
  0
VERTEX
  8
0
  6
CONTINUOUS
 10
4.351160
 20
1.029160
  0
SEQEND
  8
0
  0
SOLID
  8
0
 62
     7
 10
4.375800
 20
0.987800
 11
5.028320
 21
1.362680
 12
4.396920
 22
0.944240
 13
5.049440
 23
1.318680
  0
POLYLINE
  8
0
  6
CONTINUOUS
 66
     1
 40
0.000000
 41
0.000000
  0
VERTEX
  8
0
  6
CONTINUOUS
 10
4.375800
 20
0.987800
  0
VERTEX
  8
0
  6
CONTINUOUS
 10
5.028320
 20
1.362680
  0
VERTEX
  8
0
  6
CONTINUOUS
 10
5.049440
 20
1.318680
  0
VERTEX
  8
0
  6
CONTINUOUS
 10
4.396920
 20
0.944240
  0
VERTEX
  8
0
  6
CONTINUOUS
 10
4.375800
 20
0.987800
  0
SEQEND
  8
0
  0
SOLID
  8
0
 62
    15
 10
4.396920
 20
0.944240
 11
5.049440
 21
1.318680
 12
4.413640
 22
0.898040
 13
5.066160
 23
1.272920
  0
POLYLINE
  8
0
  6
CONTINUOUS
 66
     1
 40
0.000000
 41
0.000000
  0
VERTEX
  8
0
  6
CONTINUOUS
 10
4.396920
 20
0.944240
  0
VERTEX
  8
0
  6
CONTINUOUS
 10
5.049440
 20
1.318680
  0
VERTEX
  8
0
  6
CONTINUOUS
 10
5.066160
 20
1.272920
  0
VERTEX
  8
0
  6
CONTINUOUS
 10
4.413640
 20
0.898040
  0
VERTEX
  8
0
  6
CONTINUOUS
 10
4.396920
 20
0.944240
  0
SEQEND
  8
0
  0
SOLID
  8
0
 62
    15
 10
4.413640
 20
0.898040
 11
5.066160
 21
1.272920
 12
4.425520
 22
0.850080
 13
5.078040
 23
1.224960
  0
POLYLINE
  8
0
  6
CONTINUOUS
 66
     1
 40
0.000000
 41
0.000000
  0
VERTEX
  8
0
  6
CONTINUOUS
 10
4.413640
 20
0.898040
  0
VERTEX
  8
0
  6
CONTINUOUS
 10
5.066160
 20
1.272920
  0
VERTEX
  8
0
  6
CONTINUOUS
 10
5.078040
 20
1.224960
  0
VERTEX
  8
0
  6
CONTINUOUS
 10
4.425520
 20
0.850080
  0
VERTEX
  8
0
  6
CONTINUOUS
 10
4.413640
 20
0.898040
  0
SEQEND
  8
0
  0
SOLID
  8
0
 62
    15
 10
4.425520
 20
0.850080
 11
5.078040
 21
1.224960
 12
4.433000
 22
0.800360
 13
5.085520
 23
1.175240
  0
POLYLINE
  8
0
  6
CONTINUOUS
 66
     1
 40
0.000000
 41
0.000000
  0
VERTEX
  8
0
  6
CONTINUOUS
 10
4.425520
 20
0.850080
  0
VERTEX
  8
0
  6
CONTINUOUS
 10
5.078040
 20
1.224960
  0
VERTEX
  8
0
  6
CONTINUOUS
 10
5.085520
 20
1.175240
  0
VERTEX
  8
0
  6
CONTINUOUS
 10
4.433000
 20
0.800360
  0
VERTEX
  8
0
  6
CONTINUOUS
 10
4.425520
 20
0.850080
  0
SEQEND
  8
0
  0
SOLID
  8
0
 62
    15
 10
4.433000
 20
0.800360
 11
5.085520
 21
1.175240
 12
4.435640
 22
0.749320
 13
5.088160
 23
1.124200
  0
POLYLINE
  8
0
  6
CONTINUOUS
 66
     1
 40
0.000000
 41
0.000000
  0
VERTEX
  8
0
  6
CONTINUOUS
 10
4.433000
 20
0.800360
  0
VERTEX
  8
0
  6
CONTINUOUS
 10
5.085520
 20
1.175240
  0
VERTEX
  8
0
  6
CONTINUOUS
 10
5.088160
 20
1.124200
  0
VERTEX
  8
0
  6
CONTINUOUS
 10
4.435640
 20
0.749320
  0
VERTEX
  8
0
  6
CONTINUOUS
 10
4.433000
 20
0.800360
  0
SEQEND
  8
0
  0
SOLID
  8
0
 62
    15
 10
4.435640
 20
0.749320
 11
5.088160
 21
1.124200
 12
4.435640
 22
0.748000
 13
5.088160
 23
1.122880
  0
POLYLINE
  8
0
  6
CONTINUOUS
 66
     1
 40
0.000000
 41
0.000000
  0
VERTEX
  8
0
  6
CONTINUOUS
 10
4.435640
 20
0.749320
  0
VERTEX
  8
0
  6
CONTINUOUS
 10
5.088160
 20
1.124200
  0
VERTEX
  8
0
  6
CONTINUOUS
 10
5.088160
 20
1.122880
  0
VERTEX
  8
0
  6
CONTINUOUS
 10
4.435640
 20
0.748000
  0
VERTEX
  8
0
  6
CONTINUOUS
 10
4.435640
 20
0.749320
  0
SEQEND
  8
0
  0
SOLID
  8
0
 62
    15
 10
3.935800
 20
1.250480
 11
4.588320
 21
1.625360
 12
3.938440
 22
1.250480
 13
4.590960
 23
1.625360
  0
POLYLINE
  8
0
  6
CONTINUOUS
 66
     1
 40
0.000000
 41
0.000000
  0
VERTEX
  8
0
  6
CONTINUOUS
 10
3.935800
 20
1.250480
  0
VERTEX
  8
0
  6
CONTINUOUS
 10
4.588320
 20
1.625360
  0
VERTEX
  8
0
  6
CONTINUOUS
 10
4.590960
 20
1.625360
  0
VERTEX
  8
0
  6
CONTINUOUS
 10
3.938440
 20
1.250480
  0
VERTEX
  8
0
  6
CONTINUOUS
 10
3.935800
 20
1.250480
  0
SEQEND
  8
0
  0
POLYLINE
  8
0
  6
CONTINUOUS
 66
     1
 40
0.000000
 41
0.000000
  0
VERTEX
  8
0
  6
CONTINUOUS
 10
3.938440
 20
1.250480
  0
VERTEX
  8
0
  6
CONTINUOUS
 10
3.989480
 20
1.247840
  0
VERTEX
  8
0
  6
CONTINUOUS
 10
4.038760
 20
1.240360
  0
VERTEX
  8
0
  6
CONTINUOUS
 10
4.086720
 20
1.228040
  0
VERTEX
  8
0
  6
CONTINUOUS
 10
4.132480
 20
1.211320
  0
VERTEX
  8
0
  6
CONTINUOUS
 10
4.176040
 20
1.189760
  0
VERTEX
  8
0
  6
CONTINUOUS
 10
4.216960
 20
1.164680
  0
VERTEX
  8
0
  6
CONTINUOUS
 10
4.255240
 20
1.136080
  0
VERTEX
  8
0
  6
CONTINUOUS
 10
4.290440
 20
1.103520
  0
VERTEX
  8
0
  6
CONTINUOUS
 10
4.322560
 20
1.067880
  0
VERTEX
  8
0
  6
CONTINUOUS
 10
4.351160
 20
1.029160
  0
VERTEX
  8
0
  6
CONTINUOUS
 10
4.375800
 20
0.987800
  0
VERTEX
  8
0
  6
CONTINUOUS
 10
4.396920
 20
0.944240
  0
VERTEX
  8
0
  6
CONTINUOUS
 10
4.413640
 20
0.898040
  0
VERTEX
  8
0
  6
CONTINUOUS
 10
4.425520
 20
0.850080
  0
VERTEX
  8
0
  6
CONTINUOUS
 10
4.433000
 20
0.800360
  0
VERTEX
  8
0
  6
CONTINUOUS
 10
4.435640
 20
0.749320
  0
VERTEX
  8
0
  6
CONTINUOUS
 10
4.435640
 20
0.748000
  0
VERTEX
  8
0
  6
CONTINUOUS
 10
3.935800
 20
0.748000
  0
VERTEX
  8
0
  6
CONTINUOUS
 10
3.935800
 20
1.250480
  0
VERTEX
  8
0
  6
CONTINUOUS
 10
3.938440
 20
1.250480
  0
SEQEND
  8
0
  0
TEXT
  8
0
 10
4.215640
 20
0.555280
 40
0.138137
  1
BA  161
 41
1.000000
  7
SN0
 71
     0
 72
     5
 11
4.804945
 21
0.555280
  0
TEXT
  8
0
 10
4.366120
 20
0.363440
 40
0.138137
  1
1/2"
 41
1.000000
  7
SN0
 71
     0
 72
     5
 11
4.655098
 21
0.363440
  0
TEXT
  8
0
 10
7.621240
 20
1.598520
 40
0.138137
  1
1/4 rnd
 41
1.000000
  7
SN0
 71
     0
 72
     5
 11
8.136567
 21
1.598520
  0
TEXT
  8
0
 10
7.740920
 20
1.407120
 40
0.138137
  1
161
 41
1.000000
  7
SN0
 71
     0
 72
     5
 11
8.017498
 21
1.407120
  0
TEXT
  8
0
 10
7.908120
 20
1.094720
 40
0.138137
  1
B
 41
1.000000
  7
SN0
 71
     0
 72
     5
 11
8.019088
 21
1.094720
  0
ENDSEC
  0
EOF
