  0
SECTION
  2
HEADER
  9
$ACADVER
  1
AC1006
  9
$EXTMIN
 10
2.133120
 20
4.435200
  9
$EXTMAX
 10
6.366800
 20
6.564360
  9
$LTSCALE
 40
0.044000
  9
$PDMODE
 70
    35
  9
$PDSIZE
 40
0.035200
  0
ENDSEC
  0
SECTION
  2
TABLES
  0
TABLE
  2
LTYPE
 70
     9
  0
LTYPE
  2
CONTINUOUS
 70
    64
  3
Solid line
 72
    65
 73
     0
 40
0.000000
  0
LTYPE
  2
DASHED
 70
    64
  3
__ __ __ __ __ __ __ __ __ __ __ __ __ __ __
 72
    65
 73
     2
 40
0.000330
 49
0.000220
 49
-0.000110
  0
LTYPE
  2
HIDDEN
 70
    64
  3
 _ _ _ _ _ _ _ _ _ _ _ _ _ _ _ _ _ _ _ _ _ _
 72
    65
 73
     2
 40
0.000165
 49
0.000110
 49
-0.000055
  0
LTYPE
  2
CENTER
 70
    64
  3
____ _ ____ _ ____ _ ____ _ ____ _ ____ _ ____
 72
    65
 73
     4
 40
0.000880
 49
0.000550
 49
-0.000110
 49
0.000110
 49
-0.000110
  0
LTYPE
  2
PHANTOM
 70
    64
  3
_____ _ _ _____ _ _ _____ _ _ _____ _ _ ____
 72
    65
 73
     6
 40
0.001100
 49
0.000550
 49
-0.000110
 49
0.000110
 49
-0.000110
 49
0.000110
 49
-0.000110
  0
LTYPE
  2
DOT
 70
    64
  3
...............................................
 72
    65
 73
     2
 40
0.000110
 49
0.000000
 49
-0.000110
  0
LTYPE
  2
DASHDOT
 70
    64
  3
__ . __ . __ . __ . __ . __ . __ . __ . __ . __
 72
    65
 73
     4
 40
0.000440
 49
0.000220
 49
-0.000110
 49
0.000000
 49
-0.000110
  0
LTYPE
  2
BORDER
 70
    64
  3
__ __ . __ __ . __ __ . __ __ . __ __ . __ __
 72
    65
 73
     6
 40
0.000770
 49
0.000220
 49
-0.000110
 49
0.000220
 49
-0.000110
 49
0.000000
 49
-0.000110
  0
LTYPE
  2
DIVIDE
 70
    64
  3
__ . . __ . . __ . . __ . . __ . . __ . . __
 72
    65
 73
     6
 40
0.000550
 49
0.000220
 49
-0.000110
 49
0.000000
 49
-0.000110
 49
0.000000
 49
-0.000110
  0
LTYPE
  2
DOTDOT
 70
    64
  3
 . .  . .  . .  . .  . .  . . 
 72
    65
 73
     5
 40
0.000242
 49
-0.000110
 49
0.000000
 49
-0.000110
 49
0.000000
 49
-0.000110
  0
ENDTAB
  0
TABLE
  2
STYLE
 70
     2
  0
STYLE
 70
     0
  2
SN0
 40
0.000000
 41
0.000440
 50
0.000000
 71
     0
 42
0.000000
  3
ROMAND
  0
STYLE
 70
    68
  2
SV0
 40
0.000000
 41
0.000440
 50
0.000000
 71
     0
 42
0.000000
  3
ROMAND
  0
ENDTAB
  0
TABLE
  2
LAYER
 70
     3
  0
LAYER
  2
FOREGROUND
 70
    64
 62
     7
  6
CONTINUOUS
  0
LAYER
  2
BACKGROUND
 70
    65
 62
    -7
  6
CONTINUOUS
  0
LAYER
  2
0
 70
    64
 62
     7
  6
CONTINUOUS
  0
ENDTAB
  0
ENDSEC
  0
SECTION
  2
ENTITIES
  0
POLYLINE
  8
FOREGROUND
  6
CONTINUOUS
 66
     1
 40
0.000000
 41
0.000000
  0
VERTEX
  8
FOREGROUND
  6
CONTINUOUS
 10
0.000000
 20
10.999560
  0
VERTEX
  8
FOREGROUND
  6
CONTINUOUS
 10
8.499920
 20
10.999560
  0
VERTEX
  8
FOREGROUND
  6
CONTINUOUS
 10
8.499920
 20
-0.000440
  0
VERTEX
  8
FOREGROUND
  6
CONTINUOUS
 10
0.000000
 20
-0.000440
  0
VERTEX
  8
FOREGROUND
  6
CONTINUOUS
 10
0.000000
 20
10.999560
  0
SEQEND
  8
0
  0
POLYLINE
  8
FOREGROUND
  6
CONTINUOUS
 66
     1
 40
0.000000
 41
0.000000
  0
VERTEX
  8
FOREGROUND
  6
CONTINUOUS
 10
0.000000
 20
10.999560
  0
VERTEX
  8
FOREGROUND
  6
CONTINUOUS
 10
8.499920
 20
10.999560
  0
VERTEX
  8
FOREGROUND
  6
CONTINUOUS
 10
8.499920
 20
-0.000440
  0
VERTEX
  8
FOREGROUND
  6
CONTINUOUS
 10
0.000000
 20
-0.000440
  0
VERTEX
  8
FOREGROUND
  6
CONTINUOUS
 10
0.000000
 20
10.999560
  0
SEQEND
  8
0
  0
SOLID
  8
0
 62
    15
 10
2.544080
 20
5.274280
 11
3.176360
 21
5.631560
 12
2.518120
 22
5.209600
 13
3.150400
 23
5.566880
  0
POLYLINE
  8
0
  6
CONTINUOUS
 66
     1
 40
0.000000
 41
0.000000
  0
VERTEX
  8
0
  6
CONTINUOUS
 10
2.544080
 20
5.274280
  0
VERTEX
  8
0
  6
CONTINUOUS
 10
3.176360
 20
5.631560
  0
VERTEX
  8
0
  6
CONTINUOUS
 10
3.150400
 20
5.566880
  0
VERTEX
  8
0
  6
CONTINUOUS
 10
2.518120
 20
5.209600
  0
VERTEX
  8
0
  6
CONTINUOUS
 10
2.544080
 20
5.274280
  0
SEQEND
  8
0
  0
SOLID
  8
0
 62
    15
 10
2.801040
 20
5.588440
 11
3.433760
 21
5.945720
 12
2.746040
 22
5.545320
 13
3.378760
 23
5.902600
  0
POLYLINE
  8
0
  6
CONTINUOUS
 66
     1
 40
0.000000
 41
0.000000
  0
VERTEX
  8
0
  6
CONTINUOUS
 10
2.801040
 20
5.588440
  0
VERTEX
  8
0
  6
CONTINUOUS
 10
3.433760
 20
5.945720
  0
VERTEX
  8
0
  6
CONTINUOUS
 10
3.378760
 20
5.902600
  0
VERTEX
  8
0
  6
CONTINUOUS
 10
2.746040
 20
5.545320
  0
VERTEX
  8
0
  6
CONTINUOUS
 10
2.801040
 20
5.588440
  0
SEQEND
  8
0
  0
SOLID
  8
0
 62
    15
 10
2.746040
 20
5.545320
 11
3.378760
 21
5.902600
 12
2.695880
 22
5.498240
 13
3.328600
 23
5.855520
  0
POLYLINE
  8
0
  6
CONTINUOUS
 66
     1
 40
0.000000
 41
0.000000
  0
VERTEX
  8
0
  6
CONTINUOUS
 10
2.746040
 20
5.545320
  0
VERTEX
  8
0
  6
CONTINUOUS
 10
3.378760
 20
5.902600
  0
VERTEX
  8
0
  6
CONTINUOUS
 10
3.328600
 20
5.855520
  0
VERTEX
  8
0
  6
CONTINUOUS
 10
2.695880
 20
5.498240
  0
VERTEX
  8
0
  6
CONTINUOUS
 10
2.746040
 20
5.545320
  0
SEQEND
  8
0
  0
SOLID
  8
0
 62
    15
 10
2.695880
 20
5.498240
 11
3.328600
 21
5.855520
 12
2.651000
 22
5.447640
 13
3.283280
 23
5.804920
  0
POLYLINE
  8
0
  6
CONTINUOUS
 66
     1
 40
0.000000
 41
0.000000
  0
VERTEX
  8
0
  6
CONTINUOUS
 10
2.695880
 20
5.498240
  0
VERTEX
  8
0
  6
CONTINUOUS
 10
3.328600
 20
5.855520
  0
VERTEX
  8
0
  6
CONTINUOUS
 10
3.283280
 20
5.804920
  0
VERTEX
  8
0
  6
CONTINUOUS
 10
2.651000
 20
5.447640
  0
VERTEX
  8
0
  6
CONTINUOUS
 10
2.695880
 20
5.498240
  0
SEQEND
  8
0
  0
SOLID
  8
0
 62
    15
 10
2.651000
 20
5.447640
 11
3.283280
 21
5.804920
 12
2.610520
 22
5.393080
 13
3.242800
 23
5.750360
  0
POLYLINE
  8
0
  6
CONTINUOUS
 66
     1
 40
0.000000
 41
0.000000
  0
VERTEX
  8
0
  6
CONTINUOUS
 10
2.651000
 20
5.447640
  0
VERTEX
  8
0
  6
CONTINUOUS
 10
3.283280
 20
5.804920
  0
VERTEX
  8
0
  6
CONTINUOUS
 10
3.242800
 20
5.750360
  0
VERTEX
  8
0
  6
CONTINUOUS
 10
2.610520
 20
5.393080
  0
VERTEX
  8
0
  6
CONTINUOUS
 10
2.651000
 20
5.447640
  0
SEQEND
  8
0
  0
SOLID
  8
0
 62
    15
 10
2.610520
 20
5.393080
 11
3.242800
 21
5.750360
 12
2.574880
 22
5.335440
 13
3.207160
 23
5.692720
  0
POLYLINE
  8
0
  6
CONTINUOUS
 66
     1
 40
0.000000
 41
0.000000
  0
VERTEX
  8
0
  6
CONTINUOUS
 10
2.610520
 20
5.393080
  0
VERTEX
  8
0
  6
CONTINUOUS
 10
3.242800
 20
5.750360
  0
VERTEX
  8
0
  6
CONTINUOUS
 10
3.207160
 20
5.692720
  0
VERTEX
  8
0
  6
CONTINUOUS
 10
2.574880
 20
5.335440
  0
VERTEX
  8
0
  6
CONTINUOUS
 10
2.610520
 20
5.393080
  0
SEQEND
  8
0
  0
SOLID
  8
0
 62
    15
 10
2.574880
 20
5.335440
 11
3.207160
 21
5.692720
 12
2.544080
 22
5.274280
 13
3.176360
 23
5.631560
  0
POLYLINE
  8
0
  6
CONTINUOUS
 66
     1
 40
0.000000
 41
0.000000
  0
VERTEX
  8
0
  6
CONTINUOUS
 10
2.574880
 20
5.335440
  0
VERTEX
  8
0
  6
CONTINUOUS
 10
3.207160
 20
5.692720
  0
VERTEX
  8
0
  6
CONTINUOUS
 10
3.176360
 20
5.631560
  0
VERTEX
  8
0
  6
CONTINUOUS
 10
2.544080
 20
5.274280
  0
VERTEX
  8
0
  6
CONTINUOUS
 10
2.574880
 20
5.335440
  0
SEQEND
  8
0
  0
SOLID
  8
0
 62
    15
 10
2.861320
 20
5.627600
 11
3.493600
 21
5.984880
 12
2.801040
 22
5.588440
 13
3.433760
 23
5.945720
  0
POLYLINE
  8
0
  6
CONTINUOUS
 66
     1
 40
0.000000
 41
0.000000
  0
VERTEX
  8
0
  6
CONTINUOUS
 10
2.861320
 20
5.627600
  0
VERTEX
  8
0
  6
CONTINUOUS
 10
3.493600
 20
5.984880
  0
VERTEX
  8
0
  6
CONTINUOUS
 10
3.433760
 20
5.945720
  0
VERTEX
  8
0
  6
CONTINUOUS
 10
2.801040
 20
5.588440
  0
VERTEX
  8
0
  6
CONTINUOUS
 10
2.861320
 20
5.627600
  0
SEQEND
  8
0
  0
SOLID
  8
0
 62
    15
 10
2.518120
 20
5.209600
 11
3.150400
 21
5.566880
 12
2.480720
 22
5.072320
 13
3.113000
 23
5.429160
  0
POLYLINE
  8
0
  6
CONTINUOUS
 66
     1
 40
0.000000
 41
0.000000
  0
VERTEX
  8
0
  6
CONTINUOUS
 10
2.518120
 20
5.209600
  0
VERTEX
  8
0
  6
CONTINUOUS
 10
3.150400
 20
5.566880
  0
VERTEX
  8
0
  6
CONTINUOUS
 10
3.113000
 20
5.429160
  0
VERTEX
  8
0
  6
CONTINUOUS
 10
2.480720
 20
5.072320
  0
VERTEX
  8
0
  6
CONTINUOUS
 10
2.518120
 20
5.209600
  0
SEQEND
  8
0
  0
SOLID
  8
0
 62
    15
 10
2.480720
 20
5.072320
 11
3.113000
 21
5.429160
 12
2.461800
 22
4.923600
 13
3.094080
 23
5.280880
  0
POLYLINE
  8
0
  6
CONTINUOUS
 66
     1
 40
0.000000
 41
0.000000
  0
VERTEX
  8
0
  6
CONTINUOUS
 10
2.480720
 20
5.072320
  0
VERTEX
  8
0
  6
CONTINUOUS
 10
3.113000
 20
5.429160
  0
VERTEX
  8
0
  6
CONTINUOUS
 10
3.094080
 20
5.280880
  0
VERTEX
  8
0
  6
CONTINUOUS
 10
2.461800
 20
4.923600
  0
VERTEX
  8
0
  6
CONTINUOUS
 10
2.480720
 20
5.072320
  0
SEQEND
  8
0
  0
SOLID
  8
0
 62
    15
 10
2.133560
 20
6.206200
 11
2.766280
 21
6.563480
 12
3.364240
 22
6.206200
 13
3.996520
 23
6.563480
  0
POLYLINE
  8
0
  6
CONTINUOUS
 66
     1
 40
0.000000
 41
0.000000
  0
VERTEX
  8
0
  6
CONTINUOUS
 10
2.133560
 20
6.206200
  0
VERTEX
  8
0
  6
CONTINUOUS
 10
2.766280
 20
6.563480
  0
VERTEX
  8
0
  6
CONTINUOUS
 10
3.996520
 20
6.563480
  0
VERTEX
  8
0
  6
CONTINUOUS
 10
3.364240
 20
6.206200
  0
VERTEX
  8
0
  6
CONTINUOUS
 10
2.133560
 20
6.206200
  0
SEQEND
  8
0
  0
SOLID
  8
0
 62
    15
 10
3.150840
 20
5.957160
 11
3.783560
 21
6.314000
 12
3.150840
 22
5.743760
 13
3.783560
 23
6.100600
  0
POLYLINE
  8
0
  6
CONTINUOUS
 66
     1
 40
0.000000
 41
0.000000
  0
VERTEX
  8
0
  6
CONTINUOUS
 10
3.150840
 20
5.957160
  0
VERTEX
  8
0
  6
CONTINUOUS
 10
3.783560
 20
6.314000
  0
VERTEX
  8
0
  6
CONTINUOUS
 10
3.783560
 20
6.100600
  0
VERTEX
  8
0
  6
CONTINUOUS
 10
3.150840
 20
5.743760
  0
VERTEX
  8
0
  6
CONTINUOUS
 10
3.150840
 20
5.957160
  0
SEQEND
  8
0
  0
SOLID
  8
0
 62
    15
 10
3.364240
 20
6.206200
 11
3.996520
 21
6.563480
 12
3.364240
 22
5.957160
 13
3.996520
 23
6.314000
  0
POLYLINE
  8
0
  6
CONTINUOUS
 66
     1
 40
0.000000
 41
0.000000
  0
VERTEX
  8
0
  6
CONTINUOUS
 10
3.364240
 20
6.206200
  0
VERTEX
  8
0
  6
CONTINUOUS
 10
3.996520
 20
6.563480
  0
VERTEX
  8
0
  6
CONTINUOUS
 10
3.996520
 20
6.314000
  0
VERTEX
  8
0
  6
CONTINUOUS
 10
3.364240
 20
5.957160
  0
VERTEX
  8
0
  6
CONTINUOUS
 10
3.364240
 20
6.206200
  0
SEQEND
  8
0
  0
SOLID
  8
0
 62
    15
 10
3.150840
 20
5.743760
 11
3.783560
 21
6.100600
 12
3.150840
 22
5.739800
 13
3.783560
 23
6.096640
  0
POLYLINE
  8
0
  6
CONTINUOUS
 66
     1
 40
0.000000
 41
0.000000
  0
VERTEX
  8
0
  6
CONTINUOUS
 10
3.150840
 20
5.743760
  0
VERTEX
  8
0
  6
CONTINUOUS
 10
3.783560
 20
6.100600
  0
VERTEX
  8
0
  6
CONTINUOUS
 10
3.783560
 20
6.096640
  0
VERTEX
  8
0
  6
CONTINUOUS
 10
3.150840
 20
5.739800
  0
VERTEX
  8
0
  6
CONTINUOUS
 10
3.150840
 20
5.743760
  0
SEQEND
  8
0
  0
POLYLINE
  8
0
  6
CONTINUOUS
 66
     1
 40
0.000000
 41
0.000000
  0
VERTEX
  8
0
  6
CONTINUOUS
 10
3.150840
 20
5.739800
  0
VERTEX
  8
0
  6
CONTINUOUS
 10
3.071200
 20
5.718680
  0
VERTEX
  8
0
  6
CONTINUOUS
 10
2.995960
 20
5.692720
  0
VERTEX
  8
0
  6
CONTINUOUS
 10
2.926000
 20
5.662360
  0
VERTEX
  8
0
  6
CONTINUOUS
 10
2.861320
 20
5.627600
  0
VERTEX
  8
0
  6
CONTINUOUS
 10
2.801040
 20
5.588440
  0
VERTEX
  8
0
  6
CONTINUOUS
 10
2.746040
 20
5.545320
  0
VERTEX
  8
0
  6
CONTINUOUS
 10
2.695880
 20
5.498240
  0
VERTEX
  8
0
  6
CONTINUOUS
 10
2.651000
 20
5.447640
  0
VERTEX
  8
0
  6
CONTINUOUS
 10
2.610520
 20
5.393080
  0
VERTEX
  8
0
  6
CONTINUOUS
 10
2.574880
 20
5.335440
  0
VERTEX
  8
0
  6
CONTINUOUS
 10
2.544080
 20
5.274280
  0
VERTEX
  8
0
  6
CONTINUOUS
 10
2.518120
 20
5.209600
  0
VERTEX
  8
0
  6
CONTINUOUS
 10
2.480720
 20
5.072320
  0
VERTEX
  8
0
  6
CONTINUOUS
 10
2.461800
 20
4.923600
  0
VERTEX
  8
0
  6
CONTINUOUS
 10
2.133560
 20
4.923600
  0
VERTEX
  8
0
  6
CONTINUOUS
 10
2.133560
 20
6.206200
  0
VERTEX
  8
0
  6
CONTINUOUS
 10
3.364240
 20
6.206200
  0
VERTEX
  8
0
  6
CONTINUOUS
 10
3.364240
 20
5.957160
  0
VERTEX
  8
0
  6
CONTINUOUS
 10
3.150840
 20
5.957160
  0
VERTEX
  8
0
  6
CONTINUOUS
 10
3.150840
 20
5.743760
  0
VERTEX
  8
0
  6
CONTINUOUS
 10
3.150840
 20
5.739800
  0
SEQEND
  8
0
  0
TEXT
  8
0
 10
2.770240
 20
4.671040
 40
0.138164
  1
BA  160
 41
1.000000
  7
SN0
 71
     0
 72
     5
 11
3.359357
 21
4.671040
  0
TEXT
  8
0
 10
2.540560
 20
4.479640
 40
0.138164
  1
1-1/4" x 1-1/4"
 41
1.000000
  7
SN0
 71
     0
 72
     5
 11
3.586491
 21
4.479640
  0
POLYLINE
  8
0
  6
CONTINUOUS
 66
     1
 40
0.013200
 41
0.013200
  0
VERTEX
  8
0
  6
CONTINUOUS
 10
5.737600
 20
6.030640
  0
VERTEX
  8
0
  6
CONTINUOUS
 10
5.697120
 20
6.020520
  0
VERTEX
  8
0
  6
CONTINUOUS
 10
5.657520
 20
6.009520
  0
VERTEX
  8
0
  6
CONTINUOUS
 10
5.619680
 20
5.997200
  0
VERTEX
  8
0
  6
CONTINUOUS
 10
5.582720
 20
5.983560
  0
VERTEX
  8
0
  6
CONTINUOUS
 10
5.547080
 20
5.969040
  0
VERTEX
  8
0
  6
CONTINUOUS
 10
5.512760
 20
5.953200
  0
VERTEX
  8
0
  6
CONTINUOUS
 10
5.479760
 20
5.936480
  0
VERTEX
  8
0
  6
CONTINUOUS
 10
5.447640
 20
5.918440
  0
VERTEX
  8
0
  6
CONTINUOUS
 10
5.417280
 20
5.899520
  0
VERTEX
  8
0
  6
CONTINUOUS
 10
5.387800
 20
5.879280
  0
VERTEX
  8
0
  6
CONTINUOUS
 10
5.359640
 20
5.858160
  0
VERTEX
  8
0
  6
CONTINUOUS
 10
5.332800
 20
5.836160
  0
VERTEX
  8
0
  6
CONTINUOUS
 10
5.307280
 20
5.813280
  0
VERTEX
  8
0
  6
CONTINUOUS
 10
5.282640
 20
5.789080
  0
VERTEX
  8
0
  6
CONTINUOUS
 10
5.259320
 20
5.764440
  0
VERTEX
  8
0
  6
CONTINUOUS
 10
5.237320
 20
5.738480
  0
VERTEX
  8
0
  6
CONTINUOUS
 10
5.216640
 20
5.711640
  0
VERTEX
  8
0
  6
CONTINUOUS
 10
5.196840
 20
5.683920
  0
VERTEX
  8
0
  6
CONTINUOUS
 10
5.178800
 20
5.655320
  0
VERTEX
  8
0
  6
CONTINUOUS
 10
5.161640
 20
5.626280
  0
VERTEX
  8
0
  6
CONTINUOUS
 10
5.145360
 20
5.595920
  0
VERTEX
  8
0
  6
CONTINUOUS
 10
5.130840
 20
5.564680
  0
VERTEX
  8
0
  6
CONTINUOUS
 10
5.117200
 20
5.533000
  0
VERTEX
  8
0
  6
CONTINUOUS
 10
5.104880
 20
5.500440
  0
VERTEX
  8
0
  6
CONTINUOUS
 10
5.093440
 20
5.467000
  0
VERTEX
  8
0
  6
CONTINUOUS
 10
5.083320
 20
5.433120
  0
VERTEX
  8
0
  6
CONTINUOUS
 10
5.074520
 20
5.398360
  0
VERTEX
  8
0
  6
CONTINUOUS
 10
5.067040
 20
5.362720
  0
VERTEX
  8
0
  6
CONTINUOUS
 10
5.060440
 20
5.326640
  0
VERTEX
  8
0
  6
CONTINUOUS
 10
5.055160
 20
5.290120
  0
VERTEX
  8
0
  6
CONTINUOUS
 10
5.051200
 20
5.252280
  0
VERTEX
  8
0
  6
CONTINUOUS
 10
5.048120
 20
5.214440
  0
VERTEX
  8
0
  6
CONTINUOUS
 10
4.720320
 20
5.214440
  0
VERTEX
  8
0
  6
CONTINUOUS
 10
4.720320
 20
6.497040
  0
VERTEX
  8
0
  6
CONTINUOUS
 10
5.951000
 20
6.497040
  0
VERTEX
  8
0
  6
CONTINUOUS
 10
5.951000
 20
6.248000
  0
VERTEX
  8
0
  6
CONTINUOUS
 10
5.737600
 20
6.248000
  0
VERTEX
  8
0
  6
CONTINUOUS
 10
5.737600
 20
6.247560
  0
VERTEX
  8
0
  6
CONTINUOUS
 10
5.737600
 20
6.030640
  0
SEQEND
  8
0
  0
TEXT
  8
0
 10
5.433120
 20
5.464800
 40
0.138164
  1
BA  160
 41
1.000000
  7
SN0
 71
     0
 72
     5
 11
6.022237
 21
5.464800
  0
TEXT
  8
0
 10
5.203440
 20
5.272960
 40
0.138164
  1
1-1/4" x 1-1/4"
 41
1.000000
  7
SN0
 71
     0
 72
     5
 11
6.249371
 21
5.272960
  0
ENDSEC
  0
EOF
