  0
SECTION
  2
HEADER
  9
$ACADVER
  1
AC1006
  9
$EXTMIN
 10
2.605240
 20
0.348040
  9
$EXTMAX
 10
8.049360
 20
2.691040
  9
$LTSCALE
 40
0.044000
  9
$PDMODE
 70
    35
  9
$PDSIZE
 40
0.035200
  0
ENDSEC
  0
SECTION
  2
TABLES
  0
TABLE
  2
LTYPE
 70
     9
  0
LTYPE
  2
CONTINUOUS
 70
    64
  3
Solid line
 72
    65
 73
     0
 40
0.000000
  0
LTYPE
  2
DASHED
 70
    64
  3
__ __ __ __ __ __ __ __ __ __ __ __ __ __ __
 72
    65
 73
     2
 40
0.000330
 49
0.000220
 49
-0.000110
  0
LTYPE
  2
HIDDEN
 70
    64
  3
 _ _ _ _ _ _ _ _ _ _ _ _ _ _ _ _ _ _ _ _ _ _
 72
    65
 73
     2
 40
0.000165
 49
0.000110
 49
-0.000055
  0
LTYPE
  2
CENTER
 70
    64
  3
____ _ ____ _ ____ _ ____ _ ____ _ ____ _ ____
 72
    65
 73
     4
 40
0.000880
 49
0.000550
 49
-0.000110
 49
0.000110
 49
-0.000110
  0
LTYPE
  2
PHANTOM
 70
    64
  3
_____ _ _ _____ _ _ _____ _ _ _____ _ _ ____
 72
    65
 73
     6
 40
0.001100
 49
0.000550
 49
-0.000110
 49
0.000110
 49
-0.000110
 49
0.000110
 49
-0.000110
  0
LTYPE
  2
DOT
 70
    64
  3
...............................................
 72
    65
 73
     2
 40
0.000110
 49
0.000000
 49
-0.000110
  0
LTYPE
  2
DASHDOT
 70
    64
  3
__ . __ . __ . __ . __ . __ . __ . __ . __ . __
 72
    65
 73
     4
 40
0.000440
 49
0.000220
 49
-0.000110
 49
0.000000
 49
-0.000110
  0
LTYPE
  2
BORDER
 70
    64
  3
__ __ . __ __ . __ __ . __ __ . __ __ . __ __
 72
    65
 73
     6
 40
0.000770
 49
0.000220
 49
-0.000110
 49
0.000220
 49
-0.000110
 49
0.000000
 49
-0.000110
  0
LTYPE
  2
DIVIDE
 70
    64
  3
__ . . __ . . __ . . __ . . __ . . __ . . __
 72
    65
 73
     6
 40
0.000550
 49
0.000220
 49
-0.000110
 49
0.000000
 49
-0.000110
 49
0.000000
 49
-0.000110
  0
LTYPE
  2
DOTDOT
 70
    64
  3
 . .  . .  . .  . .  . .  . . 
 72
    65
 73
     5
 40
0.000242
 49
-0.000110
 49
0.000000
 49
-0.000110
 49
0.000000
 49
-0.000110
  0
ENDTAB
  0
TABLE
  2
STYLE
 70
     2
  0
STYLE
 70
     0
  2
SN0
 40
0.000000
 41
0.000440
 50
0.000000
 71
     0
 42
0.000000
  3
ROMAND
  0
STYLE
 70
    68
  2
SV0
 40
0.000000
 41
0.000440
 50
0.000000
 71
     0
 42
0.000000
  3
ROMAND
  0
ENDTAB
  0
TABLE
  2
LAYER
 70
     3
  0
LAYER
  2
FOREGROUND
 70
    64
 62
     7
  6
CONTINUOUS
  0
LAYER
  2
BACKGROUND
 70
    65
 62
    -7
  6
CONTINUOUS
  0
LAYER
  2
0
 70
    64
 62
     7
  6
CONTINUOUS
  0
ENDTAB
  0
ENDSEC
  0
SECTION
  2
ENTITIES
  0
POLYLINE
  8
FOREGROUND
  6
CONTINUOUS
 66
     1
 40
0.000000
 41
0.000000
  0
VERTEX
  8
FOREGROUND
  6
CONTINUOUS
 10
0.000000
 20
3.039080
  0
VERTEX
  8
FOREGROUND
  6
CONTINUOUS
 10
8.499920
 20
3.039080
  0
VERTEX
  8
FOREGROUND
  6
CONTINUOUS
 10
8.499920
 20
-7.960920
  0
VERTEX
  8
FOREGROUND
  6
CONTINUOUS
 10
0.000000
 20
-7.960920
  0
VERTEX
  8
FOREGROUND
  6
CONTINUOUS
 10
0.000000
 20
3.039080
  0
SEQEND
  8
0
  0
POLYLINE
  8
FOREGROUND
  6
CONTINUOUS
 66
     1
 40
0.000000
 41
0.000000
  0
VERTEX
  8
FOREGROUND
  6
CONTINUOUS
 10
0.000000
 20
3.039080
  0
VERTEX
  8
FOREGROUND
  6
CONTINUOUS
 10
8.499920
 20
3.039080
  0
VERTEX
  8
FOREGROUND
  6
CONTINUOUS
 10
8.499920
 20
-7.960920
  0
VERTEX
  8
FOREGROUND
  6
CONTINUOUS
 10
0.000000
 20
-7.960920
  0
VERTEX
  8
FOREGROUND
  6
CONTINUOUS
 10
0.000000
 20
3.039080
  0
SEQEND
  8
0
  0
POLYLINE
  8
0
  6
CONTINUOUS
 66
     1
 40
0.014080
 41
0.014080
  0
VERTEX
  8
0
  6
CONTINUOUS
 10
6.825280
 20
1.064800
  0
VERTEX
  8
0
  6
CONTINUOUS
 10
5.862560
 20
1.064800
  0
VERTEX
  8
0
  6
CONTINUOUS
 10
5.862560
 20
1.973840
  0
VERTEX
  8
0
  6
CONTINUOUS
 10
5.862560
 20
1.977800
  0
VERTEX
  8
0
  6
CONTINUOUS
 10
6.361080
 20
2.545840
  0
VERTEX
  8
0
  6
CONTINUOUS
 10
6.890400
 20
2.103200
  0
VERTEX
  8
0
  6
CONTINUOUS
 10
6.878520
 20
2.080760
  0
VERTEX
  8
0
  6
CONTINUOUS
 10
6.867960
 20
2.058760
  0
VERTEX
  8
0
  6
CONTINUOUS
 10
6.857840
 20
2.037200
  0
VERTEX
  8
0
  6
CONTINUOUS
 10
6.848600
 20
2.016080
  0
VERTEX
  8
0
  6
CONTINUOUS
 10
6.840680
 20
1.994960
  0
VERTEX
  8
0
  6
CONTINUOUS
 10
6.833200
 20
1.974720
  0
VERTEX
  8
0
  6
CONTINUOUS
 10
6.826600
 20
1.954480
  0
VERTEX
  8
0
  6
CONTINUOUS
 10
6.820880
 20
1.935120
  0
VERTEX
  8
0
  6
CONTINUOUS
 10
6.815600
 20
1.915760
  0
VERTEX
  8
0
  6
CONTINUOUS
 10
6.811200
 20
1.896840
  0
VERTEX
  8
0
  6
CONTINUOUS
 10
6.807240
 20
1.877920
  0
VERTEX
  8
0
  6
CONTINUOUS
 10
6.804160
 20
1.859880
  0
VERTEX
  8
0
  6
CONTINUOUS
 10
6.801960
 20
1.841840
  0
VERTEX
  8
0
  6
CONTINUOUS
 10
6.799760
 20
1.824240
  0
VERTEX
  8
0
  6
CONTINUOUS
 10
6.798000
 20
1.789480
  0
VERTEX
  8
0
  6
CONTINUOUS
 10
6.797560
 20
1.756040
  0
VERTEX
  8
0
  6
CONTINUOUS
 10
6.799320
 20
1.723480
  0
VERTEX
  8
0
  6
CONTINUOUS
 10
6.802840
 20
1.691800
  0
VERTEX
  8
0
  6
CONTINUOUS
 10
6.807240
 20
1.661000
  0
VERTEX
  8
0
  6
CONTINUOUS
 10
6.812960
 20
1.630640
  0
VERTEX
  8
0
  6
CONTINUOUS
 10
6.819560
 20
1.601160
  0
VERTEX
  8
0
  6
CONTINUOUS
 10
6.834520
 20
1.543520
  0
VERTEX
  8
0
  6
CONTINUOUS
 10
6.850360
 20
1.487200
  0
VERTEX
  8
0
  6
CONTINUOUS
 10
6.865320
 20
1.431760
  0
VERTEX
  8
0
  6
CONTINUOUS
 10
6.871480
 20
1.403600
  0
VERTEX
  8
0
  6
CONTINUOUS
 10
6.877200
 20
1.375880
  0
VERTEX
  8
0
  6
CONTINUOUS
 10
6.881600
 20
1.347720
  0
VERTEX
  8
0
  6
CONTINUOUS
 10
6.884680
 20
1.319120
  0
VERTEX
  8
0
  6
CONTINUOUS
 10
6.886000
 20
1.290520
  0
VERTEX
  8
0
  6
CONTINUOUS
 10
6.885560
 20
1.261040
  0
VERTEX
  8
0
  6
CONTINUOUS
 10
6.883360
 20
1.231120
  0
VERTEX
  8
0
  6
CONTINUOUS
 10
6.881160
 20
1.216160
  0
VERTEX
  8
0
  6
CONTINUOUS
 10
6.878520
 20
1.200760
  0
VERTEX
  8
0
  6
CONTINUOUS
 10
6.875000
 20
1.184920
  0
VERTEX
  8
0
  6
CONTINUOUS
 10
6.871040
 20
1.169520
  0
VERTEX
  8
0
  6
CONTINUOUS
 10
6.866640
 20
1.153240
  0
VERTEX
  8
0
  6
CONTINUOUS
 10
6.860920
 20
1.137400
  0
VERTEX
  8
0
  6
CONTINUOUS
 10
6.854760
 20
1.120680
  0
VERTEX
  8
0
  6
CONTINUOUS
 10
6.848160
 20
1.103960
  0
VERTEX
  8
0
  6
CONTINUOUS
 10
6.840240
 20
1.087240
  0
VERTEX
  8
0
  6
CONTINUOUS
 10
6.831880
 20
1.070080
  0
VERTEX
  8
0
  6
CONTINUOUS
 10
6.825280
 20
1.064800
  0
SEQEND
  8
0
  0
SOLID
  8
0
 62
     7
 10
3.578080
 20
1.284800
 11
4.217840
 21
1.657040
 12
3.593920
 22
1.228480
 13
4.233680
 23
1.600720
  0
POLYLINE
  8
0
  6
CONTINUOUS
 66
     1
 40
0.000000
 41
0.000000
  0
VERTEX
  8
0
  6
CONTINUOUS
 10
3.578080
 20
1.284800
  0
VERTEX
  8
0
  6
CONTINUOUS
 10
4.217840
 20
1.657040
  0
VERTEX
  8
0
  6
CONTINUOUS
 10
4.233680
 20
1.600720
  0
VERTEX
  8
0
  6
CONTINUOUS
 10
3.593920
 20
1.228480
  0
VERTEX
  8
0
  6
CONTINUOUS
 10
3.578080
 20
1.284800
  0
SEQEND
  8
0
  0
SOLID
  8
0
 62
    15
 10
3.633960
 20
1.844480
 11
4.273720
 21
2.216720
 12
3.592160
 22
1.757360
 13
4.231920
 23
2.129160
  0
POLYLINE
  8
0
  6
CONTINUOUS
 66
     1
 40
0.000000
 41
0.000000
  0
VERTEX
  8
0
  6
CONTINUOUS
 10
3.633960
 20
1.844480
  0
VERTEX
  8
0
  6
CONTINUOUS
 10
4.273720
 20
2.216720
  0
VERTEX
  8
0
  6
CONTINUOUS
 10
4.231920
 20
2.129160
  0
VERTEX
  8
0
  6
CONTINUOUS
 10
3.592160
 20
1.757360
  0
VERTEX
  8
0
  6
CONTINUOUS
 10
3.633960
 20
1.844480
  0
SEQEND
  8
0
  0
SOLID
  8
0
 62
    15
 10
3.592160
 20
1.757360
 11
4.231920
 21
2.129160
 12
3.564000
 22
1.676400
 13
4.203760
 23
2.048200
  0
POLYLINE
  8
0
  6
CONTINUOUS
 66
     1
 40
0.000000
 41
0.000000
  0
VERTEX
  8
0
  6
CONTINUOUS
 10
3.592160
 20
1.757360
  0
VERTEX
  8
0
  6
CONTINUOUS
 10
4.231920
 20
2.129160
  0
VERTEX
  8
0
  6
CONTINUOUS
 10
4.203760
 20
2.048200
  0
VERTEX
  8
0
  6
CONTINUOUS
 10
3.564000
 20
1.676400
  0
VERTEX
  8
0
  6
CONTINUOUS
 10
3.592160
 20
1.757360
  0
SEQEND
  8
0
  0
SOLID
  8
0
 62
    15
 10
3.564000
 20
1.676400
 11
4.203760
 21
2.048200
 12
3.547720
 22
1.601160
 13
4.187480
 23
1.972960
  0
POLYLINE
  8
0
  6
CONTINUOUS
 66
     1
 40
0.000000
 41
0.000000
  0
VERTEX
  8
0
  6
CONTINUOUS
 10
3.564000
 20
1.676400
  0
VERTEX
  8
0
  6
CONTINUOUS
 10
4.203760
 20
2.048200
  0
VERTEX
  8
0
  6
CONTINUOUS
 10
4.187480
 20
1.972960
  0
VERTEX
  8
0
  6
CONTINUOUS
 10
3.547720
 20
1.601160
  0
VERTEX
  8
0
  6
CONTINUOUS
 10
3.564000
 20
1.676400
  0
SEQEND
  8
0
  0
SOLID
  8
0
 62
    15
 10
3.547720
 20
1.601160
 11
4.187480
 21
1.972960
 12
3.541120
 22
1.530760
 13
4.180880
 23
1.903000
  0
POLYLINE
  8
0
  6
CONTINUOUS
 66
     1
 40
0.000000
 41
0.000000
  0
VERTEX
  8
0
  6
CONTINUOUS
 10
3.547720
 20
1.601160
  0
VERTEX
  8
0
  6
CONTINUOUS
 10
4.187480
 20
1.972960
  0
VERTEX
  8
0
  6
CONTINUOUS
 10
4.180880
 20
1.903000
  0
VERTEX
  8
0
  6
CONTINUOUS
 10
3.541120
 20
1.530760
  0
VERTEX
  8
0
  6
CONTINUOUS
 10
3.547720
 20
1.601160
  0
SEQEND
  8
0
  0
SOLID
  8
0
 62
    15
 10
3.541120
 20
1.530760
 11
4.180880
 21
1.903000
 12
3.542880
 22
1.464760
 13
4.182640
 23
1.837000
  0
POLYLINE
  8
0
  6
CONTINUOUS
 66
     1
 40
0.000000
 41
0.000000
  0
VERTEX
  8
0
  6
CONTINUOUS
 10
3.541120
 20
1.530760
  0
VERTEX
  8
0
  6
CONTINUOUS
 10
4.180880
 20
1.903000
  0
VERTEX
  8
0
  6
CONTINUOUS
 10
4.182640
 20
1.837000
  0
VERTEX
  8
0
  6
CONTINUOUS
 10
3.542880
 20
1.464760
  0
VERTEX
  8
0
  6
CONTINUOUS
 10
3.541120
 20
1.530760
  0
SEQEND
  8
0
  0
SOLID
  8
0
 62
    15
 10
3.542880
 20
1.464760
 11
4.182640
 21
1.837000
 12
3.550800
 22
1.402280
 13
4.190560
 23
1.774520
  0
POLYLINE
  8
0
  6
CONTINUOUS
 66
     1
 40
0.000000
 41
0.000000
  0
VERTEX
  8
0
  6
CONTINUOUS
 10
3.542880
 20
1.464760
  0
VERTEX
  8
0
  6
CONTINUOUS
 10
4.182640
 20
1.837000
  0
VERTEX
  8
0
  6
CONTINUOUS
 10
4.190560
 20
1.774520
  0
VERTEX
  8
0
  6
CONTINUOUS
 10
3.550800
 20
1.402280
  0
VERTEX
  8
0
  6
CONTINUOUS
 10
3.542880
 20
1.464760
  0
SEQEND
  8
0
  0
SOLID
  8
0
 62
     7
 10
3.550800
 20
1.402280
 11
4.190560
 21
1.774520
 12
3.578080
 22
1.284800
 13
4.217840
 23
1.657040
  0
POLYLINE
  8
0
  6
CONTINUOUS
 66
     1
 40
0.000000
 41
0.000000
  0
VERTEX
  8
0
  6
CONTINUOUS
 10
3.550800
 20
1.402280
  0
VERTEX
  8
0
  6
CONTINUOUS
 10
4.190560
 20
1.774520
  0
VERTEX
  8
0
  6
CONTINUOUS
 10
4.217840
 20
1.657040
  0
VERTEX
  8
0
  6
CONTINUOUS
 10
3.578080
 20
1.284800
  0
VERTEX
  8
0
  6
CONTINUOUS
 10
3.550800
 20
1.402280
  0
SEQEND
  8
0
  0
SOLID
  8
0
 62
    15
 10
3.104640
 20
2.287120
 11
3.744400
 21
2.659360
 12
3.633960
 22
1.844480
 13
4.273720
 23
2.216720
  0
POLYLINE
  8
0
  6
CONTINUOUS
 66
     1
 40
0.000000
 41
0.000000
  0
VERTEX
  8
0
  6
CONTINUOUS
 10
3.104640
 20
2.287120
  0
VERTEX
  8
0
  6
CONTINUOUS
 10
3.744400
 20
2.659360
  0
VERTEX
  8
0
  6
CONTINUOUS
 10
4.273720
 20
2.216720
  0
VERTEX
  8
0
  6
CONTINUOUS
 10
3.633960
 20
1.844480
  0
VERTEX
  8
0
  6
CONTINUOUS
 10
3.104640
 20
2.287120
  0
SEQEND
  8
0
  0
SOLID
  8
0
 62
     7
 10
3.593920
 20
1.228480
 11
4.233680
 21
1.600720
 12
3.608880
 22
1.173040
 13
4.248640
 23
1.544840
  0
POLYLINE
  8
0
  6
CONTINUOUS
 66
     1
 40
0.000000
 41
0.000000
  0
VERTEX
  8
0
  6
CONTINUOUS
 10
3.593920
 20
1.228480
  0
VERTEX
  8
0
  6
CONTINUOUS
 10
4.233680
 20
1.600720
  0
VERTEX
  8
0
  6
CONTINUOUS
 10
4.248640
 20
1.544840
  0
VERTEX
  8
0
  6
CONTINUOUS
 10
3.608880
 20
1.173040
  0
VERTEX
  8
0
  6
CONTINUOUS
 10
3.593920
 20
1.228480
  0
SEQEND
  8
0
  0
SOLID
  8
0
 62
    15
 10
3.608880
 20
1.173040
 11
4.248640
 21
1.544840
 12
3.628240
 22
1.060400
 13
4.268000
 23
1.432640
  0
POLYLINE
  8
0
  6
CONTINUOUS
 66
     1
 40
0.000000
 41
0.000000
  0
VERTEX
  8
0
  6
CONTINUOUS
 10
3.608880
 20
1.173040
  0
VERTEX
  8
0
  6
CONTINUOUS
 10
4.248640
 20
1.544840
  0
VERTEX
  8
0
  6
CONTINUOUS
 10
4.268000
 20
1.432640
  0
VERTEX
  8
0
  6
CONTINUOUS
 10
3.628240
 20
1.060400
  0
VERTEX
  8
0
  6
CONTINUOUS
 10
3.608880
 20
1.173040
  0
SEQEND
  8
0
  0
SOLID
  8
0
 62
    15
 10
3.628240
 20
1.060400
 11
4.268000
 21
1.432640
 12
3.629120
 22
1.002320
 13
4.268880
 23
1.374120
  0
POLYLINE
  8
0
  6
CONTINUOUS
 66
     1
 40
0.000000
 41
0.000000
  0
VERTEX
  8
0
  6
CONTINUOUS
 10
3.628240
 20
1.060400
  0
VERTEX
  8
0
  6
CONTINUOUS
 10
4.268000
 20
1.432640
  0
VERTEX
  8
0
  6
CONTINUOUS
 10
4.268880
 20
1.374120
  0
VERTEX
  8
0
  6
CONTINUOUS
 10
3.629120
 20
1.002320
  0
VERTEX
  8
0
  6
CONTINUOUS
 10
3.628240
 20
1.060400
  0
SEQEND
  8
0
  0
SOLID
  8
0
 62
    15
 10
3.629120
 20
1.002320
 11
4.268880
 21
1.374120
 12
3.621640
 22
0.942040
 13
4.261400
 23
1.313840
  0
POLYLINE
  8
0
  6
CONTINUOUS
 66
     1
 40
0.000000
 41
0.000000
  0
VERTEX
  8
0
  6
CONTINUOUS
 10
3.629120
 20
1.002320
  0
VERTEX
  8
0
  6
CONTINUOUS
 10
4.268880
 20
1.374120
  0
VERTEX
  8
0
  6
CONTINUOUS
 10
4.261400
 20
1.313840
  0
VERTEX
  8
0
  6
CONTINUOUS
 10
3.621640
 20
0.942040
  0
VERTEX
  8
0
  6
CONTINUOUS
 10
3.629120
 20
1.002320
  0
SEQEND
  8
0
  0
SOLID
  8
0
 62
    15
 10
3.621640
 20
0.942040
 11
4.261400
 21
1.313840
 12
3.604480
 22
0.878680
 13
4.244240
 23
1.250480
  0
POLYLINE
  8
0
  6
CONTINUOUS
 66
     1
 40
0.000000
 41
0.000000
  0
VERTEX
  8
0
  6
CONTINUOUS
 10
3.621640
 20
0.942040
  0
VERTEX
  8
0
  6
CONTINUOUS
 10
4.261400
 20
1.313840
  0
VERTEX
  8
0
  6
CONTINUOUS
 10
4.244240
 20
1.250480
  0
VERTEX
  8
0
  6
CONTINUOUS
 10
3.604480
 20
0.878680
  0
VERTEX
  8
0
  6
CONTINUOUS
 10
3.621640
 20
0.942040
  0
SEQEND
  8
0
  0
SOLID
  8
0
 62
    15
 10
3.604480
 20
0.878680
 11
4.244240
 21
1.250480
 12
3.575440
 22
0.811360
 13
4.215200
 23
1.183160
  0
POLYLINE
  8
0
  6
CONTINUOUS
 66
     1
 40
0.000000
 41
0.000000
  0
VERTEX
  8
0
  6
CONTINUOUS
 10
3.604480
 20
0.878680
  0
VERTEX
  8
0
  6
CONTINUOUS
 10
4.244240
 20
1.250480
  0
VERTEX
  8
0
  6
CONTINUOUS
 10
4.215200
 20
1.183160
  0
VERTEX
  8
0
  6
CONTINUOUS
 10
3.575440
 20
0.811360
  0
VERTEX
  8
0
  6
CONTINUOUS
 10
3.604480
 20
0.878680
  0
SEQEND
  8
0
  0
SOLID
  8
0
 62
    15
 10
3.575440
 20
0.811360
 11
4.215200
 21
1.183160
 12
3.568400
 22
0.806080
 13
4.208160
 23
1.177880
  0
POLYLINE
  8
0
  6
CONTINUOUS
 66
     1
 40
0.000000
 41
0.000000
  0
VERTEX
  8
0
  6
CONTINUOUS
 10
3.575440
 20
0.811360
  0
VERTEX
  8
0
  6
CONTINUOUS
 10
4.215200
 20
1.183160
  0
VERTEX
  8
0
  6
CONTINUOUS
 10
4.208160
 20
1.177880
  0
VERTEX
  8
0
  6
CONTINUOUS
 10
3.568400
 20
0.806080
  0
VERTEX
  8
0
  6
CONTINUOUS
 10
3.575440
 20
0.811360
  0
SEQEND
  8
0
  0
POLYLINE
  8
0
  6
CONTINUOUS
 66
     1
 40
0.000000
 41
0.000000
  0
VERTEX
  8
0
  6
CONTINUOUS
 10
3.568400
 20
0.806080
  0
VERTEX
  8
0
  6
CONTINUOUS
 10
2.606120
 20
0.806080
  0
VERTEX
  8
0
  6
CONTINUOUS
 10
2.606120
 20
1.719520
  0
VERTEX
  8
0
  6
CONTINUOUS
 10
3.104640
 20
2.287120
  0
VERTEX
  8
0
  6
CONTINUOUS
 10
3.633960
 20
1.844480
  0
VERTEX
  8
0
  6
CONTINUOUS
 10
3.592160
 20
1.757360
  0
VERTEX
  8
0
  6
CONTINUOUS
 10
3.564000
 20
1.676400
  0
VERTEX
  8
0
  6
CONTINUOUS
 10
3.547720
 20
1.601160
  0
VERTEX
  8
0
  6
CONTINUOUS
 10
3.541120
 20
1.530760
  0
VERTEX
  8
0
  6
CONTINUOUS
 10
3.542880
 20
1.464760
  0
VERTEX
  8
0
  6
CONTINUOUS
 10
3.550800
 20
1.402280
  0
VERTEX
  8
0
  6
CONTINUOUS
 10
3.578080
 20
1.284800
  0
VERTEX
  8
0
  6
CONTINUOUS
 10
3.593920
 20
1.228480
  0
VERTEX
  8
0
  6
CONTINUOUS
 10
3.608880
 20
1.173040
  0
VERTEX
  8
0
  6
CONTINUOUS
 10
3.628240
 20
1.060400
  0
VERTEX
  8
0
  6
CONTINUOUS
 10
3.629120
 20
1.002320
  0
VERTEX
  8
0
  6
CONTINUOUS
 10
3.621640
 20
0.942040
  0
VERTEX
  8
0
  6
CONTINUOUS
 10
3.604480
 20
0.878680
  0
VERTEX
  8
0
  6
CONTINUOUS
 10
3.575440
 20
0.811360
  0
VERTEX
  8
0
  6
CONTINUOUS
 10
3.568400
 20
0.806080
  0
SEQEND
  8
0
  0
TEXT
  8
0
 10
3.146000
 20
0.582560
 40
0.137991
  1
BA  158
 41
1.000000
  7
SN0
 71
     0
 72
     5
 11
3.736687
 21
0.582560
  0
TEXT
  8
0
 10
3.059320
 20
0.391160
 40
0.137991
  1
1" x 1-1/2"
 41
1.000000
  7
SN0
 71
     0
 72
     5
 11
3.822313
 21
0.391160
  0
TEXT
  8
0
 10
7.772160
 20
2.539680
 40
0.137991
  1
trim
 41
1.000000
  7
SN0
 71
     0
 72
     5
 11
8.049266
 21
2.539680
  0
TEXT
  8
0
 10
7.772160
 20
2.347840
 40
0.137991
  1
158
 41
1.000000
  7
SN0
 71
     0
 72
     5
 11
8.049266
 21
2.347840
  0
ENDSEC
  0
EOF
