  0
SECTION
  2
HEADER
  9
$ACADVER
  1
AC1006
  9
$EXTMIN
 10
1.632246
 20
-5.899722
  9
$EXTMAX
 10
79.858667
 20
6.797298
  9
$LTSCALE
 40
0.319422
  9
$PDMODE
 70
    35
  9
$PDSIZE
 40
0.255538
  0
ENDSEC
  0
SECTION
  2
TABLES
  0
TABLE
  2
LTYPE
 70
     9
  0
LTYPE
  2
CONTINUOUS
 70
    64
  3
Solid line
 72
    65
 73
     0
 40
0.000000
  0
LTYPE
  2
DASHED
 70
    64
  3
__ __ __ __ __ __ __ __ __ __ __ __ __ __ __
 72
    65
 73
     2
 40
0.002396
 49
0.001597
 49
-0.000799
  0
LTYPE
  2
HIDDEN
 70
    64
  3
 _ _ _ _ _ _ _ _ _ _ _ _ _ _ _ _ _ _ _ _ _ _
 72
    65
 73
     2
 40
0.001198
 49
0.000799
 49
-0.000399
  0
LTYPE
  2
CENTER
 70
    64
  3
____ _ ____ _ ____ _ ____ _ ____ _ ____ _ ____
 72
    65
 73
     4
 40
0.006388
 49
0.003993
 49
-0.000799
 49
0.000799
 49
-0.000799
  0
LTYPE
  2
PHANTOM
 70
    64
  3
_____ _ _ _____ _ _ _____ _ _ _____ _ _ ____
 72
    65
 73
     6
 40
0.007986
 49
0.003993
 49
-0.000799
 49
0.000799
 49
-0.000799
 49
0.000799
 49
-0.000799
  0
LTYPE
  2
DOT
 70
    64
  3
...............................................
 72
    65
 73
     2
 40
0.000799
 49
0.000000
 49
-0.000799
  0
LTYPE
  2
DASHDOT
 70
    64
  3
__ . __ . __ . __ . __ . __ . __ . __ . __ . __
 72
    65
 73
     4
 40
0.003194
 49
0.001597
 49
-0.000799
 49
0.000000
 49
-0.000799
  0
LTYPE
  2
BORDER
 70
    64
  3
__ __ . __ __ . __ __ . __ __ . __ __ . __ __
 72
    65
 73
     6
 40
0.005590
 49
0.001597
 49
-0.000799
 49
0.001597
 49
-0.000799
 49
0.000000
 49
-0.000799
  0
LTYPE
  2
DIVIDE
 70
    64
  3
__ . . __ . . __ . . __ . . __ . . __ . . __
 72
    65
 73
     6
 40
0.003993
 49
0.001597
 49
-0.000799
 49
0.000000
 49
-0.000799
 49
0.000000
 49
-0.000799
  0
LTYPE
  2
DOTDOT
 70
    64
  3
 . .  . .  . .  . .  . .  . . 
 72
    65
 73
     5
 40
0.001757
 49
-0.000799
 49
0.000000
 49
-0.000799
 49
0.000000
 49
-0.000799
  0
ENDTAB
  0
TABLE
  2
STYLE
 70
     4
  0
STYLE
 70
     0
  2
SN0
 40
0.000000
 41
0.003194
 50
0.000000
 71
     0
 42
0.000000
  3
ROMAND
  0
STYLE
 70
    68
  2
SV0
 40
0.000000
 41
0.003194
 50
0.000000
 71
     0
 42
0.000000
  3
ROMAND
  0
STYLE
 70
     0
  2
SN1
 40
0.000000
 41
0.003194
 50
0.000000
 71
     0
 42
0.000000
  3
ROMAND
  0
STYLE
 70
    68
  2
SV1
 40
0.000000
 41
0.003194
 50
0.000000
 71
     0
 42
0.000000
  3
ROMAND
  0
ENDTAB
  0
TABLE
  2
LAYER
 70
     3
  0
LAYER
  2
FOREGROUND
 70
    64
 62
     7
  6
CONTINUOUS
  0
LAYER
  2
BACKGROUND
 70
    65
 62
    -7
  6
CONTINUOUS
  0
LAYER
  2
0
 70
    64
 62
     7
  6
CONTINUOUS
  0
ENDTAB
  0
ENDSEC
  0
SECTION
  2
ENTITIES
  0
POLYLINE
  8
FOREGROUND
  6
CONTINUOUS
 66
     1
 40
0.000000
 41
0.000000
  0
VERTEX
  8
FOREGROUND
  6
CONTINUOUS
 10
0.000000
 20
0.897576
  0
VERTEX
  8
FOREGROUND
  6
CONTINUOUS
 10
8.499816
 20
0.897576
  0
VERTEX
  8
FOREGROUND
  6
CONTINUOUS
 10
8.499816
 20
-10.103314
  0
VERTEX
  8
FOREGROUND
  6
CONTINUOUS
 10
0.000000
 20
-10.103314
  0
VERTEX
  8
FOREGROUND
  6
CONTINUOUS
 10
0.000000
 20
0.897576
  0
SEQEND
  8
0
  0
POLYLINE
  8
FOREGROUND
  6
CONTINUOUS
 66
     1
 40
0.000000
 41
0.000000
  0
VERTEX
  8
FOREGROUND
  6
CONTINUOUS
 10
0.000000
 20
0.897576
  0
VERTEX
  8
FOREGROUND
  6
CONTINUOUS
 10
8.499816
 20
0.897576
  0
VERTEX
  8
FOREGROUND
  6
CONTINUOUS
 10
8.499816
 20
-10.103314
  0
VERTEX
  8
FOREGROUND
  6
CONTINUOUS
 10
0.000000
 20
-10.103314
  0
VERTEX
  8
FOREGROUND
  6
CONTINUOUS
 10
0.000000
 20
0.897576
  0
SEQEND
  8
0
  0
POLYLINE
  8
0
  6
CONTINUOUS
 66
     1
 40
0.012777
 41
0.012777
  0
VERTEX
  8
0
  6
CONTINUOUS
 10
3.596690
 20
0.086244
  0
VERTEX
  8
0
  6
CONTINUOUS
 10
3.686129
 20
0.086244
  0
VERTEX
  8
0
  6
CONTINUOUS
 10
3.695711
 20
0.143740
  0
VERTEX
  8
0
  6
CONTINUOUS
 10
3.718071
 20
0.182070
  0
VERTEX
  8
0
  6
CONTINUOUS
 10
3.775567
 20
0.210818
  0
VERTEX
  8
0
  6
CONTINUOUS
 10
3.820286
 20
0.210818
  0
VERTEX
  8
0
  6
CONTINUOUS
 10
3.877782
 20
0.182070
  0
VERTEX
  8
0
  6
CONTINUOUS
 10
3.906530
 20
0.124575
  0
VERTEX
  8
0
  6
CONTINUOUS
 10
3.909724
 20
0.086244
  0
VERTEX
  8
0
  6
CONTINUOUS
 10
4.091794
 20
0.086244
  0
VERTEX
  8
0
  6
CONTINUOUS
 10
4.142902
 20
-0.060690
  0
VERTEX
  8
0
  6
CONTINUOUS
 10
4.235534
 20
-0.191653
  0
VERTEX
  8
0
  6
CONTINUOUS
 10
4.315390
 20
-0.265120
  0
VERTEX
  8
0
  6
CONTINUOUS
 10
4.404828
 20
-0.325810
  0
VERTEX
  8
0
  6
CONTINUOUS
 10
4.500654
 20
-0.370529
  0
VERTEX
  8
0
  6
CONTINUOUS
 10
4.653977
 20
-0.405666
  0
VERTEX
  8
0
  6
CONTINUOUS
 10
4.714667
 20
-0.408860
  0
VERTEX
  8
0
  6
CONTINUOUS
 10
4.724250
 20
-0.344976
  0
VERTEX
  8
0
  6
CONTINUOUS
 10
4.746609
 20
-0.309839
  0
VERTEX
  8
0
  6
CONTINUOUS
 10
4.784940
 20
-0.287480
  0
VERTEX
  8
0
  6
CONTINUOUS
 10
4.826465
 20
-0.277897
  0
VERTEX
  8
0
  6
CONTINUOUS
 10
4.871184
 20
-0.287480
  0
VERTEX
  8
0
  6
CONTINUOUS
 10
4.909514
 20
-0.313033
  0
VERTEX
  8
0
  6
CONTINUOUS
 10
4.938262
 20
-0.370529
  0
VERTEX
  8
0
  6
CONTINUOUS
 10
4.944651
 20
-0.405666
  0
VERTEX
  8
0
  6
CONTINUOUS
 10
5.104362
 20
-0.405666
  0
VERTEX
  8
0
  6
CONTINUOUS
 10
5.104362
 20
-0.616484
  0
VERTEX
  8
0
  6
CONTINUOUS
 10
3.590302
 20
-0.616484
  0
VERTEX
  8
0
  6
CONTINUOUS
 10
3.590302
 20
0.086244
  0
VERTEX
  8
0
  6
CONTINUOUS
 10
3.599885
 20
0.086244
  0
VERTEX
  8
0
  6
CONTINUOUS
 10
3.596690
 20
0.086244
  0
SEQEND
  8
0
  0
TEXT
  8
0
 10
79.085666
 20
6.244698
 40
0.014342
  1
B242
 41
1.000000
  7
SN0
 71
     0
 72
     5
 11
79.132602
 21
6.244698
  0
TEXT
  8
0
 10
79.638266
 20
6.193590
 40
0.014342
  1
B242
 41
1.000000
  7
SN0
 71
     0
 72
     5
 11
79.685201
 21
6.193590
  0
TEXT
  8
0
 10
79.235794
 20
3.510447
 40
0.014342
  1
B242
 41
1.000000
  7
SN0
 71
     0
 72
     5
 11
79.282730
 21
3.510447
  0
TEXT
  8
0
 10
79.028170
 20
6.781327
 40
0.014342
  1
B242
 41
1.000000
  7
SN0
 71
     0
 72
     5
 11
79.075106
 21
6.781327
  0
POLYLINE
  8
0
  6
CONTINUOUS
 66
     1
 40
0.012777
 41
0.012777
  0
VERTEX
  8
0
  6
CONTINUOUS
 10
12.154003
 20
-1.469341
  0
VERTEX
  8
0
  6
CONTINUOUS
 10
11.371419
 20
-1.300047
  0
VERTEX
  8
0
  6
CONTINUOUS
 10
10.604807
 20
-1.459758
  0
VERTEX
  8
0
  6
CONTINUOUS
 10
10.604807
 20
-1.549196
  0
VERTEX
  8
0
  6
CONTINUOUS
 10
10.349269
 20
-1.549196
  0
VERTEX
  8
0
  6
CONTINUOUS
 10
10.349269
 20
-1.437399
  0
VERTEX
  8
0
  6
CONTINUOUS
 10
10.243860
 20
-1.431010
  0
VERTEX
  8
0
  6
CONTINUOUS
 10
10.151228
 20
-1.395874
  0
VERTEX
  8
0
  6
CONTINUOUS
 10
10.064984
 20
-1.331989
  0
VERTEX
  8
0
  6
CONTINUOUS
 10
9.921244
 20
-1.156307
  0
VERTEX
  8
0
  6
CONTINUOUS
 10
9.825417
 20
-1.117977
  0
VERTEX
  8
0
  6
CONTINUOUS
 10
9.755145
 20
-1.130753
  0
VERTEX
  8
0
  6
CONTINUOUS
 10
9.710425
 20
-1.162696
  0
VERTEX
  8
0
  6
CONTINUOUS
 10
9.656124
 20
-1.255328
  0
VERTEX
  8
0
  6
CONTINUOUS
 10
9.656124
 20
-1.258522
  0
VERTEX
  8
0
  6
CONTINUOUS
 10
9.614599
 20
-1.255328
  0
VERTEX
  8
0
  6
CONTINUOUS
 10
9.547520
 20
-1.127559
  0
VERTEX
  8
0
  6
CONTINUOUS
 10
9.493219
 20
-1.127559
  0
VERTEX
  8
0
  6
CONTINUOUS
 10
9.493219
 20
-0.974237
  0
VERTEX
  8
0
  6
CONTINUOUS
 10
9.493219
 20
-0.977431
  0
VERTEX
  8
0
  6
CONTINUOUS
 10
8.962978
 20
-0.977431
  0
VERTEX
  8
0
  6
CONTINUOUS
 10
8.962978
 20
-2.219982
  0
VERTEX
  8
0
  6
CONTINUOUS
 10
14.597580
 20
-2.219982
  0
VERTEX
  8
0
  6
CONTINUOUS
 10
14.597580
 20
-2.021941
  0
VERTEX
  8
0
  6
CONTINUOUS
 10
14.677436
 20
-2.015552
  0
VERTEX
  8
0
  6
CONTINUOUS
 10
14.757291
 20
-1.980416
  0
VERTEX
  8
0
  6
CONTINUOUS
 10
14.817981
 20
-1.913337
  0
VERTEX
  8
0
  6
CONTINUOUS
 10
14.849924
 20
-1.830287
  0
VERTEX
  8
0
  6
CONTINUOUS
 10
14.849924
 20
-1.734461
  0
VERTEX
  8
0
  6
CONTINUOUS
 10
14.811593
 20
-1.651411
  0
VERTEX
  8
0
  6
CONTINUOUS
 10
14.747709
 20
-1.587527
  0
VERTEX
  8
0
  6
CONTINUOUS
 10
14.664659
 20
-1.549196
  0
VERTEX
  8
0
  6
CONTINUOUS
 10
14.616746
 20
-1.546002
  0
VERTEX
  8
0
  6
CONTINUOUS
 10
14.527308
 20
-1.565167
  0
VERTEX
  8
0
  6
CONTINUOUS
 10
14.453841
 20
-1.622663
  0
VERTEX
  8
0
  6
CONTINUOUS
 10
14.402733
 20
-1.699324
  0
VERTEX
  8
0
  6
CONTINUOUS
 10
14.386762
 20
-1.744044
  0
VERTEX
  8
0
  6
CONTINUOUS
 10
14.380373
 20
-1.817511
  0
VERTEX
  8
0
  6
CONTINUOUS
 10
14.255799
 20
-1.817511
  0
VERTEX
  8
0
  6
CONTINUOUS
 10
14.255799
 20
-1.504477
  0
VERTEX
  8
0
  6
CONTINUOUS
 10
14.249411
 20
-1.504477
  0
VERTEX
  8
0
  6
CONTINUOUS
 10
14.252605
 20
-1.504477
  0
VERTEX
  8
0
  6
CONTINUOUS
 10
13.898046
 20
-1.504477
  0
VERTEX
  8
0
  6
CONTINUOUS
 10
13.901241
 20
-1.504477
  0
VERTEX
  8
0
  6
CONTINUOUS
 10
13.898046
 20
-0.990208
  0
VERTEX
  8
0
  6
CONTINUOUS
 10
13.882075
 20
-0.990208
  0
VERTEX
  8
0
  6
CONTINUOUS
 10
13.885270
 20
-0.990208
  0
VERTEX
  8
0
  6
CONTINUOUS
 10
13.281562
 20
-0.990208
  0
VERTEX
  8
0
  6
CONTINUOUS
 10
13.284756
 20
-0.990208
  0
VERTEX
  8
0
  6
CONTINUOUS
 10
13.275174
 20
-0.990208
  0
VERTEX
  8
0
  6
CONTINUOUS
 10
13.275174
 20
-1.018956
  0
VERTEX
  8
0
  6
CONTINUOUS
 10
13.275174
 20
-1.015762
  0
VERTEX
  8
0
  6
CONTINUOUS
 10
13.275174
 20
-1.143530
  0
VERTEX
  8
0
  6
CONTINUOUS
 10
13.214484
 20
-1.143530
  0
VERTEX
  8
0
  6
CONTINUOUS
 10
13.147405
 20
-1.268105
  0
VERTEX
  8
0
  6
CONTINUOUS
 10
13.109074
 20
-1.271299
  0
VERTEX
  8
0
  6
CONTINUOUS
 10
13.054773
 20
-1.178667
  0
VERTEX
  8
0
  6
CONTINUOUS
 10
12.987694
 20
-1.137142
  0
VERTEX
  8
0
  6
CONTINUOUS
 10
12.939781
 20
-1.133948
  0
VERTEX
  8
0
  6
CONTINUOUS
 10
12.891867
 20
-1.146725
  0
VERTEX
  8
0
  6
CONTINUOUS
 10
12.847148
 20
-1.172278
  0
VERTEX
  8
0
  6
CONTINUOUS
 10
12.703409
 20
-1.347960
  0
VERTEX
  8
0
  6
CONTINUOUS
 10
12.569251
 20
-1.427816
  0
VERTEX
  8
0
  6
CONTINUOUS
 10
12.473425
 20
-1.450175
  0
VERTEX
  8
0
  6
CONTINUOUS
 10
12.415929
 20
-1.450175
  0
VERTEX
  8
0
  6
CONTINUOUS
 10
12.419123
 20
-1.565167
  0
VERTEX
  8
0
  6
CONTINUOUS
 10
12.157197
 20
-1.565167
  0
VERTEX
  8
0
  6
CONTINUOUS
 10
12.154003
 20
-1.475729
  0
VERTEX
  8
0
  6
CONTINUOUS
 10
12.154003
 20
-1.485312
  0
VERTEX
  8
0
  6
CONTINUOUS
 10
12.154003
 20
-1.469341
  0
SEQEND
  8
0
  0
POLYLINE
  8
0
  6
CONTINUOUS
 66
     1
 40
0.012777
 41
0.012777
  0
VERTEX
  8
0
  6
CONTINUOUS
 10
78.951508
 20
-2.804524
  0
VERTEX
  8
0
  6
CONTINUOUS
 10
78.961091
 20
-2.804524
  0
SEQEND
  8
0
  0
POLYLINE
  8
0
  6
CONTINUOUS
 66
     1
 40
0.012777
 41
0.012777
  0
VERTEX
  8
0
  6
CONTINUOUS
 10
78.951508
 20
-4.098183
  0
VERTEX
  8
0
  6
CONTINUOUS
 10
78.961091
 20
-4.098183
  0
SEQEND
  8
0
  0
POLYLINE
  8
0
  6
CONTINUOUS
 66
     1
 40
0.012777
 41
0.012777
  0
VERTEX
  8
0
  6
CONTINUOUS
 10
79.849084
 20
-4.079018
  0
VERTEX
  8
0
  6
CONTINUOUS
 10
79.849084
 20
-4.098183
  0
SEQEND
  8
0
  0
SOLID
  8
0
 62
    15
 10
6.727025
 20
-4.436770
 11
6.723831
 21
-3.711682
 12
6.755773
 22
-4.414411
 13
6.749385
 23
-3.689323
  0
POLYLINE
  8
0
  6
CONTINUOUS
 66
     1
 40
0.000000
 41
0.000000
  0
VERTEX
  8
0
  6
CONTINUOUS
 10
6.727025
 20
-4.436770
  0
VERTEX
  8
0
  6
CONTINUOUS
 10
6.723831
 20
-3.711682
  0
VERTEX
  8
0
  6
CONTINUOUS
 10
6.749385
 20
-3.689323
  0
VERTEX
  8
0
  6
CONTINUOUS
 10
6.755773
 20
-4.414411
  0
VERTEX
  8
0
  6
CONTINUOUS
 10
6.727025
 20
-4.436770
  0
SEQEND
  8
0
  0
SOLID
  8
0
 62
    15
 10
3.593496
 20
-4.590093
 11
3.590302
 21
-3.865005
 12
3.781955
 22
-4.590093
 13
3.775567
 23
-3.865005
  0
POLYLINE
  8
0
  6
CONTINUOUS
 66
     1
 40
0.000000
 41
0.000000
  0
VERTEX
  8
0
  6
CONTINUOUS
 10
3.593496
 20
-4.590093
  0
VERTEX
  8
0
  6
CONTINUOUS
 10
3.590302
 20
-3.865005
  0
VERTEX
  8
0
  6
CONTINUOUS
 10
3.775567
 20
-3.865005
  0
VERTEX
  8
0
  6
CONTINUOUS
 10
3.781955
 20
-4.590093
  0
VERTEX
  8
0
  6
CONTINUOUS
 10
3.593496
 20
-4.590093
  0
SEQEND
  8
0
  0
SOLID
  8
0
 62
    15
 10
3.781955
 20
-4.590093
 11
3.775567
 21
-3.865005
 12
3.781955
 22
-4.526208
 13
3.775567
 23
-3.797926
  0
POLYLINE
  8
0
  6
CONTINUOUS
 66
     1
 40
0.000000
 41
0.000000
  0
VERTEX
  8
0
  6
CONTINUOUS
 10
3.781955
 20
-4.590093
  0
VERTEX
  8
0
  6
CONTINUOUS
 10
3.775567
 20
-3.865005
  0
VERTEX
  8
0
  6
CONTINUOUS
 10
3.775567
 20
-3.797926
  0
VERTEX
  8
0
  6
CONTINUOUS
 10
3.781955
 20
-4.526208
  0
VERTEX
  8
0
  6
CONTINUOUS
 10
3.781955
 20
-4.590093
  0
SEQEND
  8
0
  0
SOLID
  8
0
 62
    15
 10
3.781955
 20
-4.519820
 11
3.778761
 21
-3.794732
 12
4.855213
 22
-4.328167
 13
4.848824
 23
-3.603079
  0
POLYLINE
  8
0
  6
CONTINUOUS
 66
     1
 40
0.000000
 41
0.000000
  0
VERTEX
  8
0
  6
CONTINUOUS
 10
3.781955
 20
-4.519820
  0
VERTEX
  8
0
  6
CONTINUOUS
 10
3.778761
 20
-3.794732
  0
VERTEX
  8
0
  6
CONTINUOUS
 10
4.848824
 20
-3.603079
  0
VERTEX
  8
0
  6
CONTINUOUS
 10
4.855213
 20
-4.328167
  0
VERTEX
  8
0
  6
CONTINUOUS
 10
3.781955
 20
-4.519820
  0
SEQEND
  8
0
  0
SOLID
  8
0
 62
    15
 10
4.855213
 20
-4.328167
 11
4.848824
 21
-3.603079
 12
4.858407
 22
-4.328167
 13
4.852019
 23
-3.603079
  0
POLYLINE
  8
0
  6
CONTINUOUS
 66
     1
 40
0.000000
 41
0.000000
  0
VERTEX
  8
0
  6
CONTINUOUS
 10
4.855213
 20
-4.328167
  0
VERTEX
  8
0
  6
CONTINUOUS
 10
4.848824
 20
-3.603079
  0
VERTEX
  8
0
  6
CONTINUOUS
 10
4.852019
 20
-3.603079
  0
VERTEX
  8
0
  6
CONTINUOUS
 10
4.858407
 20
-4.328167
  0
VERTEX
  8
0
  6
CONTINUOUS
 10
4.855213
 20
-4.328167
  0
SEQEND
  8
0
  0
SOLID
  8
0
 62
    15
 10
5.954024
 20
-4.583704
 11
5.947636
 21
-3.858616
 12
6.126512
 22
-4.583704
 13
6.120123
 23
-3.858616
  0
POLYLINE
  8
0
  6
CONTINUOUS
 66
     1
 40
0.000000
 41
0.000000
  0
VERTEX
  8
0
  6
CONTINUOUS
 10
5.954024
 20
-4.583704
  0
VERTEX
  8
0
  6
CONTINUOUS
 10
5.947636
 20
-3.858616
  0
VERTEX
  8
0
  6
CONTINUOUS
 10
6.120123
 20
-3.858616
  0
VERTEX
  8
0
  6
CONTINUOUS
 10
6.126512
 20
-4.583704
  0
VERTEX
  8
0
  6
CONTINUOUS
 10
5.954024
 20
-4.583704
  0
SEQEND
  8
0
  0
SOLID
  8
0
 62
    15
 10
4.858407
 20
-4.328167
 11
4.852019
 21
-3.603079
 12
5.954024
 22
-4.519820
 13
5.947636
 23
-3.794732
  0
POLYLINE
  8
0
  6
CONTINUOUS
 66
     1
 40
0.000000
 41
0.000000
  0
VERTEX
  8
0
  6
CONTINUOUS
 10
4.858407
 20
-4.328167
  0
VERTEX
  8
0
  6
CONTINUOUS
 10
4.852019
 20
-3.603079
  0
VERTEX
  8
0
  6
CONTINUOUS
 10
5.947636
 20
-3.794732
  0
VERTEX
  8
0
  6
CONTINUOUS
 10
5.954024
 20
-4.519820
  0
VERTEX
  8
0
  6
CONTINUOUS
 10
4.858407
 20
-4.328167
  0
SEQEND
  8
0
  0
SOLID
  8
0
 62
    15
 10
6.126512
 20
-4.583704
 11
6.120123
 21
-3.858616
 12
6.126512
 22
-4.334555
 13
6.120123
 23
-3.609467
  0
POLYLINE
  8
0
  6
CONTINUOUS
 66
     1
 40
0.000000
 41
0.000000
  0
VERTEX
  8
0
  6
CONTINUOUS
 10
6.126512
 20
-4.583704
  0
VERTEX
  8
0
  6
CONTINUOUS
 10
6.120123
 20
-3.858616
  0
VERTEX
  8
0
  6
CONTINUOUS
 10
6.120123
 20
-3.609467
  0
VERTEX
  8
0
  6
CONTINUOUS
 10
6.126512
 20
-4.334555
  0
VERTEX
  8
0
  6
CONTINUOUS
 10
6.126512
 20
-4.583704
  0
SEQEND
  8
0
  0
SOLID
  8
0
 62
    15
 10
6.548149
 20
-4.593287
 11
6.541760
 21
-3.865005
 12
6.672723
 22
-4.593287
 13
6.666335
 23
-3.865005
  0
POLYLINE
  8
0
  6
CONTINUOUS
 66
     1
 40
0.000000
 41
0.000000
  0
VERTEX
  8
0
  6
CONTINUOUS
 10
6.548149
 20
-4.593287
  0
VERTEX
  8
0
  6
CONTINUOUS
 10
6.541760
 20
-3.865005
  0
VERTEX
  8
0
  6
CONTINUOUS
 10
6.666335
 20
-3.865005
  0
VERTEX
  8
0
  6
CONTINUOUS
 10
6.672723
 20
-4.593287
  0
VERTEX
  8
0
  6
CONTINUOUS
 10
6.548149
 20
-4.593287
  0
SEQEND
  8
0
  0
SOLID
  8
0
 62
    15
 10
6.126512
 20
-4.334555
 11
6.120123
 21
-3.609467
 12
6.548149
 22
-4.334555
 13
6.541760
 23
-3.609467
  0
POLYLINE
  8
0
  6
CONTINUOUS
 66
     1
 40
0.000000
 41
0.000000
  0
VERTEX
  8
0
  6
CONTINUOUS
 10
6.126512
 20
-4.334555
  0
VERTEX
  8
0
  6
CONTINUOUS
 10
6.120123
 20
-3.609467
  0
VERTEX
  8
0
  6
CONTINUOUS
 10
6.541760
 20
-3.609467
  0
VERTEX
  8
0
  6
CONTINUOUS
 10
6.548149
 20
-4.334555
  0
VERTEX
  8
0
  6
CONTINUOUS
 10
6.126512
 20
-4.334555
  0
SEQEND
  8
0
  0
SOLID
  8
0
 62
    15
 10
6.672723
 20
-4.593287
 11
6.666335
 21
-3.865005
 12
6.672723
 22
-4.574121
 13
6.666335
 23
-3.845840
  0
POLYLINE
  8
0
  6
CONTINUOUS
 66
     1
 40
0.000000
 41
0.000000
  0
VERTEX
  8
0
  6
CONTINUOUS
 10
6.672723
 20
-4.593287
  0
VERTEX
  8
0
  6
CONTINUOUS
 10
6.666335
 20
-3.865005
  0
VERTEX
  8
0
  6
CONTINUOUS
 10
6.666335
 20
-3.845840
  0
VERTEX
  8
0
  6
CONTINUOUS
 10
6.672723
 20
-4.574121
  0
VERTEX
  8
0
  6
CONTINUOUS
 10
6.672723
 20
-4.593287
  0
SEQEND
  8
0
  0
SOLID
  8
0
 62
    15
 10
6.672723
 20
-4.574121
 11
6.666335
 21
-3.845840
 12
6.675917
 22
-4.535791
 13
6.669529
 23
-3.807509
  0
POLYLINE
  8
0
  6
CONTINUOUS
 66
     1
 40
0.000000
 41
0.000000
  0
VERTEX
  8
0
  6
CONTINUOUS
 10
6.672723
 20
-4.574121
  0
VERTEX
  8
0
  6
CONTINUOUS
 10
6.666335
 20
-3.845840
  0
VERTEX
  8
0
  6
CONTINUOUS
 10
6.669529
 20
-3.807509
  0
VERTEX
  8
0
  6
CONTINUOUS
 10
6.675917
 20
-4.535791
  0
VERTEX
  8
0
  6
CONTINUOUS
 10
6.672723
 20
-4.574121
  0
SEQEND
  8
0
  0
SOLID
  8
0
 62
    15
 10
6.675917
 20
-4.535791
 11
6.669529
 21
-3.807509
 12
6.685500
 22
-4.497460
 13
6.682306
 23
-3.772373
  0
POLYLINE
  8
0
  6
CONTINUOUS
 66
     1
 40
0.000000
 41
0.000000
  0
VERTEX
  8
0
  6
CONTINUOUS
 10
6.675917
 20
-4.535791
  0
VERTEX
  8
0
  6
CONTINUOUS
 10
6.669529
 20
-3.807509
  0
VERTEX
  8
0
  6
CONTINUOUS
 10
6.682306
 20
-3.772373
  0
VERTEX
  8
0
  6
CONTINUOUS
 10
6.685500
 20
-4.497460
  0
VERTEX
  8
0
  6
CONTINUOUS
 10
6.675917
 20
-4.535791
  0
SEQEND
  8
0
  0
SOLID
  8
0
 62
    15
 10
6.685500
 20
-4.497460
 11
6.682306
 21
-3.772373
 12
6.704665
 22
-4.465518
 13
6.698277
 23
-3.740430
  0
POLYLINE
  8
0
  6
CONTINUOUS
 66
     1
 40
0.000000
 41
0.000000
  0
VERTEX
  8
0
  6
CONTINUOUS
 10
6.685500
 20
-4.497460
  0
VERTEX
  8
0
  6
CONTINUOUS
 10
6.682306
 20
-3.772373
  0
VERTEX
  8
0
  6
CONTINUOUS
 10
6.698277
 20
-3.740430
  0
VERTEX
  8
0
  6
CONTINUOUS
 10
6.704665
 20
-4.465518
  0
VERTEX
  8
0
  6
CONTINUOUS
 10
6.685500
 20
-4.497460
  0
SEQEND
  8
0
  0
SOLID
  8
0
 62
    15
 10
6.704665
 20
-4.465518
 11
6.698277
 21
-3.740430
 12
6.727025
 22
-4.436770
 13
6.723831
 23
-3.711682
  0
POLYLINE
  8
0
  6
CONTINUOUS
 66
     1
 40
0.000000
 41
0.000000
  0
VERTEX
  8
0
  6
CONTINUOUS
 10
6.704665
 20
-4.465518
  0
VERTEX
  8
0
  6
CONTINUOUS
 10
6.698277
 20
-3.740430
  0
VERTEX
  8
0
  6
CONTINUOUS
 10
6.723831
 20
-3.711682
  0
VERTEX
  8
0
  6
CONTINUOUS
 10
6.727025
 20
-4.436770
  0
VERTEX
  8
0
  6
CONTINUOUS
 10
6.704665
 20
-4.465518
  0
SEQEND
  8
0
  0
SOLID
  8
0
 62
    15
 10
3.781955
 20
-4.526208
 11
3.775567
 21
-3.797926
 12
3.781955
 22
-4.519820
 13
3.778761
 23
-3.794732
  0
POLYLINE
  8
0
  6
CONTINUOUS
 66
     1
 40
0.000000
 41
0.000000
  0
VERTEX
  8
0
  6
CONTINUOUS
 10
3.781955
 20
-4.526208
  0
VERTEX
  8
0
  6
CONTINUOUS
 10
3.775567
 20
-3.797926
  0
VERTEX
  8
0
  6
CONTINUOUS
 10
3.778761
 20
-3.794732
  0
VERTEX
  8
0
  6
CONTINUOUS
 10
3.781955
 20
-4.519820
  0
VERTEX
  8
0
  6
CONTINUOUS
 10
3.781955
 20
-4.526208
  0
SEQEND
  8
0
  0
SOLID
  8
0
 62
    15
 10
6.755773
 20
-4.414411
 11
6.749385
 21
-3.689323
 12
6.787715
 22
-4.395245
 13
6.784521
 23
-3.670158
  0
POLYLINE
  8
0
  6
CONTINUOUS
 66
     1
 40
0.000000
 41
0.000000
  0
VERTEX
  8
0
  6
CONTINUOUS
 10
6.755773
 20
-4.414411
  0
VERTEX
  8
0
  6
CONTINUOUS
 10
6.749385
 20
-3.689323
  0
VERTEX
  8
0
  6
CONTINUOUS
 10
6.784521
 20
-3.670158
  0
VERTEX
  8
0
  6
CONTINUOUS
 10
6.787715
 20
-4.395245
  0
VERTEX
  8
0
  6
CONTINUOUS
 10
6.755773
 20
-4.414411
  0
SEQEND
  8
0
  0
SOLID
  8
0
 62
    15
 10
6.787715
 20
-4.395245
 11
6.784521
 21
-3.670158
 12
6.826046
 22
-4.385663
 13
6.819657
 23
-3.657381
  0
POLYLINE
  8
0
  6
CONTINUOUS
 66
     1
 40
0.000000
 41
0.000000
  0
VERTEX
  8
0
  6
CONTINUOUS
 10
6.787715
 20
-4.395245
  0
VERTEX
  8
0
  6
CONTINUOUS
 10
6.784521
 20
-3.670158
  0
VERTEX
  8
0
  6
CONTINUOUS
 10
6.819657
 20
-3.657381
  0
VERTEX
  8
0
  6
CONTINUOUS
 10
6.826046
 20
-4.385663
  0
VERTEX
  8
0
  6
CONTINUOUS
 10
6.787715
 20
-4.395245
  0
SEQEND
  8
0
  0
SOLID
  8
0
 62
    15
 10
6.848405
 20
-4.887155
 11
6.842017
 21
-4.162067
 12
7.046447
 22
-4.887155
 13
7.040058
 23
-4.162067
  0
POLYLINE
  8
0
  6
CONTINUOUS
 66
     1
 40
0.000000
 41
0.000000
  0
VERTEX
  8
0
  6
CONTINUOUS
 10
6.848405
 20
-4.887155
  0
VERTEX
  8
0
  6
CONTINUOUS
 10
6.842017
 20
-4.162067
  0
VERTEX
  8
0
  6
CONTINUOUS
 10
7.040058
 20
-4.162067
  0
VERTEX
  8
0
  6
CONTINUOUS
 10
7.046447
 20
-4.887155
  0
VERTEX
  8
0
  6
CONTINUOUS
 10
6.848405
 20
-4.887155
  0
SEQEND
  8
0
  0
SOLID
  8
0
 62
    15
 10
6.864376
 20
-4.382468
 11
6.857988
 21
-3.654186
 12
6.902707
 22
-4.385663
 13
6.896319
 23
-3.657381
  0
POLYLINE
  8
0
  6
CONTINUOUS
 66
     1
 40
0.000000
 41
0.000000
  0
VERTEX
  8
0
  6
CONTINUOUS
 10
6.864376
 20
-4.382468
  0
VERTEX
  8
0
  6
CONTINUOUS
 10
6.857988
 20
-3.654186
  0
VERTEX
  8
0
  6
CONTINUOUS
 10
6.896319
 20
-3.657381
  0
VERTEX
  8
0
  6
CONTINUOUS
 10
6.902707
 20
-4.385663
  0
VERTEX
  8
0
  6
CONTINUOUS
 10
6.864376
 20
-4.382468
  0
SEQEND
  8
0
  0
SOLID
  8
0
 62
    15
 10
6.902707
 20
-4.385663
 11
6.896319
 21
-3.657381
 12
6.937843
 22
-4.395245
 13
6.931455
 23
-3.670158
  0
POLYLINE
  8
0
  6
CONTINUOUS
 66
     1
 40
0.000000
 41
0.000000
  0
VERTEX
  8
0
  6
CONTINUOUS
 10
6.902707
 20
-4.385663
  0
VERTEX
  8
0
  6
CONTINUOUS
 10
6.896319
 20
-3.657381
  0
VERTEX
  8
0
  6
CONTINUOUS
 10
6.931455
 20
-3.670158
  0
VERTEX
  8
0
  6
CONTINUOUS
 10
6.937843
 20
-4.395245
  0
VERTEX
  8
0
  6
CONTINUOUS
 10
6.902707
 20
-4.385663
  0
SEQEND
  8
0
  0
SOLID
  8
0
 62
    15
 10
6.937843
 20
-4.395245
 11
6.931455
 21
-3.670158
 12
6.969786
 22
-4.414411
 13
6.963397
 23
-3.689323
  0
POLYLINE
  8
0
  6
CONTINUOUS
 66
     1
 40
0.000000
 41
0.000000
  0
VERTEX
  8
0
  6
CONTINUOUS
 10
6.937843
 20
-4.395245
  0
VERTEX
  8
0
  6
CONTINUOUS
 10
6.931455
 20
-3.670158
  0
VERTEX
  8
0
  6
CONTINUOUS
 10
6.963397
 20
-3.689323
  0
VERTEX
  8
0
  6
CONTINUOUS
 10
6.969786
 20
-4.414411
  0
VERTEX
  8
0
  6
CONTINUOUS
 10
6.937843
 20
-4.395245
  0
SEQEND
  8
0
  0
SOLID
  8
0
 62
    15
 10
6.969786
 20
-4.414411
 11
6.963397
 21
-3.689323
 12
6.998534
 22
-4.436770
 13
6.992145
 23
-3.711682
  0
POLYLINE
  8
0
  6
CONTINUOUS
 66
     1
 40
0.000000
 41
0.000000
  0
VERTEX
  8
0
  6
CONTINUOUS
 10
6.969786
 20
-4.414411
  0
VERTEX
  8
0
  6
CONTINUOUS
 10
6.963397
 20
-3.689323
  0
VERTEX
  8
0
  6
CONTINUOUS
 10
6.992145
 20
-3.711682
  0
VERTEX
  8
0
  6
CONTINUOUS
 10
6.998534
 20
-4.436770
  0
VERTEX
  8
0
  6
CONTINUOUS
 10
6.969786
 20
-4.414411
  0
SEQEND
  8
0
  0
SOLID
  8
0
 62
    15
 10
7.024087
 20
-4.465518
 11
7.017699
 21
-3.740430
 12
7.040058
 22
-4.497460
 13
7.033670
 23
-3.772373
  0
POLYLINE
  8
0
  6
CONTINUOUS
 66
     1
 40
0.000000
 41
0.000000
  0
VERTEX
  8
0
  6
CONTINUOUS
 10
7.024087
 20
-4.465518
  0
VERTEX
  8
0
  6
CONTINUOUS
 10
7.017699
 20
-3.740430
  0
VERTEX
  8
0
  6
CONTINUOUS
 10
7.033670
 20
-3.772373
  0
VERTEX
  8
0
  6
CONTINUOUS
 10
7.040058
 20
-4.497460
  0
VERTEX
  8
0
  6
CONTINUOUS
 10
7.024087
 20
-4.465518
  0
SEQEND
  8
0
  0
SOLID
  8
0
 62
    15
 10
6.998534
 20
-4.436770
 11
6.992145
 21
-3.711682
 12
7.024087
 22
-4.465518
 13
7.017699
 23
-3.740430
  0
POLYLINE
  8
0
  6
CONTINUOUS
 66
     1
 40
0.000000
 41
0.000000
  0
VERTEX
  8
0
  6
CONTINUOUS
 10
6.998534
 20
-4.436770
  0
VERTEX
  8
0
  6
CONTINUOUS
 10
6.992145
 20
-3.711682
  0
VERTEX
  8
0
  6
CONTINUOUS
 10
7.017699
 20
-3.740430
  0
VERTEX
  8
0
  6
CONTINUOUS
 10
7.024087
 20
-4.465518
  0
VERTEX
  8
0
  6
CONTINUOUS
 10
6.998534
 20
-4.436770
  0
SEQEND
  8
0
  0
SOLID
  8
0
 62
    15
 10
7.040058
 20
-4.497460
 11
7.033670
 21
-3.772373
 12
7.052835
 22
-4.535791
 13
7.046447
 23
-3.807509
  0
POLYLINE
  8
0
  6
CONTINUOUS
 66
     1
 40
0.000000
 41
0.000000
  0
VERTEX
  8
0
  6
CONTINUOUS
 10
7.040058
 20
-4.497460
  0
VERTEX
  8
0
  6
CONTINUOUS
 10
7.033670
 20
-3.772373
  0
VERTEX
  8
0
  6
CONTINUOUS
 10
7.046447
 20
-3.807509
  0
VERTEX
  8
0
  6
CONTINUOUS
 10
7.052835
 20
-4.535791
  0
VERTEX
  8
0
  6
CONTINUOUS
 10
7.040058
 20
-4.497460
  0
SEQEND
  8
0
  0
SOLID
  8
0
 62
    15
 10
7.052835
 20
-4.535791
 11
7.046447
 21
-3.807509
 12
7.056030
 22
-4.574121
 13
7.049641
 23
-3.845840
  0
POLYLINE
  8
0
  6
CONTINUOUS
 66
     1
 40
0.000000
 41
0.000000
  0
VERTEX
  8
0
  6
CONTINUOUS
 10
7.052835
 20
-4.535791
  0
VERTEX
  8
0
  6
CONTINUOUS
 10
7.046447
 20
-3.807509
  0
VERTEX
  8
0
  6
CONTINUOUS
 10
7.049641
 20
-3.845840
  0
VERTEX
  8
0
  6
CONTINUOUS
 10
7.056030
 20
-4.574121
  0
VERTEX
  8
0
  6
CONTINUOUS
 10
7.052835
 20
-4.535791
  0
SEQEND
  8
0
  0
SOLID
  8
0
 62
    15
 10
6.826046
 20
-4.385663
 11
6.819657
 21
-3.657381
 12
6.864376
 22
-4.382468
 13
6.857988
 23
-3.654186
  0
POLYLINE
  8
0
  6
CONTINUOUS
 66
     1
 40
0.000000
 41
0.000000
  0
VERTEX
  8
0
  6
CONTINUOUS
 10
6.826046
 20
-4.385663
  0
VERTEX
  8
0
  6
CONTINUOUS
 10
6.819657
 20
-3.657381
  0
VERTEX
  8
0
  6
CONTINUOUS
 10
6.857988
 20
-3.654186
  0
VERTEX
  8
0
  6
CONTINUOUS
 10
6.864376
 20
-4.382468
  0
VERTEX
  8
0
  6
CONTINUOUS
 10
6.826046
 20
-4.385663
  0
SEQEND
  8
0
  0
SOLID
  8
0
 62
    15
 10
1.645023
 20
-5.382259
 11
1.641829
 21
-4.657171
 12
1.645023
 22
-4.331361
 13
1.641829
 23
-3.606273
  0
POLYLINE
  8
0
  6
CONTINUOUS
 66
     1
 40
0.000000
 41
0.000000
  0
VERTEX
  8
0
  6
CONTINUOUS
 10
1.645023
 20
-5.382259
  0
VERTEX
  8
0
  6
CONTINUOUS
 10
1.641829
 20
-4.657171
  0
VERTEX
  8
0
  6
CONTINUOUS
 10
1.641829
 20
-3.606273
  0
VERTEX
  8
0
  6
CONTINUOUS
 10
1.645023
 20
-4.331361
  0
VERTEX
  8
0
  6
CONTINUOUS
 10
1.645023
 20
-5.382259
  0
SEQEND
  8
0
  0
SOLID
  8
0
 62
    15
 10
1.645023
 20
-4.331361
 11
1.641829
 21
-3.606273
 12
3.593496
 22
-4.331361
 13
3.590302
 23
-3.606273
  0
POLYLINE
  8
0
  6
CONTINUOUS
 66
     1
 40
0.000000
 41
0.000000
  0
VERTEX
  8
0
  6
CONTINUOUS
 10
1.645023
 20
-4.331361
  0
VERTEX
  8
0
  6
CONTINUOUS
 10
1.641829
 20
-3.606273
  0
VERTEX
  8
0
  6
CONTINUOUS
 10
3.590302
 20
-3.606273
  0
VERTEX
  8
0
  6
CONTINUOUS
 10
3.593496
 20
-4.331361
  0
VERTEX
  8
0
  6
CONTINUOUS
 10
1.645023
 20
-4.331361
  0
SEQEND
  8
0
  0
POLYLINE
  8
0
  6
CONTINUOUS
 66
     1
 40
0.000000
 41
0.000000
  0
VERTEX
  8
0
  6
CONTINUOUS
 10
3.593496
 20
-4.337749
  0
VERTEX
  8
0
  6
CONTINUOUS
 10
3.593496
 20
-4.590093
  0
VERTEX
  8
0
  6
CONTINUOUS
 10
3.781955
 20
-4.590093
  0
VERTEX
  8
0
  6
CONTINUOUS
 10
3.781955
 20
-4.526208
  0
VERTEX
  8
0
  6
CONTINUOUS
 10
3.781955
 20
-4.519820
  0
VERTEX
  8
0
  6
CONTINUOUS
 10
4.855213
 20
-4.328167
  0
VERTEX
  8
0
  6
CONTINUOUS
 10
4.858407
 20
-4.328167
  0
VERTEX
  8
0
  6
CONTINUOUS
 10
5.954024
 20
-4.519820
  0
VERTEX
  8
0
  6
CONTINUOUS
 10
5.954024
 20
-4.583704
  0
VERTEX
  8
0
  6
CONTINUOUS
 10
6.126512
 20
-4.583704
  0
VERTEX
  8
0
  6
CONTINUOUS
 10
6.126512
 20
-4.334555
  0
VERTEX
  8
0
  6
CONTINUOUS
 10
6.548149
 20
-4.334555
  0
VERTEX
  8
0
  6
CONTINUOUS
 10
6.548149
 20
-4.593287
  0
VERTEX
  8
0
  6
CONTINUOUS
 10
6.672723
 20
-4.593287
  0
VERTEX
  8
0
  6
CONTINUOUS
 10
6.672723
 20
-4.574121
  0
VERTEX
  8
0
  6
CONTINUOUS
 10
6.675917
 20
-4.535791
  0
VERTEX
  8
0
  6
CONTINUOUS
 10
6.685500
 20
-4.497460
  0
VERTEX
  8
0
  6
CONTINUOUS
 10
6.704665
 20
-4.465518
  0
VERTEX
  8
0
  6
CONTINUOUS
 10
6.727025
 20
-4.436770
  0
VERTEX
  8
0
  6
CONTINUOUS
 10
6.755773
 20
-4.414411
  0
VERTEX
  8
0
  6
CONTINUOUS
 10
6.787715
 20
-4.395245
  0
VERTEX
  8
0
  6
CONTINUOUS
 10
6.826046
 20
-4.385663
  0
VERTEX
  8
0
  6
CONTINUOUS
 10
6.864376
 20
-4.382468
  0
VERTEX
  8
0
  6
CONTINUOUS
 10
6.902707
 20
-4.385663
  0
VERTEX
  8
0
  6
CONTINUOUS
 10
6.937843
 20
-4.395245
  0
VERTEX
  8
0
  6
CONTINUOUS
 10
6.969786
 20
-4.414411
  0
VERTEX
  8
0
  6
CONTINUOUS
 10
6.998534
 20
-4.436770
  0
VERTEX
  8
0
  6
CONTINUOUS
 10
7.024087
 20
-4.465518
  0
VERTEX
  8
0
  6
CONTINUOUS
 10
7.040058
 20
-4.497460
  0
VERTEX
  8
0
  6
CONTINUOUS
 10
7.052835
 20
-4.535791
  0
VERTEX
  8
0
  6
CONTINUOUS
 10
7.056030
 20
-4.574121
  0
VERTEX
  8
0
  6
CONTINUOUS
 10
7.052835
 20
-4.612452
  0
VERTEX
  8
0
  6
CONTINUOUS
 10
7.040058
 20
-4.647588
  0
VERTEX
  8
0
  6
CONTINUOUS
 10
7.024087
 20
-4.679531
  0
VERTEX
  8
0
  6
CONTINUOUS
 10
7.001728
 20
-4.708279
  0
VERTEX
  8
0
  6
CONTINUOUS
 10
6.972980
 20
-4.730638
  0
VERTEX
  8
0
  6
CONTINUOUS
 10
6.941038
 20
-4.749804
  0
VERTEX
  8
0
  6
CONTINUOUS
 10
6.905901
 20
-4.762580
  0
VERTEX
  8
0
  6
CONTINUOUS
 10
6.867571
 20
-4.765775
  0
VERTEX
  8
0
  6
CONTINUOUS
 10
6.848405
 20
-4.765775
  0
VERTEX
  8
0
  6
CONTINUOUS
 10
6.848405
 20
-4.887155
  0
VERTEX
  8
0
  6
CONTINUOUS
 10
7.046447
 20
-4.887155
  0
VERTEX
  8
0
  6
CONTINUOUS
 10
7.046447
 20
-5.382259
  0
VERTEX
  8
0
  6
CONTINUOUS
 10
1.645023
 20
-5.382259
  0
VERTEX
  8
0
  6
CONTINUOUS
 10
1.645023
 20
-4.331361
  0
VERTEX
  8
0
  6
CONTINUOUS
 10
3.593496
 20
-4.331361
  0
VERTEX
  8
0
  6
CONTINUOUS
 10
3.593496
 20
-4.337749
  0
SEQEND
  8
0
  0
SOLID
  8
0
 62
     7
 10
2.411635
 20
-4.008745
 11
2.408441
 21
-3.245326
 12
2.456354
 22
-4.037493
 13
2.453160
 23
-3.274074
  0
POLYLINE
  8
0
  6
CONTINUOUS
 66
     1
 40
0.000000
 41
0.000000
  0
VERTEX
  8
0
  6
CONTINUOUS
 10
2.411635
 20
-4.008745
  0
VERTEX
  8
0
  6
CONTINUOUS
 10
2.408441
 20
-3.245326
  0
VERTEX
  8
0
  6
CONTINUOUS
 10
2.453160
 20
-3.274074
  0
VERTEX
  8
0
  6
CONTINUOUS
 10
2.456354
 20
-4.037493
  0
VERTEX
  8
0
  6
CONTINUOUS
 10
2.411635
 20
-4.008745
  0
SEQEND
  8
0
  0
SOLID
  8
0
 62
    15
 10
1.648217
 20
-3.625438
 11
1.645023
 21
-2.858826
 12
1.740849
 22
-3.625438
 13
1.737655
 23
-2.858826
  0
POLYLINE
  8
0
  6
CONTINUOUS
 66
     1
 40
0.000000
 41
0.000000
  0
VERTEX
  8
0
  6
CONTINUOUS
 10
1.648217
 20
-3.625438
  0
VERTEX
  8
0
  6
CONTINUOUS
 10
1.645023
 20
-2.858826
  0
VERTEX
  8
0
  6
CONTINUOUS
 10
1.737655
 20
-2.858826
  0
VERTEX
  8
0
  6
CONTINUOUS
 10
1.740849
 20
-3.625438
  0
VERTEX
  8
0
  6
CONTINUOUS
 10
1.648217
 20
-3.625438
  0
SEQEND
  8
0
  0
SOLID
  8
0
 62
    15
 10
1.740849
 20
-3.625438
 11
1.737655
 21
-2.858826
 12
1.740849
 22
-3.609467
 13
1.737655
 23
-2.842855
  0
POLYLINE
  8
0
  6
CONTINUOUS
 66
     1
 40
0.000000
 41
0.000000
  0
VERTEX
  8
0
  6
CONTINUOUS
 10
1.740849
 20
-3.625438
  0
VERTEX
  8
0
  6
CONTINUOUS
 10
1.737655
 20
-2.858826
  0
VERTEX
  8
0
  6
CONTINUOUS
 10
1.737655
 20
-2.842855
  0
VERTEX
  8
0
  6
CONTINUOUS
 10
1.740849
 20
-3.609467
  0
VERTEX
  8
0
  6
CONTINUOUS
 10
1.740849
 20
-3.625438
  0
SEQEND
  8
0
  0
SOLID
  8
0
 62
    15
 10
1.744044
 20
-3.587108
 11
1.740849
 21
-2.823690
 12
1.750432
 22
-3.564748
 13
1.747238
 23
-2.801330
  0
POLYLINE
  8
0
  6
CONTINUOUS
 66
     1
 40
0.000000
 41
0.000000
  0
VERTEX
  8
0
  6
CONTINUOUS
 10
1.744044
 20
-3.587108
  0
VERTEX
  8
0
  6
CONTINUOUS
 10
1.740849
 20
-2.823690
  0
VERTEX
  8
0
  6
CONTINUOUS
 10
1.747238
 20
-2.801330
  0
VERTEX
  8
0
  6
CONTINUOUS
 10
1.750432
 20
-3.564748
  0
VERTEX
  8
0
  6
CONTINUOUS
 10
1.744044
 20
-3.587108
  0
SEQEND
  8
0
  0
SOLID
  8
0
 62
    15
 10
1.750432
 20
-3.564748
 11
1.747238
 21
-2.801330
 12
1.760015
 22
-3.545583
 13
1.756820
 23
-2.782165
  0
POLYLINE
  8
0
  6
CONTINUOUS
 66
     1
 40
0.000000
 41
0.000000
  0
VERTEX
  8
0
  6
CONTINUOUS
 10
1.750432
 20
-3.564748
  0
VERTEX
  8
0
  6
CONTINUOUS
 10
1.747238
 20
-2.801330
  0
VERTEX
  8
0
  6
CONTINUOUS
 10
1.756820
 20
-2.782165
  0
VERTEX
  8
0
  6
CONTINUOUS
 10
1.760015
 20
-3.545583
  0
VERTEX
  8
0
  6
CONTINUOUS
 10
1.750432
 20
-3.564748
  0
SEQEND
  8
0
  0
SOLID
  8
0
 62
    15
 10
1.760015
 20
-3.545583
 11
1.756820
 21
-2.782165
 12
1.775986
 22
-3.529612
 13
1.769597
 23
-2.766194
  0
POLYLINE
  8
0
  6
CONTINUOUS
 66
     1
 40
0.000000
 41
0.000000
  0
VERTEX
  8
0
  6
CONTINUOUS
 10
1.760015
 20
-3.545583
  0
VERTEX
  8
0
  6
CONTINUOUS
 10
1.756820
 20
-2.782165
  0
VERTEX
  8
0
  6
CONTINUOUS
 10
1.769597
 20
-2.766194
  0
VERTEX
  8
0
  6
CONTINUOUS
 10
1.775986
 20
-3.529612
  0
VERTEX
  8
0
  6
CONTINUOUS
 10
1.760015
 20
-3.545583
  0
SEQEND
  8
0
  0
SOLID
  8
0
 62
    15
 10
1.775986
 20
-3.529612
 11
1.769597
 21
-2.766194
 12
1.791957
 22
-3.516835
 13
1.785568
 23
-2.753417
  0
POLYLINE
  8
0
  6
CONTINUOUS
 66
     1
 40
0.000000
 41
0.000000
  0
VERTEX
  8
0
  6
CONTINUOUS
 10
1.775986
 20
-3.529612
  0
VERTEX
  8
0
  6
CONTINUOUS
 10
1.769597
 20
-2.766194
  0
VERTEX
  8
0
  6
CONTINUOUS
 10
1.785568
 20
-2.753417
  0
VERTEX
  8
0
  6
CONTINUOUS
 10
1.791957
 20
-3.516835
  0
VERTEX
  8
0
  6
CONTINUOUS
 10
1.775986
 20
-3.529612
  0
SEQEND
  8
0
  0
SOLID
  8
0
 62
    15
 10
1.791957
 20
-3.516835
 11
1.785568
 21
-2.753417
 12
1.811122
 22
-3.507252
 13
1.804734
 23
-2.743834
  0
POLYLINE
  8
0
  6
CONTINUOUS
 66
     1
 40
0.000000
 41
0.000000
  0
VERTEX
  8
0
  6
CONTINUOUS
 10
1.791957
 20
-3.516835
  0
VERTEX
  8
0
  6
CONTINUOUS
 10
1.785568
 20
-2.753417
  0
VERTEX
  8
0
  6
CONTINUOUS
 10
1.804734
 20
-2.743834
  0
VERTEX
  8
0
  6
CONTINUOUS
 10
1.811122
 20
-3.507252
  0
VERTEX
  8
0
  6
CONTINUOUS
 10
1.791957
 20
-3.516835
  0
SEQEND
  8
0
  0
SOLID
  8
0
 62
    15
 10
1.811122
 20
-3.507252
 11
1.804734
 21
-2.743834
 12
1.830287
 22
-3.500864
 13
1.827093
 23
-2.737446
  0
POLYLINE
  8
0
  6
CONTINUOUS
 66
     1
 40
0.000000
 41
0.000000
  0
VERTEX
  8
0
  6
CONTINUOUS
 10
1.811122
 20
-3.507252
  0
VERTEX
  8
0
  6
CONTINUOUS
 10
1.804734
 20
-2.743834
  0
VERTEX
  8
0
  6
CONTINUOUS
 10
1.827093
 20
-2.737446
  0
VERTEX
  8
0
  6
CONTINUOUS
 10
1.830287
 20
-3.500864
  0
VERTEX
  8
0
  6
CONTINUOUS
 10
1.811122
 20
-3.507252
  0
SEQEND
  8
0
  0
SOLID
  8
0
 62
    15
 10
1.830287
 20
-3.500864
 11
1.827093
 21
-2.737446
 12
1.852647
 22
-3.497670
 13
1.849453
 23
-2.734251
  0
POLYLINE
  8
0
  6
CONTINUOUS
 66
     1
 40
0.000000
 41
0.000000
  0
VERTEX
  8
0
  6
CONTINUOUS
 10
1.830287
 20
-3.500864
  0
VERTEX
  8
0
  6
CONTINUOUS
 10
1.827093
 20
-2.737446
  0
VERTEX
  8
0
  6
CONTINUOUS
 10
1.849453
 20
-2.734251
  0
VERTEX
  8
0
  6
CONTINUOUS
 10
1.852647
 20
-3.497670
  0
VERTEX
  8
0
  6
CONTINUOUS
 10
1.830287
 20
-3.500864
  0
SEQEND
  8
0
  0
SOLID
  8
0
 62
    15
 10
1.852647
 20
-3.497670
 11
1.849453
 21
-2.734251
 12
1.875006
 22
-3.500864
 13
1.868618
 23
-2.737446
  0
POLYLINE
  8
0
  6
CONTINUOUS
 66
     1
 40
0.000000
 41
0.000000
  0
VERTEX
  8
0
  6
CONTINUOUS
 10
1.852647
 20
-3.497670
  0
VERTEX
  8
0
  6
CONTINUOUS
 10
1.849453
 20
-2.734251
  0
VERTEX
  8
0
  6
CONTINUOUS
 10
1.868618
 20
-2.737446
  0
VERTEX
  8
0
  6
CONTINUOUS
 10
1.875006
 20
-3.500864
  0
VERTEX
  8
0
  6
CONTINUOUS
 10
1.852647
 20
-3.497670
  0
SEQEND
  8
0
  0
SOLID
  8
0
 62
     7
 10
1.875006
 20
-3.500864
 11
1.868618
 21
-2.737446
 12
1.894172
 22
-3.507252
 13
1.890978
 23
-2.743834
  0
POLYLINE
  8
0
  6
CONTINUOUS
 66
     1
 40
0.000000
 41
0.000000
  0
VERTEX
  8
0
  6
CONTINUOUS
 10
1.875006
 20
-3.500864
  0
VERTEX
  8
0
  6
CONTINUOUS
 10
1.868618
 20
-2.737446
  0
VERTEX
  8
0
  6
CONTINUOUS
 10
1.890978
 20
-2.743834
  0
VERTEX
  8
0
  6
CONTINUOUS
 10
1.894172
 20
-3.507252
  0
VERTEX
  8
0
  6
CONTINUOUS
 10
1.875006
 20
-3.500864
  0
SEQEND
  8
0
  0
SOLID
  8
0
 62
     7
 10
1.894172
 20
-3.507252
 11
1.890978
 21
-2.743834
 12
1.913337
 22
-3.516835
 13
1.910143
 23
-2.753417
  0
POLYLINE
  8
0
  6
CONTINUOUS
 66
     1
 40
0.000000
 41
0.000000
  0
VERTEX
  8
0
  6
CONTINUOUS
 10
1.894172
 20
-3.507252
  0
VERTEX
  8
0
  6
CONTINUOUS
 10
1.890978
 20
-2.743834
  0
VERTEX
  8
0
  6
CONTINUOUS
 10
1.910143
 20
-2.753417
  0
VERTEX
  8
0
  6
CONTINUOUS
 10
1.913337
 20
-3.516835
  0
VERTEX
  8
0
  6
CONTINUOUS
 10
1.894172
 20
-3.507252
  0
SEQEND
  8
0
  0
SOLID
  8
0
 62
     7
 10
1.913337
 20
-3.516835
 11
1.910143
 21
-2.753417
 12
1.929308
 22
-3.529612
 13
1.926114
 23
-2.766194
  0
POLYLINE
  8
0
  6
CONTINUOUS
 66
     1
 40
0.000000
 41
0.000000
  0
VERTEX
  8
0
  6
CONTINUOUS
 10
1.913337
 20
-3.516835
  0
VERTEX
  8
0
  6
CONTINUOUS
 10
1.910143
 20
-2.753417
  0
VERTEX
  8
0
  6
CONTINUOUS
 10
1.926114
 20
-2.766194
  0
VERTEX
  8
0
  6
CONTINUOUS
 10
1.929308
 20
-3.529612
  0
VERTEX
  8
0
  6
CONTINUOUS
 10
1.913337
 20
-3.516835
  0
SEQEND
  8
0
  0
SOLID
  8
0
 62
    15
 10
1.929308
 20
-3.529612
 11
1.926114
 21
-2.766194
 12
1.945279
 22
-3.545583
 13
1.938891
 23
-2.782165
  0
POLYLINE
  8
0
  6
CONTINUOUS
 66
     1
 40
0.000000
 41
0.000000
  0
VERTEX
  8
0
  6
CONTINUOUS
 10
1.929308
 20
-3.529612
  0
VERTEX
  8
0
  6
CONTINUOUS
 10
1.926114
 20
-2.766194
  0
VERTEX
  8
0
  6
CONTINUOUS
 10
1.938891
 20
-2.782165
  0
VERTEX
  8
0
  6
CONTINUOUS
 10
1.945279
 20
-3.545583
  0
VERTEX
  8
0
  6
CONTINUOUS
 10
1.929308
 20
-3.529612
  0
SEQEND
  8
0
  0
SOLID
  8
0
 62
    15
 10
1.945279
 20
-3.545583
 11
1.938891
 21
-2.782165
 12
1.954862
 22
-3.564748
 13
1.948474
 23
-2.801330
  0
POLYLINE
  8
0
  6
CONTINUOUS
 66
     1
 40
0.000000
 41
0.000000
  0
VERTEX
  8
0
  6
CONTINUOUS
 10
1.945279
 20
-3.545583
  0
VERTEX
  8
0
  6
CONTINUOUS
 10
1.938891
 20
-2.782165
  0
VERTEX
  8
0
  6
CONTINUOUS
 10
1.948474
 20
-2.801330
  0
VERTEX
  8
0
  6
CONTINUOUS
 10
1.954862
 20
-3.564748
  0
VERTEX
  8
0
  6
CONTINUOUS
 10
1.945279
 20
-3.545583
  0
SEQEND
  8
0
  0
SOLID
  8
0
 62
    15
 10
1.954862
 20
-3.564748
 11
1.948474
 21
-2.801330
 12
1.961250
 22
-3.587108
 13
1.954862
 23
-2.823690
  0
POLYLINE
  8
0
  6
CONTINUOUS
 66
     1
 40
0.000000
 41
0.000000
  0
VERTEX
  8
0
  6
CONTINUOUS
 10
1.954862
 20
-3.564748
  0
VERTEX
  8
0
  6
CONTINUOUS
 10
1.948474
 20
-2.801330
  0
VERTEX
  8
0
  6
CONTINUOUS
 10
1.954862
 20
-2.823690
  0
VERTEX
  8
0
  6
CONTINUOUS
 10
1.961250
 20
-3.587108
  0
VERTEX
  8
0
  6
CONTINUOUS
 10
1.954862
 20
-3.564748
  0
SEQEND
  8
0
  0
SOLID
  8
0
 62
    15
 10
1.964445
 20
-3.625438
 11
1.958056
 21
-2.858826
 12
2.146515
 22
-3.625438
 13
2.140127
 23
-2.858826
  0
POLYLINE
  8
0
  6
CONTINUOUS
 66
     1
 40
0.000000
 41
0.000000
  0
VERTEX
  8
0
  6
CONTINUOUS
 10
1.964445
 20
-3.625438
  0
VERTEX
  8
0
  6
CONTINUOUS
 10
1.958056
 20
-2.858826
  0
VERTEX
  8
0
  6
CONTINUOUS
 10
2.140127
 20
-2.858826
  0
VERTEX
  8
0
  6
CONTINUOUS
 10
2.146515
 20
-3.625438
  0
VERTEX
  8
0
  6
CONTINUOUS
 10
1.964445
 20
-3.625438
  0
SEQEND
  8
0
  0
SOLID
  8
0
 62
    15
 10
1.961250
 20
-3.587108
 11
1.954862
 21
-2.823690
 12
1.964445
 22
-3.609467
 13
1.958056
 23
-2.842855
  0
POLYLINE
  8
0
  6
CONTINUOUS
 66
     1
 40
0.000000
 41
0.000000
  0
VERTEX
  8
0
  6
CONTINUOUS
 10
1.961250
 20
-3.587108
  0
VERTEX
  8
0
  6
CONTINUOUS
 10
1.954862
 20
-2.823690
  0
VERTEX
  8
0
  6
CONTINUOUS
 10
1.958056
 20
-2.842855
  0
VERTEX
  8
0
  6
CONTINUOUS
 10
1.964445
 20
-3.609467
  0
VERTEX
  8
0
  6
CONTINUOUS
 10
1.961250
 20
-3.587108
  0
SEQEND
  8
0
  0
SOLID
  8
0
 62
    15
 10
2.146515
 20
-3.625438
 11
2.140127
 21
-2.858826
 12
2.159292
 22
-3.676546
 13
2.152904
 23
-2.909933
  0
POLYLINE
  8
0
  6
CONTINUOUS
 66
     1
 40
0.000000
 41
0.000000
  0
VERTEX
  8
0
  6
CONTINUOUS
 10
2.146515
 20
-3.625438
  0
VERTEX
  8
0
  6
CONTINUOUS
 10
2.140127
 20
-2.858826
  0
VERTEX
  8
0
  6
CONTINUOUS
 10
2.152904
 20
-2.909933
  0
VERTEX
  8
0
  6
CONTINUOUS
 10
2.159292
 20
-3.676546
  0
VERTEX
  8
0
  6
CONTINUOUS
 10
2.146515
 20
-3.625438
  0
SEQEND
  8
0
  0
SOLID
  8
0
 62
    15
 10
2.159292
 20
-3.676546
 11
2.152904
 21
-2.909933
 12
2.175263
 22
-3.724459
 13
2.172069
 23
-2.961041
  0
POLYLINE
  8
0
  6
CONTINUOUS
 66
     1
 40
0.000000
 41
0.000000
  0
VERTEX
  8
0
  6
CONTINUOUS
 10
2.159292
 20
-3.676546
  0
VERTEX
  8
0
  6
CONTINUOUS
 10
2.152904
 20
-2.909933
  0
VERTEX
  8
0
  6
CONTINUOUS
 10
2.172069
 20
-2.961041
  0
VERTEX
  8
0
  6
CONTINUOUS
 10
2.175263
 20
-3.724459
  0
VERTEX
  8
0
  6
CONTINUOUS
 10
2.159292
 20
-3.676546
  0
SEQEND
  8
0
  0
SOLID
  8
0
 62
    15
 10
2.175263
 20
-3.724459
 11
2.172069
 21
-2.961041
 12
2.197623
 22
-3.772373
 13
2.194428
 23
-3.008954
  0
POLYLINE
  8
0
  6
CONTINUOUS
 66
     1
 40
0.000000
 41
0.000000
  0
VERTEX
  8
0
  6
CONTINUOUS
 10
2.175263
 20
-3.724459
  0
VERTEX
  8
0
  6
CONTINUOUS
 10
2.172069
 20
-2.961041
  0
VERTEX
  8
0
  6
CONTINUOUS
 10
2.194428
 20
-3.008954
  0
VERTEX
  8
0
  6
CONTINUOUS
 10
2.197623
 20
-3.772373
  0
VERTEX
  8
0
  6
CONTINUOUS
 10
2.175263
 20
-3.724459
  0
SEQEND
  8
0
  0
SOLID
  8
0
 62
    15
 10
2.197623
 20
-3.772373
 11
2.194428
 21
-3.008954
 12
2.223176
 22
-3.817092
 13
2.219982
 23
-3.053673
  0
POLYLINE
  8
0
  6
CONTINUOUS
 66
     1
 40
0.000000
 41
0.000000
  0
VERTEX
  8
0
  6
CONTINUOUS
 10
2.197623
 20
-3.772373
  0
VERTEX
  8
0
  6
CONTINUOUS
 10
2.194428
 20
-3.008954
  0
VERTEX
  8
0
  6
CONTINUOUS
 10
2.219982
 20
-3.053673
  0
VERTEX
  8
0
  6
CONTINUOUS
 10
2.223176
 20
-3.817092
  0
VERTEX
  8
0
  6
CONTINUOUS
 10
2.197623
 20
-3.772373
  0
SEQEND
  8
0
  0
SOLID
  8
0
 62
    15
 10
2.223176
 20
-3.817092
 11
2.219982
 21
-3.053673
 12
2.255119
 22
-3.861811
 13
2.251924
 23
-3.098392
  0
POLYLINE
  8
0
  6
CONTINUOUS
 66
     1
 40
0.000000
 41
0.000000
  0
VERTEX
  8
0
  6
CONTINUOUS
 10
2.223176
 20
-3.817092
  0
VERTEX
  8
0
  6
CONTINUOUS
 10
2.219982
 20
-3.053673
  0
VERTEX
  8
0
  6
CONTINUOUS
 10
2.251924
 20
-3.098392
  0
VERTEX
  8
0
  6
CONTINUOUS
 10
2.255119
 20
-3.861811
  0
VERTEX
  8
0
  6
CONTINUOUS
 10
2.223176
 20
-3.817092
  0
SEQEND
  8
0
  0
SOLID
  8
0
 62
    15
 10
2.255119
 20
-3.861811
 11
2.251924
 21
-3.098392
 12
2.290255
 22
-3.903335
 13
2.283867
 23
-3.139917
  0
POLYLINE
  8
0
  6
CONTINUOUS
 66
     1
 40
0.000000
 41
0.000000
  0
VERTEX
  8
0
  6
CONTINUOUS
 10
2.255119
 20
-3.861811
  0
VERTEX
  8
0
  6
CONTINUOUS
 10
2.251924
 20
-3.098392
  0
VERTEX
  8
0
  6
CONTINUOUS
 10
2.283867
 20
-3.139917
  0
VERTEX
  8
0
  6
CONTINUOUS
 10
2.290255
 20
-3.903335
  0
VERTEX
  8
0
  6
CONTINUOUS
 10
2.255119
 20
-3.861811
  0
SEQEND
  8
0
  0
SOLID
  8
0
 62
     7
 10
2.290255
 20
-3.903335
 11
2.283867
 21
-3.139917
 12
2.328586
 22
-3.941666
 13
2.322197
 23
-3.178248
  0
POLYLINE
  8
0
  6
CONTINUOUS
 66
     1
 40
0.000000
 41
0.000000
  0
VERTEX
  8
0
  6
CONTINUOUS
 10
2.290255
 20
-3.903335
  0
VERTEX
  8
0
  6
CONTINUOUS
 10
2.283867
 20
-3.139917
  0
VERTEX
  8
0
  6
CONTINUOUS
 10
2.322197
 20
-3.178248
  0
VERTEX
  8
0
  6
CONTINUOUS
 10
2.328586
 20
-3.941666
  0
VERTEX
  8
0
  6
CONTINUOUS
 10
2.290255
 20
-3.903335
  0
SEQEND
  8
0
  0
SOLID
  8
0
 62
     7
 10
2.328586
 20
-3.941666
 11
2.322197
 21
-3.178248
 12
2.366916
 22
-3.976803
 13
2.363722
 23
-3.213384
  0
POLYLINE
  8
0
  6
CONTINUOUS
 66
     1
 40
0.000000
 41
0.000000
  0
VERTEX
  8
0
  6
CONTINUOUS
 10
2.328586
 20
-3.941666
  0
VERTEX
  8
0
  6
CONTINUOUS
 10
2.322197
 20
-3.178248
  0
VERTEX
  8
0
  6
CONTINUOUS
 10
2.363722
 20
-3.213384
  0
VERTEX
  8
0
  6
CONTINUOUS
 10
2.366916
 20
-3.976803
  0
VERTEX
  8
0
  6
CONTINUOUS
 10
2.328586
 20
-3.941666
  0
SEQEND
  8
0
  0
SOLID
  8
0
 62
     7
 10
2.366916
 20
-3.976803
 11
2.363722
 21
-3.213384
 12
2.411635
 22
-4.008745
 13
2.408441
 23
-3.245326
  0
POLYLINE
  8
0
  6
CONTINUOUS
 66
     1
 40
0.000000
 41
0.000000
  0
VERTEX
  8
0
  6
CONTINUOUS
 10
2.366916
 20
-3.976803
  0
VERTEX
  8
0
  6
CONTINUOUS
 10
2.363722
 20
-3.213384
  0
VERTEX
  8
0
  6
CONTINUOUS
 10
2.408441
 20
-3.245326
  0
VERTEX
  8
0
  6
CONTINUOUS
 10
2.411635
 20
-4.008745
  0
VERTEX
  8
0
  6
CONTINUOUS
 10
2.366916
 20
-3.976803
  0
SEQEND
  8
0
  0
SOLID
  8
0
 62
    15
 10
1.740849
 20
-3.609467
 11
1.737655
 21
-2.842855
 12
1.744044
 22
-3.587108
 13
1.740849
 23
-2.823690
  0
POLYLINE
  8
0
  6
CONTINUOUS
 66
     1
 40
0.000000
 41
0.000000
  0
VERTEX
  8
0
  6
CONTINUOUS
 10
1.740849
 20
-3.609467
  0
VERTEX
  8
0
  6
CONTINUOUS
 10
1.737655
 20
-2.842855
  0
VERTEX
  8
0
  6
CONTINUOUS
 10
1.740849
 20
-2.823690
  0
VERTEX
  8
0
  6
CONTINUOUS
 10
1.744044
 20
-3.587108
  0
VERTEX
  8
0
  6
CONTINUOUS
 10
1.740849
 20
-3.609467
  0
SEQEND
  8
0
  0
SOLID
  8
0
 62
     7
 10
2.456354
 20
-4.037493
 11
2.453160
 21
-3.274074
 12
2.504268
 22
-4.063046
 13
2.501073
 23
-3.296434
  0
POLYLINE
  8
0
  6
CONTINUOUS
 66
     1
 40
0.000000
 41
0.000000
  0
VERTEX
  8
0
  6
CONTINUOUS
 10
2.456354
 20
-4.037493
  0
VERTEX
  8
0
  6
CONTINUOUS
 10
2.453160
 20
-3.274074
  0
VERTEX
  8
0
  6
CONTINUOUS
 10
2.501073
 20
-3.296434
  0
VERTEX
  8
0
  6
CONTINUOUS
 10
2.504268
 20
-4.063046
  0
VERTEX
  8
0
  6
CONTINUOUS
 10
2.456354
 20
-4.037493
  0
SEQEND
  8
0
  0
SOLID
  8
0
 62
     7
 10
2.504268
 20
-4.063046
 11
2.501073
 21
-3.296434
 12
2.555375
 22
-4.082212
 13
2.548987
 23
-3.318793
  0
POLYLINE
  8
0
  6
CONTINUOUS
 66
     1
 40
0.000000
 41
0.000000
  0
VERTEX
  8
0
  6
CONTINUOUS
 10
2.504268
 20
-4.063046
  0
VERTEX
  8
0
  6
CONTINUOUS
 10
2.501073
 20
-3.296434
  0
VERTEX
  8
0
  6
CONTINUOUS
 10
2.548987
 20
-3.318793
  0
VERTEX
  8
0
  6
CONTINUOUS
 10
2.555375
 20
-4.082212
  0
VERTEX
  8
0
  6
CONTINUOUS
 10
2.504268
 20
-4.063046
  0
SEQEND
  8
0
  0
SOLID
  8
0
 62
     7
 10
2.555375
 20
-4.082212
 11
2.548987
 21
-3.318793
 12
2.603288
 22
-4.098183
 13
2.600094
 23
-3.334765
  0
POLYLINE
  8
0
  6
CONTINUOUS
 66
     1
 40
0.000000
 41
0.000000
  0
VERTEX
  8
0
  6
CONTINUOUS
 10
2.555375
 20
-4.082212
  0
VERTEX
  8
0
  6
CONTINUOUS
 10
2.548987
 20
-3.318793
  0
VERTEX
  8
0
  6
CONTINUOUS
 10
2.600094
 20
-3.334765
  0
VERTEX
  8
0
  6
CONTINUOUS
 10
2.603288
 20
-4.098183
  0
VERTEX
  8
0
  6
CONTINUOUS
 10
2.555375
 20
-4.082212
  0
SEQEND
  8
0
  0
SOLID
  8
0
 62
     7
 10
2.603288
 20
-4.098183
 11
2.600094
 21
-3.334765
 12
2.654396
 22
-4.110960
 13
2.651202
 23
-3.347541
  0
POLYLINE
  8
0
  6
CONTINUOUS
 66
     1
 40
0.000000
 41
0.000000
  0
VERTEX
  8
0
  6
CONTINUOUS
 10
2.603288
 20
-4.098183
  0
VERTEX
  8
0
  6
CONTINUOUS
 10
2.600094
 20
-3.334765
  0
VERTEX
  8
0
  6
CONTINUOUS
 10
2.651202
 20
-3.347541
  0
VERTEX
  8
0
  6
CONTINUOUS
 10
2.654396
 20
-4.110960
  0
VERTEX
  8
0
  6
CONTINUOUS
 10
2.603288
 20
-4.098183
  0
SEQEND
  8
0
  0
SOLID
  8
0
 62
     7
 10
2.654396
 20
-4.110960
 11
2.651202
 21
-3.347541
 12
2.708698
 22
-4.120542
 13
2.702309
 23
-3.353930
  0
POLYLINE
  8
0
  6
CONTINUOUS
 66
     1
 40
0.000000
 41
0.000000
  0
VERTEX
  8
0
  6
CONTINUOUS
 10
2.654396
 20
-4.110960
  0
VERTEX
  8
0
  6
CONTINUOUS
 10
2.651202
 20
-3.347541
  0
VERTEX
  8
0
  6
CONTINUOUS
 10
2.702309
 20
-3.353930
  0
VERTEX
  8
0
  6
CONTINUOUS
 10
2.708698
 20
-4.120542
  0
VERTEX
  8
0
  6
CONTINUOUS
 10
2.654396
 20
-4.110960
  0
SEQEND
  8
0
  0
SOLID
  8
0
 62
     7
 10
2.759805
 20
-4.120542
 11
2.753417
 21
-3.357124
 12
2.769388
 22
-4.120542
 13
2.762999
 23
-3.357124
  0
POLYLINE
  8
0
  6
CONTINUOUS
 66
     1
 40
0.000000
 41
0.000000
  0
VERTEX
  8
0
  6
CONTINUOUS
 10
2.759805
 20
-4.120542
  0
VERTEX
  8
0
  6
CONTINUOUS
 10
2.753417
 20
-3.357124
  0
VERTEX
  8
0
  6
CONTINUOUS
 10
2.762999
 20
-3.357124
  0
VERTEX
  8
0
  6
CONTINUOUS
 10
2.769388
 20
-4.120542
  0
VERTEX
  8
0
  6
CONTINUOUS
 10
2.759805
 20
-4.120542
  0
SEQEND
  8
0
  0
SOLID
  8
0
 62
     7
 10
2.708698
 20
-4.120542
 11
2.702309
 21
-3.353930
 12
2.759805
 22
-4.120542
 13
2.753417
 23
-3.357124
  0
POLYLINE
  8
0
  6
CONTINUOUS
 66
     1
 40
0.000000
 41
0.000000
  0
VERTEX
  8
0
  6
CONTINUOUS
 10
2.708698
 20
-4.120542
  0
VERTEX
  8
0
  6
CONTINUOUS
 10
2.702309
 20
-3.353930
  0
VERTEX
  8
0
  6
CONTINUOUS
 10
2.753417
 20
-3.357124
  0
VERTEX
  8
0
  6
CONTINUOUS
 10
2.759805
 20
-4.120542
  0
VERTEX
  8
0
  6
CONTINUOUS
 10
2.708698
 20
-4.120542
  0
SEQEND
  8
0
  0
SOLID
  8
0
 62
    15
 10
2.769388
 20
-4.120542
 11
2.762999
 21
-3.357124
 12
2.769388
 22
-4.101377
 13
2.762999
 23
-3.337959
  0
POLYLINE
  8
0
  6
CONTINUOUS
 66
     1
 40
0.000000
 41
0.000000
  0
VERTEX
  8
0
  6
CONTINUOUS
 10
2.769388
 20
-4.120542
  0
VERTEX
  8
0
  6
CONTINUOUS
 10
2.762999
 20
-3.357124
  0
VERTEX
  8
0
  6
CONTINUOUS
 10
2.762999
 20
-3.337959
  0
VERTEX
  8
0
  6
CONTINUOUS
 10
2.769388
 20
-4.101377
  0
VERTEX
  8
0
  6
CONTINUOUS
 10
2.769388
 20
-4.120542
  0
SEQEND
  8
0
  0
SOLID
  8
0
 62
    15
 10
2.769388
 20
-4.101377
 11
2.762999
 21
-3.337959
 12
2.769388
 22
-4.079018
 13
2.766194
 23
-3.315599
  0
POLYLINE
  8
0
  6
CONTINUOUS
 66
     1
 40
0.000000
 41
0.000000
  0
VERTEX
  8
0
  6
CONTINUOUS
 10
2.769388
 20
-4.101377
  0
VERTEX
  8
0
  6
CONTINUOUS
 10
2.762999
 20
-3.337959
  0
VERTEX
  8
0
  6
CONTINUOUS
 10
2.766194
 20
-3.315599
  0
VERTEX
  8
0
  6
CONTINUOUS
 10
2.769388
 20
-4.079018
  0
VERTEX
  8
0
  6
CONTINUOUS
 10
2.769388
 20
-4.101377
  0
SEQEND
  8
0
  0
SOLID
  8
0
 62
    15
 10
2.769388
 20
-4.079018
 11
2.766194
 21
-3.315599
 12
2.778970
 22
-4.056658
 13
2.772582
 23
-3.293240
  0
POLYLINE
  8
0
  6
CONTINUOUS
 66
     1
 40
0.000000
 41
0.000000
  0
VERTEX
  8
0
  6
CONTINUOUS
 10
2.769388
 20
-4.079018
  0
VERTEX
  8
0
  6
CONTINUOUS
 10
2.766194
 20
-3.315599
  0
VERTEX
  8
0
  6
CONTINUOUS
 10
2.772582
 20
-3.293240
  0
VERTEX
  8
0
  6
CONTINUOUS
 10
2.778970
 20
-4.056658
  0
VERTEX
  8
0
  6
CONTINUOUS
 10
2.769388
 20
-4.079018
  0
SEQEND
  8
0
  0
SOLID
  8
0
 62
    15
 10
2.778970
 20
-4.056658
 11
2.772582
 21
-3.293240
 12
2.788553
 22
-4.037493
 13
2.782165
 23
-3.274074
  0
POLYLINE
  8
0
  6
CONTINUOUS
 66
     1
 40
0.000000
 41
0.000000
  0
VERTEX
  8
0
  6
CONTINUOUS
 10
2.778970
 20
-4.056658
  0
VERTEX
  8
0
  6
CONTINUOUS
 10
2.772582
 20
-3.293240
  0
VERTEX
  8
0
  6
CONTINUOUS
 10
2.782165
 20
-3.274074
  0
VERTEX
  8
0
  6
CONTINUOUS
 10
2.788553
 20
-4.037493
  0
VERTEX
  8
0
  6
CONTINUOUS
 10
2.778970
 20
-4.056658
  0
SEQEND
  8
0
  0
SOLID
  8
0
 62
    15
 10
2.788553
 20
-4.037493
 11
2.782165
 21
-3.274074
 12
2.801330
 22
-4.021522
 13
2.798136
 23
-3.258103
  0
POLYLINE
  8
0
  6
CONTINUOUS
 66
     1
 40
0.000000
 41
0.000000
  0
VERTEX
  8
0
  6
CONTINUOUS
 10
2.788553
 20
-4.037493
  0
VERTEX
  8
0
  6
CONTINUOUS
 10
2.782165
 20
-3.274074
  0
VERTEX
  8
0
  6
CONTINUOUS
 10
2.798136
 20
-3.258103
  0
VERTEX
  8
0
  6
CONTINUOUS
 10
2.801330
 20
-4.021522
  0
VERTEX
  8
0
  6
CONTINUOUS
 10
2.788553
 20
-4.037493
  0
SEQEND
  8
0
  0
SOLID
  8
0
 62
    15
 10
2.801330
 20
-4.021522
 11
2.798136
 21
-3.258103
 12
2.817301
 22
-4.008745
 13
2.814107
 23
-3.245326
  0
POLYLINE
  8
0
  6
CONTINUOUS
 66
     1
 40
0.000000
 41
0.000000
  0
VERTEX
  8
0
  6
CONTINUOUS
 10
2.801330
 20
-4.021522
  0
VERTEX
  8
0
  6
CONTINUOUS
 10
2.798136
 20
-3.258103
  0
VERTEX
  8
0
  6
CONTINUOUS
 10
2.814107
 20
-3.245326
  0
VERTEX
  8
0
  6
CONTINUOUS
 10
2.817301
 20
-4.008745
  0
VERTEX
  8
0
  6
CONTINUOUS
 10
2.801330
 20
-4.021522
  0
SEQEND
  8
0
  0
SOLID
  8
0
 62
    15
 10
2.817301
 20
-4.008745
 11
2.814107
 21
-3.245326
 12
2.839661
 22
-3.999162
 13
2.833272
 23
-3.235744
  0
POLYLINE
  8
0
  6
CONTINUOUS
 66
     1
 40
0.000000
 41
0.000000
  0
VERTEX
  8
0
  6
CONTINUOUS
 10
2.817301
 20
-4.008745
  0
VERTEX
  8
0
  6
CONTINUOUS
 10
2.814107
 20
-3.245326
  0
VERTEX
  8
0
  6
CONTINUOUS
 10
2.833272
 20
-3.235744
  0
VERTEX
  8
0
  6
CONTINUOUS
 10
2.839661
 20
-3.999162
  0
VERTEX
  8
0
  6
CONTINUOUS
 10
2.817301
 20
-4.008745
  0
SEQEND
  8
0
  0
SOLID
  8
0
 62
    15
 10
2.839661
 20
-3.999162
 11
2.833272
 21
-3.235744
 12
2.858826
 22
-3.992774
 13
2.855632
 23
-3.229355
  0
POLYLINE
  8
0
  6
CONTINUOUS
 66
     1
 40
0.000000
 41
0.000000
  0
VERTEX
  8
0
  6
CONTINUOUS
 10
2.839661
 20
-3.999162
  0
VERTEX
  8
0
  6
CONTINUOUS
 10
2.833272
 20
-3.235744
  0
VERTEX
  8
0
  6
CONTINUOUS
 10
2.855632
 20
-3.229355
  0
VERTEX
  8
0
  6
CONTINUOUS
 10
2.858826
 20
-3.992774
  0
VERTEX
  8
0
  6
CONTINUOUS
 10
2.839661
 20
-3.999162
  0
SEQEND
  8
0
  0
SOLID
  8
0
 62
    15
 10
2.858826
 20
-3.992774
 11
2.855632
 21
-3.229355
 12
2.881185
 22
-3.992774
 13
2.877991
 23
-3.226161
  0
POLYLINE
  8
0
  6
CONTINUOUS
 66
     1
 40
0.000000
 41
0.000000
  0
VERTEX
  8
0
  6
CONTINUOUS
 10
2.858826
 20
-3.992774
  0
VERTEX
  8
0
  6
CONTINUOUS
 10
2.855632
 20
-3.229355
  0
VERTEX
  8
0
  6
CONTINUOUS
 10
2.877991
 20
-3.226161
  0
VERTEX
  8
0
  6
CONTINUOUS
 10
2.881185
 20
-3.992774
  0
VERTEX
  8
0
  6
CONTINUOUS
 10
2.858826
 20
-3.992774
  0
SEQEND
  8
0
  0
SOLID
  8
0
 62
     7
 10
2.881185
 20
-3.992774
 11
2.877991
 21
-3.226161
 12
2.903545
 22
-3.992774
 13
2.900351
 23
-3.229355
  0
POLYLINE
  8
0
  6
CONTINUOUS
 66
     1
 40
0.000000
 41
0.000000
  0
VERTEX
  8
0
  6
CONTINUOUS
 10
2.881185
 20
-3.992774
  0
VERTEX
  8
0
  6
CONTINUOUS
 10
2.877991
 20
-3.226161
  0
VERTEX
  8
0
  6
CONTINUOUS
 10
2.900351
 20
-3.229355
  0
VERTEX
  8
0
  6
CONTINUOUS
 10
2.903545
 20
-3.992774
  0
VERTEX
  8
0
  6
CONTINUOUS
 10
2.881185
 20
-3.992774
  0
SEQEND
  8
0
  0
SOLID
  8
0
 62
     7
 10
2.903545
 20
-3.992774
 11
2.900351
 21
-3.229355
 12
2.925905
 22
-3.999162
 13
2.919516
 23
-3.235744
  0
POLYLINE
  8
0
  6
CONTINUOUS
 66
     1
 40
0.000000
 41
0.000000
  0
VERTEX
  8
0
  6
CONTINUOUS
 10
2.903545
 20
-3.992774
  0
VERTEX
  8
0
  6
CONTINUOUS
 10
2.900351
 20
-3.229355
  0
VERTEX
  8
0
  6
CONTINUOUS
 10
2.919516
 20
-3.235744
  0
VERTEX
  8
0
  6
CONTINUOUS
 10
2.925905
 20
-3.999162
  0
VERTEX
  8
0
  6
CONTINUOUS
 10
2.903545
 20
-3.992774
  0
SEQEND
  8
0
  0
SOLID
  8
0
 62
     7
 10
2.925905
 20
-3.999162
 11
2.919516
 21
-3.235744
 12
2.945070
 22
-4.011939
 13
2.941876
 23
-3.248521
  0
POLYLINE
  8
0
  6
CONTINUOUS
 66
     1
 40
0.000000
 41
0.000000
  0
VERTEX
  8
0
  6
CONTINUOUS
 10
2.925905
 20
-3.999162
  0
VERTEX
  8
0
  6
CONTINUOUS
 10
2.919516
 20
-3.235744
  0
VERTEX
  8
0
  6
CONTINUOUS
 10
2.941876
 20
-3.248521
  0
VERTEX
  8
0
  6
CONTINUOUS
 10
2.945070
 20
-4.011939
  0
VERTEX
  8
0
  6
CONTINUOUS
 10
2.925905
 20
-3.999162
  0
SEQEND
  8
0
  0
SOLID
  8
0
 62
     7
 10
2.945070
 20
-4.011939
 11
2.941876
 21
-3.248521
 12
2.961041
 22
-4.024716
 13
2.957847
 23
-3.261297
  0
POLYLINE
  8
0
  6
CONTINUOUS
 66
     1
 40
0.000000
 41
0.000000
  0
VERTEX
  8
0
  6
CONTINUOUS
 10
2.945070
 20
-4.011939
  0
VERTEX
  8
0
  6
CONTINUOUS
 10
2.941876
 20
-3.248521
  0
VERTEX
  8
0
  6
CONTINUOUS
 10
2.957847
 20
-3.261297
  0
VERTEX
  8
0
  6
CONTINUOUS
 10
2.961041
 20
-4.024716
  0
VERTEX
  8
0
  6
CONTINUOUS
 10
2.945070
 20
-4.011939
  0
SEQEND
  8
0
  0
SOLID
  8
0
 62
    15
 10
2.961041
 20
-4.024716
 11
2.957847
 21
-3.261297
 12
2.977012
 22
-4.043881
 13
2.970624
 23
-3.277269
  0
POLYLINE
  8
0
  6
CONTINUOUS
 66
     1
 40
0.000000
 41
0.000000
  0
VERTEX
  8
0
  6
CONTINUOUS
 10
2.961041
 20
-4.024716
  0
VERTEX
  8
0
  6
CONTINUOUS
 10
2.957847
 20
-3.261297
  0
VERTEX
  8
0
  6
CONTINUOUS
 10
2.970624
 20
-3.277269
  0
VERTEX
  8
0
  6
CONTINUOUS
 10
2.977012
 20
-4.043881
  0
VERTEX
  8
0
  6
CONTINUOUS
 10
2.961041
 20
-4.024716
  0
SEQEND
  8
0
  0
SOLID
  8
0
 62
    15
 10
2.977012
 20
-4.043881
 11
2.970624
 21
-3.277269
 12
2.986595
 22
-4.063046
 13
2.983400
 23
-3.296434
  0
POLYLINE
  8
0
  6
CONTINUOUS
 66
     1
 40
0.000000
 41
0.000000
  0
VERTEX
  8
0
  6
CONTINUOUS
 10
2.977012
 20
-4.043881
  0
VERTEX
  8
0
  6
CONTINUOUS
 10
2.970624
 20
-3.277269
  0
VERTEX
  8
0
  6
CONTINUOUS
 10
2.983400
 20
-3.296434
  0
VERTEX
  8
0
  6
CONTINUOUS
 10
2.986595
 20
-4.063046
  0
VERTEX
  8
0
  6
CONTINUOUS
 10
2.977012
 20
-4.043881
  0
SEQEND
  8
0
  0
SOLID
  8
0
 62
    15
 10
2.986595
 20
-4.063046
 11
2.983400
 21
-3.296434
 12
2.992983
 22
-4.082212
 13
2.989789
 23
-3.318793
  0
POLYLINE
  8
0
  6
CONTINUOUS
 66
     1
 40
0.000000
 41
0.000000
  0
VERTEX
  8
0
  6
CONTINUOUS
 10
2.986595
 20
-4.063046
  0
VERTEX
  8
0
  6
CONTINUOUS
 10
2.983400
 20
-3.296434
  0
VERTEX
  8
0
  6
CONTINUOUS
 10
2.989789
 20
-3.318793
  0
VERTEX
  8
0
  6
CONTINUOUS
 10
2.992983
 20
-4.082212
  0
VERTEX
  8
0
  6
CONTINUOUS
 10
2.986595
 20
-4.063046
  0
SEQEND
  8
0
  0
SOLID
  8
0
 62
     7
 10
2.996177
 20
-4.120542
 11
2.992983
 21
-3.353930
 12
3.159082
 22
-4.120542
 13
3.155888
 23
-3.353930
  0
POLYLINE
  8
0
  6
CONTINUOUS
 66
     1
 40
0.000000
 41
0.000000
  0
VERTEX
  8
0
  6
CONTINUOUS
 10
2.996177
 20
-4.120542
  0
VERTEX
  8
0
  6
CONTINUOUS
 10
2.992983
 20
-3.353930
  0
VERTEX
  8
0
  6
CONTINUOUS
 10
3.155888
 20
-3.353930
  0
VERTEX
  8
0
  6
CONTINUOUS
 10
3.159082
 20
-4.120542
  0
VERTEX
  8
0
  6
CONTINUOUS
 10
2.996177
 20
-4.120542
  0
SEQEND
  8
0
  0
SOLID
  8
0
 62
    15
 10
2.992983
 20
-4.082212
 11
2.989789
 21
-3.318793
 12
2.996177
 22
-4.104571
 13
2.992983
 23
-3.341153
  0
POLYLINE
  8
0
  6
CONTINUOUS
 66
     1
 40
0.000000
 41
0.000000
  0
VERTEX
  8
0
  6
CONTINUOUS
 10
2.992983
 20
-4.082212
  0
VERTEX
  8
0
  6
CONTINUOUS
 10
2.989789
 20
-3.318793
  0
VERTEX
  8
0
  6
CONTINUOUS
 10
2.992983
 20
-3.341153
  0
VERTEX
  8
0
  6
CONTINUOUS
 10
2.996177
 20
-4.104571
  0
VERTEX
  8
0
  6
CONTINUOUS
 10
2.992983
 20
-4.082212
  0
SEQEND
  8
0
  0
SOLID
  8
0
 62
    15
 10
1.645023
 20
-4.328167
 11
1.641829
 21
-3.561554
 12
1.645023
 22
-3.625438
 13
1.641829
 23
-2.858826
  0
POLYLINE
  8
0
  6
CONTINUOUS
 66
     1
 40
0.000000
 41
0.000000
  0
VERTEX
  8
0
  6
CONTINUOUS
 10
1.645023
 20
-4.328167
  0
VERTEX
  8
0
  6
CONTINUOUS
 10
1.641829
 20
-3.561554
  0
VERTEX
  8
0
  6
CONTINUOUS
 10
1.641829
 20
-2.858826
  0
VERTEX
  8
0
  6
CONTINUOUS
 10
1.645023
 20
-3.625438
  0
VERTEX
  8
0
  6
CONTINUOUS
 10
1.645023
 20
-4.328167
  0
SEQEND
  8
0
  0
SOLID
  8
0
 62
    15
 10
1.645023
 20
-3.625438
 11
1.641829
 21
-2.858826
 12
1.654605
 22
-3.625438
 13
1.648217
 23
-2.858826
  0
POLYLINE
  8
0
  6
CONTINUOUS
 66
     1
 40
0.000000
 41
0.000000
  0
VERTEX
  8
0
  6
CONTINUOUS
 10
1.645023
 20
-3.625438
  0
VERTEX
  8
0
  6
CONTINUOUS
 10
1.641829
 20
-2.858826
  0
VERTEX
  8
0
  6
CONTINUOUS
 10
1.648217
 20
-2.858826
  0
VERTEX
  8
0
  6
CONTINUOUS
 10
1.654605
 20
-3.625438
  0
VERTEX
  8
0
  6
CONTINUOUS
 10
1.645023
 20
-3.625438
  0
SEQEND
  8
0
  0
POLYLINE
  8
0
  6
CONTINUOUS
 66
     1
 40
0.000000
 41
0.000000
  0
VERTEX
  8
0
  6
CONTINUOUS
 10
1.648217
 20
-3.625438
  0
VERTEX
  8
0
  6
CONTINUOUS
 10
1.740849
 20
-3.625438
  0
VERTEX
  8
0
  6
CONTINUOUS
 10
1.750432
 20
-3.564748
  0
VERTEX
  8
0
  6
CONTINUOUS
 10
1.791957
 20
-3.516835
  0
VERTEX
  8
0
  6
CONTINUOUS
 10
1.852647
 20
-3.497670
  0
VERTEX
  8
0
  6
CONTINUOUS
 10
1.913337
 20
-3.516835
  0
VERTEX
  8
0
  6
CONTINUOUS
 10
1.954862
 20
-3.564748
  0
VERTEX
  8
0
  6
CONTINUOUS
 10
1.964445
 20
-3.625438
  0
VERTEX
  8
0
  6
CONTINUOUS
 10
2.146515
 20
-3.625438
  0
VERTEX
  8
0
  6
CONTINUOUS
 10
2.197623
 20
-3.772373
  0
VERTEX
  8
0
  6
CONTINUOUS
 10
2.290255
 20
-3.903335
  0
VERTEX
  8
0
  6
CONTINUOUS
 10
2.411635
 20
-4.008745
  0
VERTEX
  8
0
  6
CONTINUOUS
 10
2.555375
 20
-4.082212
  0
VERTEX
  8
0
  6
CONTINUOUS
 10
2.708698
 20
-4.120542
  0
VERTEX
  8
0
  6
CONTINUOUS
 10
2.769388
 20
-4.120542
  0
VERTEX
  8
0
  6
CONTINUOUS
 10
2.769388
 20
-4.079018
  0
VERTEX
  8
0
  6
CONTINUOUS
 10
2.801330
 20
-4.021522
  0
VERTEX
  8
0
  6
CONTINUOUS
 10
2.858826
 20
-3.992774
  0
VERTEX
  8
0
  6
CONTINUOUS
 10
2.925905
 20
-3.999162
  0
VERTEX
  8
0
  6
CONTINUOUS
 10
2.977012
 20
-4.043881
  0
VERTEX
  8
0
  6
CONTINUOUS
 10
2.996177
 20
-4.104571
  0
VERTEX
  8
0
  6
CONTINUOUS
 10
2.996177
 20
-4.120542
  0
VERTEX
  8
0
  6
CONTINUOUS
 10
3.159082
 20
-4.120542
  0
VERTEX
  8
0
  6
CONTINUOUS
 10
3.159082
 20
-4.328167
  0
VERTEX
  8
0
  6
CONTINUOUS
 10
1.645023
 20
-4.328167
  0
VERTEX
  8
0
  6
CONTINUOUS
 10
1.645023
 20
-3.625438
  0
VERTEX
  8
0
  6
CONTINUOUS
 10
1.654605
 20
-3.625438
  0
VERTEX
  8
0
  6
CONTINUOUS
 10
1.648217
 20
-3.625438
  0
SEQEND
  8
0
  0
TEXT
  8
0
 10
3.612662
 20
-5.666544
 40
0.129078
  1
BA  149 13/16" x 1-1/2"
 41
1.000000
  7
SN1
 71
     0
 72
     5
 11
5.216303
 21
-5.666544
  0
TEXT
  8
0
 10
3.612662
 20
-5.858197
 40
0.129078
  1
BA  157 1-1/16" x 5-3/8"
 41
1.000000
  7
SN1
 71
     0
 72
     5
 11
5.267150
 21
-5.858197
  0
TEXT
  8
0
 10
1.689742
 20
-4.286642
 40
0.129078
  1
149
 41
1.000000
  7
SN1
 71
     0
 72
     5
 11
1.947889
 21
-4.286642
  0
TEXT
  8
0
 10
1.689742
 20
-5.324763
 40
0.129078
  1
157
 41
1.000000
  7
SN1
 71
     0
 72
     5
 11
1.947889
 21
-5.324763
  0
POLYLINE
  8
0
  6
CONTINUOUS
 66
     1
 40
0.012777
 41
0.012777
  0
VERTEX
  8
0
  6
CONTINUOUS
 10
3.593496
 20
-1.044510
  0
VERTEX
  8
0
  6
CONTINUOUS
 10
3.593496
 20
-1.296853
  0
VERTEX
  8
0
  6
CONTINUOUS
 10
3.778761
 20
-1.296853
  0
VERTEX
  8
0
  6
CONTINUOUS
 10
3.778761
 20
-1.226580
  0
VERTEX
  8
0
  6
CONTINUOUS
 10
4.855213
 20
-1.034927
  0
VERTEX
  8
0
  6
CONTINUOUS
 10
5.950830
 20
-1.229774
  0
VERTEX
  8
0
  6
CONTINUOUS
 10
5.950830
 20
-1.290464
  0
VERTEX
  8
0
  6
CONTINUOUS
 10
6.123318
 20
-1.290464
  0
VERTEX
  8
0
  6
CONTINUOUS
 10
6.123318
 20
-1.041315
  0
VERTEX
  8
0
  6
CONTINUOUS
 10
6.544955
 20
-1.041315
  0
VERTEX
  8
0
  6
CONTINUOUS
 10
6.544955
 20
-1.290464
  0
VERTEX
  8
0
  6
CONTINUOUS
 10
6.544955
 20
-1.287270
  0
VERTEX
  8
0
  6
CONTINUOUS
 10
6.544955
 20
-1.296853
  0
VERTEX
  8
0
  6
CONTINUOUS
 10
6.669529
 20
-1.296853
  0
VERTEX
  8
0
  6
CONTINUOUS
 10
6.672723
 20
-1.242551
  0
VERTEX
  8
0
  6
CONTINUOUS
 10
6.701471
 20
-1.172278
  0
VERTEX
  8
0
  6
CONTINUOUS
 10
6.787715
 20
-1.102006
  0
VERTEX
  8
0
  6
CONTINUOUS
 10
6.861182
 20
-1.086034
  0
VERTEX
  8
0
  6
CONTINUOUS
 10
6.934649
 20
-1.102006
  0
VERTEX
  8
0
  6
CONTINUOUS
 10
7.020893
 20
-1.172278
  0
VERTEX
  8
0
  6
CONTINUOUS
 10
7.049641
 20
-1.242551
  0
VERTEX
  8
0
  6
CONTINUOUS
 10
7.049641
 20
-1.319212
  0
VERTEX
  8
0
  6
CONTINUOUS
 10
6.998534
 20
-1.415039
  0
VERTEX
  8
0
  6
CONTINUOUS
 10
6.937843
 20
-1.456564
  0
VERTEX
  8
0
  6
CONTINUOUS
 10
6.864376
 20
-1.472535
  0
VERTEX
  8
0
  6
CONTINUOUS
 10
6.845211
 20
-1.472535
  0
VERTEX
  8
0
  6
CONTINUOUS
 10
6.848405
 20
-1.593915
  0
VERTEX
  8
0
  6
CONTINUOUS
 10
7.043253
 20
-1.593915
  0
VERTEX
  8
0
  6
CONTINUOUS
 10
7.040058
 20
-2.089019
  0
VERTEX
  8
0
  6
CONTINUOUS
 10
1.645023
 20
-2.089019
  0
VERTEX
  8
0
  6
CONTINUOUS
 10
1.641829
 20
-1.038121
  0
VERTEX
  8
0
  6
CONTINUOUS
 10
3.593496
 20
-1.038121
  0
VERTEX
  8
0
  6
CONTINUOUS
 10
3.593496
 20
-1.044510
  0
SEQEND
  8
0
  0
TEXT
  8
0
 10
7.646960
 20
0.351364
 40
0.129078
  1
case
 41
1.000000
  7
SN1
 71
     0
 72
     5
 11
7.971600
 21
0.351364
  0
TEXT
  8
0
 10
7.685291
 20
0.159711
 40
0.129078
  1
149
 41
1.000000
  7
SN1
 71
     0
 72
     5
 11
7.943438
 21
0.159711
  0
TEXT
  8
0
 10
7.685291
 20
-0.031942
 40
0.129078
  1
157
 41
1.000000
  7
SN1
 71
     0
 72
     5
 11
7.943438
 21
-0.031942
  0
ENDSEC
  0
EOF
