  0
SECTION
  2
HEADER
  9
$ACADVER
  1
AC1006
  9
$EXTMIN
 10
2.347262
 20
-8.808345
  9
$EXTMAX
 10
38.205662
 20
7.315328
  9
$LTSCALE
 40
0.152817
  9
$PDMODE
 70
    35
  9
$PDSIZE
 40
0.122253
  0
ENDSEC
  0
SECTION
  2
TABLES
  0
TABLE
  2
LTYPE
 70
     9
  0
LTYPE
  2
CONTINUOUS
 70
    64
  3
Solid line
 72
    65
 73
     0
 40
0.000000
  0
LTYPE
  2
DASHED
 70
    64
  3
__ __ __ __ __ __ __ __ __ __ __ __ __ __ __
 72
    65
 73
     2
 40
0.001146
 49
0.000764
 49
-0.000382
  0
LTYPE
  2
HIDDEN
 70
    64
  3
 _ _ _ _ _ _ _ _ _ _ _ _ _ _ _ _ _ _ _ _ _ _
 72
    65
 73
     2
 40
0.000573
 49
0.000382
 49
-0.000191
  0
LTYPE
  2
CENTER
 70
    64
  3
____ _ ____ _ ____ _ ____ _ ____ _ ____ _ ____
 72
    65
 73
     4
 40
0.003056
 49
0.001910
 49
-0.000382
 49
0.000382
 49
-0.000382
  0
LTYPE
  2
PHANTOM
 70
    64
  3
_____ _ _ _____ _ _ _____ _ _ _____ _ _ ____
 72
    65
 73
     6
 40
0.003820
 49
0.001910
 49
-0.000382
 49
0.000382
 49
-0.000382
 49
0.000382
 49
-0.000382
  0
LTYPE
  2
DOT
 70
    64
  3
...............................................
 72
    65
 73
     2
 40
0.000382
 49
0.000000
 49
-0.000382
  0
LTYPE
  2
DASHDOT
 70
    64
  3
__ . __ . __ . __ . __ . __ . __ . __ . __ . __
 72
    65
 73
     4
 40
0.001528
 49
0.000764
 49
-0.000382
 49
0.000000
 49
-0.000382
  0
LTYPE
  2
BORDER
 70
    64
  3
__ __ . __ __ . __ __ . __ __ . __ __ . __ __
 72
    65
 73
     6
 40
0.002674
 49
0.000764
 49
-0.000382
 49
0.000764
 49
-0.000382
 49
0.000000
 49
-0.000382
  0
LTYPE
  2
DIVIDE
 70
    64
  3
__ . . __ . . __ . . __ . . __ . . __ . . __
 72
    65
 73
     6
 40
0.001910
 49
0.000764
 49
-0.000382
 49
0.000000
 49
-0.000382
 49
0.000000
 49
-0.000382
  0
LTYPE
  2
DOTDOT
 70
    64
  3
 . .  . .  . .  . .  . .  . . 
 72
    65
 73
     5
 40
0.000840
 49
-0.000382
 49
0.000000
 49
-0.000382
 49
0.000000
 49
-0.000382
  0
ENDTAB
  0
TABLE
  2
STYLE
 70
     4
  0
STYLE
 70
     0
  2
SN0
 40
0.000000
 41
0.001528
 50
0.000000
 71
     0
 42
0.000000
  3
ROMAND
  0
STYLE
 70
    68
  2
SV0
 40
0.000000
 41
0.001528
 50
0.000000
 71
     0
 42
0.000000
  3
ROMAND
  0
STYLE
 70
     0
  2
SN1
 40
0.000000
 41
0.001528
 50
0.000000
 71
     0
 42
0.000000
  3
ROMAND
  0
STYLE
 70
    68
  2
SV1
 40
0.000000
 41
0.001528
 50
0.000000
 71
     0
 42
0.000000
  3
ROMAND
  0
ENDTAB
  0
TABLE
  2
LAYER
 70
     3
  0
LAYER
  2
FOREGROUND
 70
    64
 62
     7
  6
CONTINUOUS
  0
LAYER
  2
BACKGROUND
 70
    65
 62
    -7
  6
CONTINUOUS
  0
LAYER
  2
0
 70
    64
 62
     7
  6
CONTINUOUS
  0
ENDTAB
  0
ENDSEC
  0
SECTION
  2
ENTITIES
  0
POLYLINE
  8
FOREGROUND
  6
CONTINUOUS
 66
     1
 40
0.000000
 41
0.000000
  0
VERTEX
  8
FOREGROUND
  6
CONTINUOUS
 10
0.000000
 20
-1.493018
  0
VERTEX
  8
FOREGROUND
  6
CONTINUOUS
 10
8.499656
 20
-1.493018
  0
VERTEX
  8
FOREGROUND
  6
CONTINUOUS
 10
8.499656
 20
-12.492752
  0
VERTEX
  8
FOREGROUND
  6
CONTINUOUS
 10
0.000000
 20
-12.492752
  0
VERTEX
  8
FOREGROUND
  6
CONTINUOUS
 10
0.000000
 20
-1.493018
  0
SEQEND
  8
0
  0
POLYLINE
  8
FOREGROUND
  6
CONTINUOUS
 66
     1
 40
0.000000
 41
0.000000
  0
VERTEX
  8
FOREGROUND
  6
CONTINUOUS
 10
0.000000
 20
-1.493018
  0
VERTEX
  8
FOREGROUND
  6
CONTINUOUS
 10
8.499656
 20
-1.493018
  0
VERTEX
  8
FOREGROUND
  6
CONTINUOUS
 10
8.499656
 20
-12.492752
  0
VERTEX
  8
FOREGROUND
  6
CONTINUOUS
 10
0.000000
 20
-12.492752
  0
VERTEX
  8
FOREGROUND
  6
CONTINUOUS
 10
0.000000
 20
-1.493018
  0
SEQEND
  8
0
  0
TEXT
  8
0
 10
35.957731
 20
6.916476
 40
0.014792
  1
B242
 41
1.000000
  7
SN0
 71
     0
 72
     5
 11
35.997175
 21
6.916476
  0
TEXT
  8
0
 10
36.468138
 20
7.055539
 40
0.011505
  1
B242
 41
1.000000
  7
SN0
 71
     0
 72
     5
 11
36.498618
 21
7.055539
  0
TEXT
  8
0
 10
37.433939
 20
6.760604
 40
0.014792
  1
B242
 41
1.000000
  7
SN0
 71
     0
 72
     5
 11
37.473383
 21
6.760604
  0
POLYLINE
  8
0
  6
CONTINUOUS
 66
     1
 40
0.012225
 41
0.012225
  0
VERTEX
  8
0
  6
CONTINUOUS
 10
34.550290
 20
7.021920
  0
VERTEX
  8
0
  6
CONTINUOUS
 10
34.550290
 20
7.003582
  0
SEQEND
  8
0
  0
TEXT
  8
0
 10
37.987134
 20
6.708646
 40
0.014792
  1
B242
 41
1.000000
  7
SN0
 71
     0
 72
     5
 11
38.026579
 21
6.708646
  0
TEXT
  8
0
 10
37.583699
 20
4.025188
 40
0.014792
  1
B242
 41
1.000000
  7
SN0
 71
     0
 72
     5
 11
37.623143
 21
4.025188
  0
TEXT
  8
0
 10
37.377396
 20
7.293933
 40
0.018079
  1
B242
 41
1.000000
  7
SN0
 71
     0
 72
     5
 11
37.422219
 21
7.293933
  0
POLYLINE
  8
0
  6
CONTINUOUS
 66
     1
 40
0.013753
 41
0.013753
  0
VERTEX
  8
0
  6
CONTINUOUS
 10
3.345154
 20
-5.178952
  0
VERTEX
  8
0
  6
CONTINUOUS
 10
5.342466
 20
-5.342466
  0
VERTEX
  8
0
  6
CONTINUOUS
 10
5.342466
 20
-5.343994
  0
VERTEX
  8
0
  6
CONTINUOUS
 10
5.342466
 20
-5.441797
  0
VERTEX
  8
0
  6
CONTINUOUS
 10
5.593085
 20
-5.441797
  0
VERTEX
  8
0
  6
CONTINUOUS
 10
5.594613
 20
-5.443325
  0
VERTEX
  8
0
  6
CONTINUOUS
 10
5.600726
 20
-5.478473
  0
VERTEX
  8
0
  6
CONTINUOUS
 10
5.609895
 20
-5.509036
  0
VERTEX
  8
0
  6
CONTINUOUS
 10
5.622120
 20
-5.538071
  0
VERTEX
  8
0
  6
CONTINUOUS
 10
5.637402
 20
-5.562522
  0
VERTEX
  8
0
  6
CONTINUOUS
 10
5.654212
 20
-5.583916
  0
VERTEX
  8
0
  6
CONTINUOUS
 10
5.672550
 20
-5.603782
  0
VERTEX
  8
0
  6
CONTINUOUS
 10
5.712282
 20
-5.634346
  0
VERTEX
  8
0
  6
CONTINUOUS
 10
5.755071
 20
-5.654212
  0
VERTEX
  8
0
  6
CONTINUOUS
 10
5.797859
 20
-5.667965
  0
VERTEX
  8
0
  6
CONTINUOUS
 10
5.837592
 20
-5.675606
  0
VERTEX
  8
0
  6
CONTINUOUS
 10
5.854401
 20
-5.677134
  0
VERTEX
  8
0
  6
CONTINUOUS
 10
5.869683
 20
-5.677134
  0
VERTEX
  8
0
  6
CONTINUOUS
 10
5.871211
 20
-5.675606
  0
VERTEX
  8
0
  6
CONTINUOUS
 10
5.871211
 20
-5.765768
  0
VERTEX
  8
0
  6
CONTINUOUS
 10
5.869683
 20
-5.765768
  0
VERTEX
  8
0
  6
CONTINUOUS
 10
2.356431
 20
-5.765768
  0
VERTEX
  8
0
  6
CONTINUOUS
 10
2.356431
 20
-5.744374
  0
VERTEX
  8
0
  6
CONTINUOUS
 10
2.356431
 20
-5.748958
  0
VERTEX
  8
0
  6
CONTINUOUS
 10
2.356431
 20
-5.021551
  0
VERTEX
  8
0
  6
CONTINUOUS
 10
3.345154
 20
-5.021551
  0
VERTEX
  8
0
  6
CONTINUOUS
 10
3.345154
 20
-5.178952
  0
SEQEND
  8
0
  0
TEXT
  8
0
 10
36.112075
 20
-3.580491
 40
0.014792
  1
B242
 41
1.000000
  7
SN0
 71
     0
 72
     5
 11
36.151520
 21
-3.580491
  0
POLYLINE
  8
0
  6
CONTINUOUS
 66
     1
 40
0.012225
 41
0.012225
  0
VERTEX
  8
0
  6
CONTINUOUS
 10
37.299460
 20
-2.287664
  0
VERTEX
  8
0
  6
CONTINUOUS
 10
37.310157
 20
-2.287664
  0
SEQEND
  8
0
  0
POLYLINE
  8
0
  6
CONTINUOUS
 66
     1
 40
0.012225
 41
0.012225
  0
VERTEX
  8
0
  6
CONTINUOUS
 10
37.299460
 20
-3.578963
  0
VERTEX
  8
0
  6
CONTINUOUS
 10
37.310157
 20
-3.578963
  0
SEQEND
  8
0
  0
POLYLINE
  8
0
  6
CONTINUOUS
 66
     1
 40
0.012225
 41
0.012225
  0
VERTEX
  8
0
  6
CONTINUOUS
 10
38.198021
 20
-3.560625
  0
VERTEX
  8
0
  6
CONTINUOUS
 10
38.198021
 20
-3.578963
  0
SEQEND
  8
0
  0
SOLID
  8
0
 62
    15
 10
5.674078
 20
-8.088579
 11
5.671022
 21
-7.367285
 12
5.715338
 22
-8.119143
 13
5.710754
 23
-7.397848
  0
POLYLINE
  8
0
  6
CONTINUOUS
 66
     1
 40
0.000000
 41
0.000000
  0
VERTEX
  8
0
  6
CONTINUOUS
 10
5.674078
 20
-8.088579
  0
VERTEX
  8
0
  6
CONTINUOUS
 10
5.671022
 20
-7.367285
  0
VERTEX
  8
0
  6
CONTINUOUS
 10
5.710754
 20
-7.397848
  0
VERTEX
  8
0
  6
CONTINUOUS
 10
5.715338
 20
-8.119143
  0
VERTEX
  8
0
  6
CONTINUOUS
 10
5.674078
 20
-8.088579
  0
SEQEND
  8
0
  0
SOLID
  8
0
 62
    15
 10
5.345522
 20
-7.926594
 11
5.340938
 21
-7.205300
 12
5.596142
 22
-7.926594
 13
5.591557
 23
-7.205300
  0
POLYLINE
  8
0
  6
CONTINUOUS
 66
     1
 40
0.000000
 41
0.000000
  0
VERTEX
  8
0
  6
CONTINUOUS
 10
5.345522
 20
-7.926594
  0
VERTEX
  8
0
  6
CONTINUOUS
 10
5.340938
 20
-7.205300
  0
VERTEX
  8
0
  6
CONTINUOUS
 10
5.591557
 20
-7.205300
  0
VERTEX
  8
0
  6
CONTINUOUS
 10
5.596142
 20
-7.926594
  0
VERTEX
  8
0
  6
CONTINUOUS
 10
5.345522
 20
-7.926594
  0
SEQEND
  8
0
  0
SOLID
  8
0
 62
    15
 10
5.602254
 20
-7.963270
 11
5.599198
 21
-7.241976
 12
5.611423
 22
-7.993833
 13
5.608367
 23
-7.274067
  0
POLYLINE
  8
0
  6
CONTINUOUS
 66
     1
 40
0.000000
 41
0.000000
  0
VERTEX
  8
0
  6
CONTINUOUS
 10
5.602254
 20
-7.963270
  0
VERTEX
  8
0
  6
CONTINUOUS
 10
5.599198
 20
-7.241976
  0
VERTEX
  8
0
  6
CONTINUOUS
 10
5.608367
 20
-7.274067
  0
VERTEX
  8
0
  6
CONTINUOUS
 10
5.611423
 20
-7.993833
  0
VERTEX
  8
0
  6
CONTINUOUS
 10
5.602254
 20
-7.963270
  0
SEQEND
  8
0
  0
SOLID
  8
0
 62
    15
 10
5.596142
 20
-7.928122
 11
5.593085
 21
-7.206828
 12
5.602254
 22
-7.963270
 13
5.599198
 23
-7.241976
  0
POLYLINE
  8
0
  6
CONTINUOUS
 66
     1
 40
0.000000
 41
0.000000
  0
VERTEX
  8
0
  6
CONTINUOUS
 10
5.596142
 20
-7.928122
  0
VERTEX
  8
0
  6
CONTINUOUS
 10
5.593085
 20
-7.206828
  0
VERTEX
  8
0
  6
CONTINUOUS
 10
5.599198
 20
-7.241976
  0
VERTEX
  8
0
  6
CONTINUOUS
 10
5.602254
 20
-7.963270
  0
VERTEX
  8
0
  6
CONTINUOUS
 10
5.596142
 20
-7.928122
  0
SEQEND
  8
0
  0
SOLID
  8
0
 62
    15
 10
5.596142
 20
-7.926594
 11
5.591557
 21
-7.205300
 12
5.596142
 22
-7.928122
 13
5.593085
 23
-7.206828
  0
POLYLINE
  8
0
  6
CONTINUOUS
 66
     1
 40
0.000000
 41
0.000000
  0
VERTEX
  8
0
  6
CONTINUOUS
 10
5.596142
 20
-7.926594
  0
VERTEX
  8
0
  6
CONTINUOUS
 10
5.591557
 20
-7.205300
  0
VERTEX
  8
0
  6
CONTINUOUS
 10
5.593085
 20
-7.206828
  0
VERTEX
  8
0
  6
CONTINUOUS
 10
5.596142
 20
-7.928122
  0
VERTEX
  8
0
  6
CONTINUOUS
 10
5.596142
 20
-7.926594
  0
SEQEND
  8
0
  0
SOLID
  8
0
 62
    15
 10
5.611423
 20
-7.993833
 11
5.608367
 21
-7.274067
 12
5.623649
 22
-8.022868
 13
5.620592
 23
-7.301574
  0
POLYLINE
  8
0
  6
CONTINUOUS
 66
     1
 40
0.000000
 41
0.000000
  0
VERTEX
  8
0
  6
CONTINUOUS
 10
5.611423
 20
-7.993833
  0
VERTEX
  8
0
  6
CONTINUOUS
 10
5.608367
 20
-7.274067
  0
VERTEX
  8
0
  6
CONTINUOUS
 10
5.620592
 20
-7.301574
  0
VERTEX
  8
0
  6
CONTINUOUS
 10
5.623649
 20
-8.022868
  0
VERTEX
  8
0
  6
CONTINUOUS
 10
5.611423
 20
-7.993833
  0
SEQEND
  8
0
  0
SOLID
  8
0
 62
    15
 10
5.623649
 20
-8.022868
 11
5.620592
 21
-7.301574
 12
5.638930
 22
-8.047319
 13
5.635874
 23
-7.326025
  0
POLYLINE
  8
0
  6
CONTINUOUS
 66
     1
 40
0.000000
 41
0.000000
  0
VERTEX
  8
0
  6
CONTINUOUS
 10
5.623649
 20
-8.022868
  0
VERTEX
  8
0
  6
CONTINUOUS
 10
5.620592
 20
-7.301574
  0
VERTEX
  8
0
  6
CONTINUOUS
 10
5.635874
 20
-7.326025
  0
VERTEX
  8
0
  6
CONTINUOUS
 10
5.638930
 20
-8.047319
  0
VERTEX
  8
0
  6
CONTINUOUS
 10
5.623649
 20
-8.022868
  0
SEQEND
  8
0
  0
SOLID
  8
0
 62
    15
 10
5.638930
 20
-8.047319
 11
5.635874
 21
-7.326025
 12
5.674078
 22
-8.088579
 13
5.671022
 23
-7.367285
  0
POLYLINE
  8
0
  6
CONTINUOUS
 66
     1
 40
0.000000
 41
0.000000
  0
VERTEX
  8
0
  6
CONTINUOUS
 10
5.638930
 20
-8.047319
  0
VERTEX
  8
0
  6
CONTINUOUS
 10
5.635874
 20
-7.326025
  0
VERTEX
  8
0
  6
CONTINUOUS
 10
5.671022
 20
-7.367285
  0
VERTEX
  8
0
  6
CONTINUOUS
 10
5.674078
 20
-8.088579
  0
VERTEX
  8
0
  6
CONTINUOUS
 10
5.638930
 20
-8.047319
  0
SEQEND
  8
0
  0
SOLID
  8
0
 62
    15
 10
3.346682
 20
-7.663749
 11
3.343626
 21
-6.943983
 12
5.345522
 22
-7.828791
 13
5.340938
 23
-7.107497
  0
POLYLINE
  8
0
  6
CONTINUOUS
 66
     1
 40
0.000000
 41
0.000000
  0
VERTEX
  8
0
  6
CONTINUOUS
 10
3.346682
 20
-7.663749
  0
VERTEX
  8
0
  6
CONTINUOUS
 10
3.343626
 20
-6.943983
  0
VERTEX
  8
0
  6
CONTINUOUS
 10
5.340938
 20
-7.107497
  0
VERTEX
  8
0
  6
CONTINUOUS
 10
5.345522
 20
-7.828791
  0
VERTEX
  8
0
  6
CONTINUOUS
 10
3.346682
 20
-7.663749
  0
SEQEND
  8
0
  0
SOLID
  8
0
 62
    15
 10
5.715338
 20
-8.119143
 11
5.710754
 21
-7.397848
 12
5.758127
 22
-8.140537
 13
5.753543
 23
-7.419243
  0
POLYLINE
  8
0
  6
CONTINUOUS
 66
     1
 40
0.000000
 41
0.000000
  0
VERTEX
  8
0
  6
CONTINUOUS
 10
5.715338
 20
-8.119143
  0
VERTEX
  8
0
  6
CONTINUOUS
 10
5.710754
 20
-7.397848
  0
VERTEX
  8
0
  6
CONTINUOUS
 10
5.753543
 20
-7.419243
  0
VERTEX
  8
0
  6
CONTINUOUS
 10
5.758127
 20
-8.140537
  0
VERTEX
  8
0
  6
CONTINUOUS
 10
5.715338
 20
-8.119143
  0
SEQEND
  8
0
  0
SOLID
  8
0
 62
    15
 10
5.758127
 20
-8.140537
 11
5.753543
 21
-7.419243
 12
5.800916
 22
-8.154290
 13
5.796331
 23
-7.432996
  0
POLYLINE
  8
0
  6
CONTINUOUS
 66
     1
 40
0.000000
 41
0.000000
  0
VERTEX
  8
0
  6
CONTINUOUS
 10
5.758127
 20
-8.140537
  0
VERTEX
  8
0
  6
CONTINUOUS
 10
5.753543
 20
-7.419243
  0
VERTEX
  8
0
  6
CONTINUOUS
 10
5.796331
 20
-7.432996
  0
VERTEX
  8
0
  6
CONTINUOUS
 10
5.800916
 20
-8.154290
  0
VERTEX
  8
0
  6
CONTINUOUS
 10
5.758127
 20
-8.140537
  0
SEQEND
  8
0
  0
SOLID
  8
0
 62
    15
 10
5.800916
 20
-8.154290
 11
5.796331
 21
-7.432996
 12
5.839120
 22
-8.160403
 13
5.836063
 23
-7.440637
  0
POLYLINE
  8
0
  6
CONTINUOUS
 66
     1
 40
0.000000
 41
0.000000
  0
VERTEX
  8
0
  6
CONTINUOUS
 10
5.800916
 20
-8.154290
  0
VERTEX
  8
0
  6
CONTINUOUS
 10
5.796331
 20
-7.432996
  0
VERTEX
  8
0
  6
CONTINUOUS
 10
5.836063
 20
-7.440637
  0
VERTEX
  8
0
  6
CONTINUOUS
 10
5.839120
 20
-8.160403
  0
VERTEX
  8
0
  6
CONTINUOUS
 10
5.800916
 20
-8.154290
  0
SEQEND
  8
0
  0
SOLID
  8
0
 62
    15
 10
5.839120
 20
-8.160403
 11
5.836063
 21
-7.440637
 12
5.871211
 22
-8.161931
 13
5.868155
 23
-7.442165
  0
POLYLINE
  8
0
  6
CONTINUOUS
 66
     1
 40
0.000000
 41
0.000000
  0
VERTEX
  8
0
  6
CONTINUOUS
 10
5.839120
 20
-8.160403
  0
VERTEX
  8
0
  6
CONTINUOUS
 10
5.836063
 20
-7.440637
  0
VERTEX
  8
0
  6
CONTINUOUS
 10
5.868155
 20
-7.442165
  0
VERTEX
  8
0
  6
CONTINUOUS
 10
5.871211
 20
-8.161931
  0
VERTEX
  8
0
  6
CONTINUOUS
 10
5.839120
 20
-8.160403
  0
SEQEND
  8
0
  0
SOLID
  8
0
 62
    15
 10
5.871211
 20
-8.161931
 11
5.868155
 21
-7.442165
 12
5.872739
 22
-8.161931
 13
5.869683
 23
-7.440637
  0
POLYLINE
  8
0
  6
CONTINUOUS
 66
     1
 40
0.000000
 41
0.000000
  0
VERTEX
  8
0
  6
CONTINUOUS
 10
5.871211
 20
-8.161931
  0
VERTEX
  8
0
  6
CONTINUOUS
 10
5.868155
 20
-7.442165
  0
VERTEX
  8
0
  6
CONTINUOUS
 10
5.869683
 20
-7.440637
  0
VERTEX
  8
0
  6
CONTINUOUS
 10
5.872739
 20
-8.161931
  0
VERTEX
  8
0
  6
CONTINUOUS
 10
5.871211
 20
-8.161931
  0
SEQEND
  8
0
  0
SOLID
  8
0
 62
    15
 10
2.357959
 20
-8.250565
 11
2.354903
 21
-7.529271
 12
2.357959
 22
-7.506348
 13
2.354903
 23
-6.786582
  0
POLYLINE
  8
0
  6
CONTINUOUS
 66
     1
 40
0.000000
 41
0.000000
  0
VERTEX
  8
0
  6
CONTINUOUS
 10
2.357959
 20
-8.250565
  0
VERTEX
  8
0
  6
CONTINUOUS
 10
2.354903
 20
-7.529271
  0
VERTEX
  8
0
  6
CONTINUOUS
 10
2.354903
 20
-6.786582
  0
VERTEX
  8
0
  6
CONTINUOUS
 10
2.357959
 20
-7.506348
  0
VERTEX
  8
0
  6
CONTINUOUS
 10
2.357959
 20
-8.250565
  0
SEQEND
  8
0
  0
SOLID
  8
0
 62
    15
 10
2.357959
 20
-7.506348
 11
2.354903
 21
-6.786582
 12
3.346682
 22
-7.506348
 13
3.343626
 23
-6.786582
  0
POLYLINE
  8
0
  6
CONTINUOUS
 66
     1
 40
0.000000
 41
0.000000
  0
VERTEX
  8
0
  6
CONTINUOUS
 10
2.357959
 20
-7.506348
  0
VERTEX
  8
0
  6
CONTINUOUS
 10
2.354903
 20
-6.786582
  0
VERTEX
  8
0
  6
CONTINUOUS
 10
3.343626
 20
-6.786582
  0
VERTEX
  8
0
  6
CONTINUOUS
 10
3.346682
 20
-7.506348
  0
VERTEX
  8
0
  6
CONTINUOUS
 10
2.357959
 20
-7.506348
  0
SEQEND
  8
0
  0
POLYLINE
  8
0
  6
CONTINUOUS
 66
     1
 40
0.000000
 41
0.000000
  0
VERTEX
  8
0
  6
CONTINUOUS
 10
3.346682
 20
-7.663749
  0
VERTEX
  8
0
  6
CONTINUOUS
 10
5.345522
 20
-7.828791
  0
VERTEX
  8
0
  6
CONTINUOUS
 10
5.345522
 20
-7.926594
  0
VERTEX
  8
0
  6
CONTINUOUS
 10
5.596142
 20
-7.926594
  0
VERTEX
  8
0
  6
CONTINUOUS
 10
5.596142
 20
-7.928122
  0
VERTEX
  8
0
  6
CONTINUOUS
 10
5.602254
 20
-7.963270
  0
VERTEX
  8
0
  6
CONTINUOUS
 10
5.611423
 20
-7.993833
  0
VERTEX
  8
0
  6
CONTINUOUS
 10
5.623649
 20
-8.022868
  0
VERTEX
  8
0
  6
CONTINUOUS
 10
5.638930
 20
-8.047319
  0
VERTEX
  8
0
  6
CONTINUOUS
 10
5.674078
 20
-8.088579
  0
VERTEX
  8
0
  6
CONTINUOUS
 10
5.715338
 20
-8.119143
  0
VERTEX
  8
0
  6
CONTINUOUS
 10
5.758127
 20
-8.140537
  0
VERTEX
  8
0
  6
CONTINUOUS
 10
5.800916
 20
-8.154290
  0
VERTEX
  8
0
  6
CONTINUOUS
 10
5.839120
 20
-8.160403
  0
VERTEX
  8
0
  6
CONTINUOUS
 10
5.871211
 20
-8.161931
  0
VERTEX
  8
0
  6
CONTINUOUS
 10
5.872739
 20
-8.161931
  0
VERTEX
  8
0
  6
CONTINUOUS
 10
5.872739
 20
-8.250565
  0
VERTEX
  8
0
  6
CONTINUOUS
 10
2.357959
 20
-8.250565
  0
VERTEX
  8
0
  6
CONTINUOUS
 10
2.357959
 20
-7.506348
  0
VERTEX
  8
0
  6
CONTINUOUS
 10
3.346682
 20
-7.506348
  0
VERTEX
  8
0
  6
CONTINUOUS
 10
3.346682
 20
-7.662221
  0
VERTEX
  8
0
  6
CONTINUOUS
 10
3.346682
 20
-7.663749
  0
SEQEND
  8
0
  0
TEXT
  8
0
 10
3.818885
 20
-8.573008
 40
0.133129
  1
BA  155
 41
1.000000
  7
SN1
 71
     0
 72
     5
 11
4.401584
 21
-8.573008
  0
TEXT
  8
0
 10
3.663012
 20
-8.764028
 40
0.133129
  1
3/4" x 3-1/2"
 41
1.000000
  7
SN1
 71
     0
 72
     5
 11
4.548715
 21
-8.764028
  0
TEXT
  8
0
 10
7.561362
 20
-2.151657
 40
0.133129
  1
case
 41
1.000000
  7
SN1
 71
     0
 72
     5
 11
7.909189
 21
-2.151657
  0
TEXT
  8
0
 10
7.598038
 20
-2.344206
 40
0.133129
  1
155
 41
1.000000
  7
SN1
 71
     0
 72
     5
 11
7.872355
 21
-2.344206
  0
ENDSEC
  0
EOF
